  0
SECTION
  2
HEADER
  9
$ACADVER
  1
AC1015
  9
$ACADMAINTVER
 70
     6
  9
$DWGCODEPAGE
  3
ANSI_1252
  9
$INSBASE
 10
0.0
 20
0.0
 30
0.0
  9
$EXTMIN
 10
27.72710046309254
 20
2.466092140794671
 30
0.0
  9
$EXTMAX
 10
527.9193692924941
 20
406.9659381407947
 30
0.0
  9
$LIMMIN
 10
0.0
 20
0.0
  9
$LIMMAX
 10
594.0
 20
420.0
  9
$ORTHOMODE
 70
     1
  9
$REGENMODE
 70
     1
  9
$FILLMODE
 70
     1
  9
$QTEXTMODE
 70
     0
  9
$MIRRTEXT
 70
     1
  9
$LTSCALE
 40
1.1
  9
$ATTMODE
 70
     1
  9
$TEXTSIZE
 40
10.0
  9
$TRACEWID
 40
0.05
  9
$TEXTSTYLE
  7
STANDARD
  9
$CLAYER
  8
Defpoints
  9
$CELTYPE
  6
Continuous
  9
$CECOLOR
 62
   256
  9
$CELTSCALE
 40
1.0
  9
$DISPSILH
 70
     0
  9
$DIMSCALE
 40
1.0
  9
$DIMASZ
 40
0.18
  9
$DIMEXO
 40
0.0625
  9
$DIMDLI
 40
0.38
  9
$DIMRND
 40
0.0
  9
$DIMDLE
 40
0.0
  9
$DIMEXE
 40
0.18
  9
$DIMTP
 40
0.0
  9
$DIMTM
 40
0.0
  9
$DIMTXT
 40
0.18
  9
$DIMCEN
 40
0.09
  9
$DIMTSZ
 40
0.0
  9
$DIMTOL
 70
     0
  9
$DIMLIM
 70
     0
  9
$DIMTIH
 70
     1
  9
$DIMTOH
 70
     1
  9
$DIMSE1
 70
     0
  9
$DIMSE2
 70
     0
  9
$DIMTAD
 70
     0
  9
$DIMZIN
 70
     0
  9
$DIMBLK
  1

  9
$DIMASO
 70
     1
  9
$DIMSHO
 70
     1
  9
$DIMPOST
  1

  9
$DIMAPOST
  1

  9
$DIMALT
 70
     0
  9
$DIMALTD
 70
     2
  9
$DIMALTF
 40
25.4
  9
$DIMLFAC
 40
1.0
  9
$DIMTOFL
 70
     0
  9
$DIMTVP
 40
0.0
  9
$DIMTIX
 70
     0
  9
$DIMSOXD
 70
     0
  9
$DIMSAH
 70
     0
  9
$DIMBLK1
  1

  9
$DIMBLK2
  1

  9
$DIMSTYLE
  2
Standard
  9
$DIMCLRD
 70
     0
  9
$DIMCLRE
 70
     0
  9
$DIMCLRT
 70
     0
  9
$DIMTFAC
 40
1.0
  9
$DIMGAP
 40
0.09
  9
$DIMJUST
 70
     0
  9
$DIMSD1
 70
     0
  9
$DIMSD2
 70
     0
  9
$DIMTOLJ
 70
     1
  9
$DIMTZIN
 70
     0
  9
$DIMALTZ
 70
     0
  9
$DIMALTTZ
 70
     0
  9
$DIMUPT
 70
     0
  9
$DIMDEC
 70
     4
  9
$DIMTDEC
 70
     4
  9
$DIMALTU
 70
     2
  9
$DIMALTTD
 70
     2
  9
$DIMTXSTY
  7
STANDARD
  9
$DIMAUNIT
 70
     0
  9
$DIMADEC
 70
     0
  9
$DIMALTRND
 40
0.0
  9
$DIMAZIN
 70
     0
  9
$DIMDSEP
 70
    46
  9
$DIMATFIT
 70
     3
  9
$DIMFRAC
 70
     0
  9
$DIMLDRBLK
  1

  9
$DIMLUNIT
 70
     2
  9
$DIMLWD
 70
    -2
  9
$DIMLWE
 70
    -2
  9
$DIMTMOVE
 70
     0
  9
$LUNITS
 70
     2
  9
$LUPREC
 70
     4
  9
$SKETCHINC
 40
0.1
  9
$FILLETRAD
 40
0.0
  9
$AUNITS
 70
     0
  9
$AUPREC
 70
     0
  9
$MENU
  1
.
  9
$ELEVATION
 40
0.0
  9
$PELEVATION
 40
0.0
  9
$THICKNESS
 40
0.0
  9
$LIMCHECK
 70
     0
  9
$CHAMFERA
 40
0.0
  9
$CHAMFERB
 40
0.0
  9
$CHAMFERC
 40
0.0
  9
$CHAMFERD
 40
0.0
  9
$SKPOLY
 70
     0
  9
$TDCREATE
 40
2453936.303851458
  9
$TDUCREATE
 40
2453936.262184792
  9
$TDUPDATE
 40
2456966.67518059
  9
$TDUUPDATE
 40
2456966.633513924
  9
$TDINDWG
 40
0.2187318866
  9
$TDUSRTIMER
 40
2456966.632890231
  9
$USRTIMER
 70
     1
  9
$ANGBASE
 50
0.0
  9
$ANGDIR
 70
     0
  9
$PDMODE
 70
     0
  9
$PDSIZE
 40
0.0
  9
$PLINEWID
 40
0.0
  9
$SPLFRAME
 70
     0
  9
$SPLINETYPE
 70
     6
  9
$SPLINESEGS
 70
     8
  9
$HANDSEED
  5
C4C
  9
$SURFTAB1
 70
     6
  9
$SURFTAB2
 70
     6
  9
$SURFTYPE
 70
     6
  9
$SURFU
 70
     6
  9
$SURFV
 70
     6
  9
$UCSBASE
  2

  9
$UCSNAME
  2

  9
$UCSORG
 10
0.0
 20
0.0
 30
0.0
  9
$UCSXDIR
 10
1.0
 20
0.0
 30
0.0
  9
$UCSYDIR
 10
0.0
 20
1.0
 30
0.0
  9
$UCSORTHOREF
  2

  9
$UCSORTHOVIEW
 70
     0
  9
$UCSORGTOP
 10
0.0
 20
0.0
 30
0.0
  9
$UCSORGBOTTOM
 10
0.0
 20
0.0
 30
0.0
  9
$UCSORGLEFT
 10
0.0
 20
0.0
 30
0.0
  9
$UCSORGRIGHT
 10
0.0
 20
0.0
 30
0.0
  9
$UCSORGFRONT
 10
0.0
 20
0.0
 30
0.0
  9
$UCSORGBACK
 10
0.0
 20
0.0
 30
0.0
  9
$PUCSBASE
  2

  9
$PUCSNAME
  2

  9
$PUCSORG
 10
0.0
 20
0.0
 30
0.0
  9
$PUCSXDIR
 10
1.0
 20
0.0
 30
0.0
  9
$PUCSYDIR
 10
0.0
 20
1.0
 30
0.0
  9
$PUCSORTHOREF
  2

  9
$PUCSORTHOVIEW
 70
     0
  9
$PUCSORGTOP
 10
0.0
 20
0.0
 30
0.0
  9
$PUCSORGBOTTOM
 10
0.0
 20
0.0
 30
0.0
  9
$PUCSORGLEFT
 10
0.0
 20
0.0
 30
0.0
  9
$PUCSORGRIGHT
 10
0.0
 20
0.0
 30
0.0
  9
$PUCSORGFRONT
 10
0.0
 20
0.0
 30
0.0
  9
$PUCSORGBACK
 10
0.0
 20
0.0
 30
0.0
  9
$USERI1
 70
     0
  9
$USERI2
 70
     0
  9
$USERI3
 70
     0
  9
$USERI4
 70
     0
  9
$USERI5
 70
     0
  9
$USERR1
 40
0.0
  9
$USERR2
 40
0.0
  9
$USERR3
 40
0.0
  9
$USERR4
 40
0.0
  9
$USERR5
 40
0.0
  9
$WORLDVIEW
 70
     1
  9
$SHADEDGE
 70
     3
  9
$SHADEDIF
 70
    70
  9
$TILEMODE
 70
     0
  9
$MAXACTVP
 70
    64
  9
$PINSBASE
 10
0.0
 20
0.0
 30
0.0
  9
$PLIMCHECK
 70
     0
  9
$PEXTMIN
 10
-5.97496672909267
 20
-21.48640408278365
 30
0.0
  9
$PEXTMAX
 10
414.0250332709073
 20
275.5135959172163
 30
0.0
  9
$PLIMMIN
 10
-5.793749809265136
 20
-17.79375076293945
  9
$PLIMMAX
 10
414.2062501907349
 20
279.2062492370605
  9
$UNITMODE
 70
     0
  9
$VISRETAIN
 70
     1
  9
$PLINEGEN
 70
     0
  9
$PSLTSCALE
 70
     0
  9
$TREEDEPTH
 70
  3020
  9
$CMLSTYLE
  2
Standard
  9
$CMLJUST
 70
     0
  9
$CMLSCALE
 40
1.0
  9
$PROXYGRAPHICS
 70
     1
  9
$MEASUREMENT
 70
     0
  9
$CELWEIGHT
370
    -1
  9
$ENDCAPS
280
     0
  9
$JOINSTYLE
280
     0
  9
$LWDISPLAY
290
     0
  9
$INSUNITS
 70
     0
  9
$HYPERLINKBASE
  1

  9
$STYLESHEET
  1

  9
$XEDIT
290
     1
  9
$CEPSNTYPE
380
     0
  9
$PSTYLEMODE
290
     1
  9
$FINGERPRINTGUID
  2
{1C71893A-4596-4A4F-A74E-6608D5988F8C}
  9
$VERSIONGUID
  2
{5330803A-768F-4A34-86CE-0A2AF062C81A}
  9
$EXTNAMES
290
     1
  9
$PSVPSCALE
 40
0.0
  9
$OLESTARTUP
290
     0
  0
ENDSEC
  0
SECTION
  2
CLASSES
  0
CLASS
  1
ACDBDICTIONARYWDFLT
  2
AcDbDictionaryWithDefault
  3
ObjectDBX Classes
 90
        0
280
     0
281
     0
  0
CLASS
  1
ACDBPLACEHOLDER
  2
AcDbPlaceHolder
  3
ObjectDBX Classes
 90
        0
280
     0
281
     0
  0
CLASS
  1
LAYOUT
  2
AcDbLayout
  3
ObjectDBX Classes
 90
        0
280
     0
281
     0
  0
CLASS
  1
DICTIONARYVAR
  2
AcDbDictionaryVar
  3
ObjectDBX Classes
 90
        0
280
     0
281
     0
  0
CLASS
  1
SCALE
  2
AcDbScale
  3
ObjectDBX Classes
 90
     1153
280
     0
281
     0
  0
CLASS
  1
VISUALSTYLE
  2
AcDbVisualStyle
  3
ObjectDBX Classes
 90
     4095
280
     0
281
     0
  0
CLASS
  1
MATERIAL
  2
AcDbMaterial
  3
ObjectDBX Classes
 90
     1153
280
     0
281
     0
  0
CLASS
  1
TABLESTYLE
  2
AcDbTableStyle
  3
ObjectDBX Classes
 90
     4095
280
     0
281
     0
  0
CLASS
  1
MLEADERSTYLE
  2
AcDbMLeaderStyle
  3
ACDB_MLEADERSTYLE_CLASS
 90
     4095
280
     0
281
     0
  0
CLASS
  1
SUN
  2
AcDbSun
  3
SCENEOE
 90
     1153
280
     0
281
     0
  0
CLASS
  1
RASTERVARIABLES
  2
AcDbRasterVariables
  3
ISM
 90
        0
280
     0
281
     0
  0
ENDSEC
  0
SECTION
  2
TABLES
  0
TABLE
  2
VPORT
  5
8
330
0
100
AcDbSymbolTable
 70
     1
  0
VPORT
  5
B89
330
8
100
AcDbSymbolTableRecord
100
AcDbViewportTableRecord
  2
*Active
 70
     0
 10
0.0
 20
0.0
 11
1.0
 21
1.0
 12
277.8085241752622
 22
204.7128305615773
 13
0.0
 23
0.0
 14
1.0
 24
1.0
 15
0.0
 25
0.0
 16
0.0
 26
0.0
 36
1.0
 17
0.0
 27
0.0
 37
0.0
 40
409.0195692796637
 41
1.762081784386617
 42
50.0
 43
0.0
 44
0.0
 50
0.0
 51
0.0
 71
     0
 72
   100
 73
     1
 74
     1
 75
     0
 76
     0
 77
     0
 78
     0
281
     0
 65
     1
110
0.0
120
0.0
130
0.0
111
1.0
121
0.0
131
0.0
112
0.0
122
1.0
132
0.0
 79
     0
146
0.0
  0
ENDTAB
  0
TABLE
  2
LTYPE
  5
5
330
0
100
AcDbSymbolTable
 70
     5
  0
LTYPE
  5
13
330
5
100
AcDbSymbolTableRecord
100
AcDbLinetypeTableRecord
  2
ByBlock
 70
     0
  3

 72
    65
 73
     0
 40
0.0
  0
LTYPE
  5
14
330
5
100
AcDbSymbolTableRecord
100
AcDbLinetypeTableRecord
  2
ByLayer
 70
     0
  3

 72
    65
 73
     0
 40
0.0
  0
LTYPE
  5
15
330
5
100
AcDbSymbolTableRecord
100
AcDbLinetypeTableRecord
  2
Continuous
 70
     0
  3
Solid line
 72
    65
 73
     0
 40
0.0
  0
LTYPE
  5
22
330
5
100
AcDbSymbolTableRecord
100
AcDbLinetypeTableRecord
  2
AUSGEZOGEN
 70
     0
  3
Solid line
 72
    65
 73
     0
 40
0.0
  0
LTYPE
  5
23
330
5
100
AcDbSymbolTableRecord
100
AcDbLinetypeTableRecord
  2
GESTRICHELT
 70
     0
  3
__ __ __ __ __ __ __ __
 72
    65
 73
     2
 40
0.75
 49
0.5
 74
     0
 49
-0.25
 74
     0
  0
LTYPE
  5
35
330
5
100
AcDbSymbolTableRecord
100
AcDbLinetypeTableRecord
  2
STRICHPUNKT
 70
     0
  3
__ . __ . __ . __ . __ 
 72
    65
 73
     4
 40
1.0
 49
0.5
 74
     0
 49
-0.25
 74
     0
 49
0.0
 74
     0
 49
-0.25
 74
     0
  0
LTYPE
  5
38
330
5
100
AcDbSymbolTableRecord
100
AcDbLinetypeTableRecord
  2
VERDECKT
 70
     0
  3
__ __ __ __ __ __ __ __
 72
    65
 73
     2
 40
0.375
 49
0.25
 74
     0
 49
-0.125
 74
     0
  0
ENDTAB
  0
TABLE
  2
LAYER
  5
2
102
{ACAD_XDICTIONARY
360
45F
102
}
330
0
100
AcDbSymbolTable
 70
     8
  0
LAYER
  5
10
330
2
100
AcDbSymbolTableRecord
100
AcDbLayerTableRecord
  2
0
 70
     0
 62
     7
  6
Continuous
370
    25
390
F
  0
LAYER
  5
3B
330
2
100
AcDbSymbolTableRecord
100
AcDbLayerTableRecord
  2
1
 70
     0
 62
     1
  6
AUSGEZOGEN
370
    18
390
F
  0
LAYER
  5
454
330
2
100
AcDbSymbolTableRecord
100
AcDbLayerTableRecord
  2
Text
 70
     0
 62
     7
  6
AUSGEZOGEN
370
    25
390
F
  0
LAYER
  5
568
330
2
100
AcDbSymbolTableRecord
100
AcDbLayerTableRecord
  2
Defpoints
 70
     0
 62
     7
  6
Continuous
290
     0
370
    -3
390
F
  0
LAYER
  5
569
330
2
100
AcDbSymbolTableRecord
100
AcDbLayerTableRecord
  2
Rüttler
 70
     0
 62
    62
  6
Continuous
370
    35
390
F
  0
LAYER
  5
961
330
2
100
AcDbSymbolTableRecord
100
AcDbLayerTableRecord
  2
RAHMEN07
 70
     0
 62
     5
  6
Continuous
370
    50
390
F
  0
LAYER
  5
962
330
2
100
AcDbSymbolTableRecord
100
AcDbLayerTableRecord
  2
RAHMEN025
 70
     0
 62
     7
  6
Continuous
370
    25
390
F
  0
LAYER
  5
963
330
2
100
AcDbSymbolTableRecord
100
AcDbLayerTableRecord
  2
RAHMEN05
 70
     0
 62
     6
  6
Continuous
370
    50
390
F
  0
ENDTAB
  0
TABLE
  2
STYLE
  5
3
330
0
100
AcDbSymbolTable
 70
     5
  0
STYLE
  5
11
330
3
100
AcDbSymbolTableRecord
100
AcDbTextStyleTableRecord
  2
STANDARD
 70
     0
 40
0.0
 41
1.0
 50
0.0
 71
     0
 42
10.0
  3
txt
  4

  0
STYLE
  5
52
330
3
100
AcDbSymbolTableRecord
100
AcDbTextStyleTableRecord
  2
ROMANS
 70
     0
 40
3.5
 41
1.0
 50
0.0
 71
     0
 42
3.5
  3
romans
  4

  0
STYLE
  5
46B
330
3
100
AcDbSymbolTableRecord
100
AcDbTextStyleTableRecord
  2
NORM
 70
     0
 40
0.0
 41
1.0
 50
0.0
 71
     0
 42
40.0
  3
SIMPLEX
  4

  0
STYLE
  5
46C
330
3
100
AcDbSymbolTableRecord
100
AcDbTextStyleTableRecord
  2
Stil1
 70
     0
 40
0.0
 41
1.0
 50
0.0
 71
     0
 42
2.5
  3
romans.shx
  4
bigfont.shx
  0
STYLE
  5
964
330
3
100
AcDbSymbolTableRecord
100
AcDbTextStyleTableRecord
  2
ISO Proportional
 70
     0
 40
0.0
 41
1.0
 50
0.0
 71
     0
 42
2.5
  3
isocp.shx
  4

  0
ENDTAB
  0
TABLE
  2
VIEW
  5
6
330
0
100
AcDbSymbolTable
 70
     0
  0
ENDTAB
  0
TABLE
  2
UCS
  5
7
330
0
100
AcDbSymbolTable
 70
     0
  0
ENDTAB
  0
TABLE
  2
APPID
  5
9
330
0
100
AcDbSymbolTable
 70
     2
  0
APPID
  5
12
330
9
100
AcDbSymbolTableRecord
100
AcDbRegAppTableRecord
  2
ACAD
 70
     0
  0
APPID
  5
46E
330
9
100
AcDbSymbolTableRecord
100
AcDbRegAppTableRecord
  2
AcAecLayerStandard
 70
     0
  0
ENDTAB
  0
TABLE
  2
DIMSTYLE
  5
A
330
0
100
AcDbSymbolTable
 70
     2
100
AcDbDimStyleTable
  0
DIMSTYLE
105
2A4
330
A
100
AcDbSymbolTableRecord
100
AcDbDimStyleTableRecord
  2
Standard
 70
     0
178
     0
340
11
  0
DIMSTYLE
105
46D
330
A
100
AcDbSymbolTableRecord
100
AcDbDimStyleTableRecord
  2
Stil 3
 70
     0
 41
20.0
 42
0.0
 43
0.0
 44
10.0
 73
     0
 74
     0
 77
     1
 78
     8
 79
     2
140
20.0
141
2.5
143
0.03937007874016
147
10.0
171
     3
172
     1
176
     7
177
     7
271
     2
178
   256
179
     1
271
     2
272
     2
274
     3
278
    44
283
     0
284
     8
288
     1
340
46C
371
    25
372
    25
  0
ENDTAB
  0
TABLE
  2
BLOCK_RECORD
  5
1
330
0
100
AcDbSymbolTable
 70
    45
  0
BLOCK_RECORD
  5
1E
330
1
100
AcDbSymbolTableRecord
100
AcDbBlockTableRecord
  2
*Model_Space
340
21
  0
BLOCK_RECORD
  5
1A
330
1
100
AcDbSymbolTableRecord
100
AcDbBlockTableRecord
  2
*Paper_Space
340
1D
  0
BLOCK_RECORD
  5
61
330
1
100
AcDbSymbolTableRecord
100
AcDbBlockTableRecord
  2
U0004
340
0
102
{BLKREFS
331
95
102
}
  0
BLOCK_RECORD
  5
65
330
1
100
AcDbSymbolTableRecord
100
AcDbBlockTableRecord
  2
U0008
340
0
102
{BLKREFS
331
7F
102
}
  0
BLOCK_RECORD
  5
69
330
1
100
AcDbSymbolTableRecord
100
AcDbBlockTableRecord
  2
U0013
340
0
102
{BLKREFS
331
6F
102
}
  0
BLOCK_RECORD
  5
6D
330
1
100
AcDbSymbolTableRecord
100
AcDbBlockTableRecord
  2
U0012
340
0
102
{BLKREFS
331
73
102
}
  0
BLOCK_RECORD
  5
71
330
1
100
AcDbSymbolTableRecord
100
AcDbBlockTableRecord
  2
U0011
340
0
102
{BLKREFS
331
77
102
}
  0
BLOCK_RECORD
  5
75
330
1
100
AcDbSymbolTableRecord
100
AcDbBlockTableRecord
  2
U0010
340
0
102
{BLKREFS
331
7B
102
}
  0
BLOCK_RECORD
  5
79
330
1
100
AcDbSymbolTableRecord
100
AcDbBlockTableRecord
  2
U0009
340
0
102
{BLKREFS
331
80
102
}
  0
BLOCK_RECORD
  5
7D
330
1
100
AcDbSymbolTableRecord
100
AcDbBlockTableRecord
  2
U0007
340
0
102
{BLKREFS
331
84
102
}
  0
BLOCK_RECORD
  5
82
330
1
100
AcDbSymbolTableRecord
100
AcDbBlockTableRecord
  2
U0006
340
0
102
{BLKREFS
331
8F
102
}
  0
BLOCK_RECORD
  5
86
330
1
100
AcDbSymbolTableRecord
100
AcDbBlockTableRecord
  2
U0005
340
0
102
{BLKREFS
331
96
102
}
  0
BLOCK_RECORD
  5
91
330
1
100
AcDbSymbolTableRecord
100
AcDbBlockTableRecord
  2
U0003
340
0
102
{BLKREFS
331
1AB
102
}
  0
BLOCK_RECORD
  5
99
330
1
100
AcDbSymbolTableRecord
100
AcDbBlockTableRecord
  2
U0016
340
0
102
{BLKREFS
331
B8
102
}
  0
BLOCK_RECORD
  5
A0
330
1
100
AcDbSymbolTableRecord
100
AcDbBlockTableRecord
  2
U0017
340
0
102
{BLKREFS
331
B9
102
}
  0
BLOCK_RECORD
  5
A7
330
1
100
AcDbSymbolTableRecord
100
AcDbBlockTableRecord
  2
U0018
340
0
102
{BLKREFS
331
BA
102
}
  0
BLOCK_RECORD
  5
AE
330
1
100
AcDbSymbolTableRecord
100
AcDbBlockTableRecord
  2
U0019
340
0
102
{BLKREFS
331
BB
102
}
  0
BLOCK_RECORD
  5
B5
330
1
100
AcDbSymbolTableRecord
100
AcDbBlockTableRecord
  2
U0015
340
0
102
{BLKREFS
331
C1
102
}
  0
BLOCK_RECORD
  5
BF
330
1
100
AcDbSymbolTableRecord
100
AcDbBlockTableRecord
  2
U0014
340
0
102
{BLKREFS
331
1AC
102
}
  0
BLOCK_RECORD
  5
C3
330
1
100
AcDbSymbolTableRecord
100
AcDbBlockTableRecord
  2
U0022
340
0
102
{BLKREFS
331
C9
102
}
  0
BLOCK_RECORD
  5
C7
330
1
100
AcDbSymbolTableRecord
100
AcDbBlockTableRecord
  2
U0021
340
0
102
{BLKREFS
331
D9
102
}
  0
BLOCK_RECORD
  5
CB
330
1
100
AcDbSymbolTableRecord
100
AcDbBlockTableRecord
  2
U0023
340
0
102
{BLKREFS
331
DC
102
}
  0
BLOCK_RECORD
  5
D1
330
1
100
AcDbSymbolTableRecord
100
AcDbBlockTableRecord
  2
U0024
340
0
102
{BLKREFS
331
DD
102
}
  0
BLOCK_RECORD
  5
D7
330
1
100
AcDbSymbolTableRecord
100
AcDbBlockTableRecord
  2
U0020
340
0
102
{BLKREFS
331
1AE
102
}
  0
BLOCK_RECORD
  5
E9
330
1
100
AcDbSymbolTableRecord
100
AcDbBlockTableRecord
  2
U0028
340
0
102
{BLKREFS
331
EF
102
}
  0
BLOCK_RECORD
  5
ED
330
1
100
AcDbSymbolTableRecord
100
AcDbBlockTableRecord
  2
U0027
340
0
102
{BLKREFS
331
FE
102
}
  0
BLOCK_RECORD
  5
F1
330
1
100
AcDbSymbolTableRecord
100
AcDbBlockTableRecord
  2
U0029
340
0
102
{BLKREFS
331
101
102
}
  0
BLOCK_RECORD
  5
F7
330
1
100
AcDbSymbolTableRecord
100
AcDbBlockTableRecord
  2
U0030
340
0
102
{BLKREFS
331
102
102
}
  0
BLOCK_RECORD
  5
FC
330
1
100
AcDbSymbolTableRecord
100
AcDbBlockTableRecord
  2
U0026
340
0
102
{BLKREFS
331
111
102
}
  0
BLOCK_RECORD
  5
10F
330
1
100
AcDbSymbolTableRecord
100
AcDbBlockTableRecord
  2
U0025
340
0
102
{BLKREFS
331
1AF
102
}
  0
BLOCK_RECORD
  5
113
330
1
100
AcDbSymbolTableRecord
100
AcDbBlockTableRecord
  2
U0032
340
0
102
{BLKREFS
331
11D
102
}
  0
BLOCK_RECORD
  5
117
330
1
100
AcDbSymbolTableRecord
100
AcDbBlockTableRecord
  2
U0033
340
0
102
{BLKREFS
331
11E
102
}
  0
BLOCK_RECORD
  5
11B
330
1
100
AcDbSymbolTableRecord
100
AcDbBlockTableRecord
  2
U0031
340
0
102
{BLKREFS
331
1B0
102
}
  0
BLOCK_RECORD
  5
12A
330
1
100
AcDbSymbolTableRecord
100
AcDbBlockTableRecord
  2
U0036
340
0
102
{BLKREFS
331
130
102
}
  0
BLOCK_RECORD
  5
12E
330
1
100
AcDbSymbolTableRecord
100
AcDbBlockTableRecord
  2
U0035
340
0
102
{BLKREFS
331
14D
102
}
  0
BLOCK_RECORD
  5
132
330
1
100
AcDbSymbolTableRecord
100
AcDbBlockTableRecord
  2
U0037
340
0
102
{BLKREFS
331
150
102
}
  0
BLOCK_RECORD
  5
13B
330
1
100
AcDbSymbolTableRecord
100
AcDbBlockTableRecord
  2
U0038
340
0
102
{BLKREFS
331
151
102
}
  0
BLOCK_RECORD
  5
146
330
1
100
AcDbSymbolTableRecord
100
AcDbBlockTableRecord
  2
U0039
340
0
102
{BLKREFS
331
174
102
}
  0
BLOCK_RECORD
  5
14A
330
1
100
AcDbSymbolTableRecord
100
AcDbBlockTableRecord
  2
U0034
340
0
102
{BLKREFS
331
1B1
102
}
  0
BLOCK_RECORD
  5
178
330
1
100
AcDbSymbolTableRecord
100
AcDbBlockTableRecord
  2
U0040
340
0
102
{BLKREFS
331
1B2
102
}
  0
BLOCK_RECORD
  5
17F
330
1
100
AcDbSymbolTableRecord
100
AcDbBlockTableRecord
  2
U0041
340
0
102
{BLKREFS
331
1C6
102
}
  0
BLOCK_RECORD
  5
187
330
1
100
AcDbSymbolTableRecord
100
AcDbBlockTableRecord
  2
U0042
340
0
102
{BLKREFS
331
1CA
102
}
  0
BLOCK_RECORD
  5
196
330
1
100
AcDbSymbolTableRecord
100
AcDbBlockTableRecord
  2
U0043
340
0
102
{BLKREFS
331
1CB
102
}
  0
BLOCK_RECORD
  5
1A0
330
1
100
AcDbSymbolTableRecord
100
AcDbBlockTableRecord
  2
U0045
340
0
102
{BLKREFS
331
1A6
102
}
  0
BLOCK_RECORD
  5
1A4
330
1
100
AcDbSymbolTableRecord
100
AcDbBlockTableRecord
  2
U0044
340
0
102
{BLKREFS
331
1CD
102
}
  0
BLOCK_RECORD
  5
1A8
330
1
100
AcDbSymbolTableRecord
100
AcDbBlockTableRecord
  2
U0002
340
0
102
{BLKREFS
331
1D1
102
}
  0
BLOCK_RECORD
  5
1CF
330
1
100
AcDbSymbolTableRecord
100
AcDbBlockTableRecord
  2
U0001
340
0
  0
ENDTAB
  0
ENDSEC
  0
SECTION
  2
BLOCKS
  0
BLOCK
  5
1F
330
1E
100
AcDbEntity
  8
0
100
AcDbBlockBegin
  2
*Model_Space
 70
     0
 10
0.0
 20
0.0
 30
0.0
  3
*Model_Space
  1
*Model_Space
  0
ENDBLK
  5
20
330
1E
100
AcDbEntity
  8
0
100
AcDbBlockEnd
  0
BLOCK
  5
1B
330
1A
100
AcDbEntity
 67
     1
  8
0
100
AcDbBlockBegin
  2
*Paper_Space
 70
     0
 10
0.0
 20
0.0
 30
0.0
  3
*Paper_Space
  1
*Paper_Space
  0
ENDBLK
  5
1C
330
1A
100
AcDbEntity
 67
     1
  8
0
100
AcDbBlockEnd
  0
BLOCK
  5
62
330
61
100
AcDbEntity
  8
0
100
AcDbBlockBegin
  2
U0004
 70
     0
 10
0.0
 20
0.0
 30
0.0
  3
U0004
  1
U0004
  0
LINE
  5
63
330
61
100
AcDbEntity
  8
1
  6
AUSGEZOGEN
 62
     3
100
AcDbLine
 10
47.503994
 20
282.0836509999999
 30
0.0
 11
47.503994
 21
276.18323
 31
0.0
  0
ENDBLK
  5
64
330
61
100
AcDbEntity
  8
0
100
AcDbBlockEnd
  0
BLOCK
  5
66
330
65
100
AcDbEntity
  8
0
100
AcDbBlockBegin
  2
U0008
 70
     0
 10
0.0
 20
0.0
 30
0.0
  3
U0008
  1
U0008
  0
LINE
  5
67
330
65
100
AcDbEntity
  8
1
  6
AUSGEZOGEN
 62
     1
100
AcDbLine
 10
65.503957
 20
305.682285
 30
0.0
 11
68.003957
 21
305.682285
 31
0.0
  0
ENDBLK
  5
68
330
65
100
AcDbEntity
  8
0
100
AcDbBlockEnd
  0
BLOCK
  5
6A
330
69
100
AcDbEntity
  8
0
100
AcDbBlockBegin
  2
U0013
 70
     0
 10
0.0
 20
0.0
 30
0.0
  3
U0013
  1
U0013
  0
LINE
  5
6B
330
69
100
AcDbEntity
  8
1
  6
AUSGEZOGEN
 62
     1
100
AcDbLine
 10
65.503957
 20
304.1823459999999
 30
0.0
 11
62.503774
 21
304.1823459999999
 31
0.0
  0
ENDBLK
  5
6C
330
69
100
AcDbEntity
  8
0
100
AcDbBlockEnd
  0
BLOCK
  5
6E
330
6D
100
AcDbEntity
  8
0
100
AcDbBlockBegin
  2
U0012
 70
     0
 10
0.0
 20
0.0
 30
0.0
  3
U0012
  1
U0012
  0
INSERT
  5
6F
330
6D
100
AcDbEntity
  8
0
100
AcDbBlockReference
  2
U0013
 10
0.0
 20
0.0
 30
0.0
  0
ENDBLK
  5
70
330
6D
100
AcDbEntity
  8
0
100
AcDbBlockEnd
  0
BLOCK
  5
72
330
71
100
AcDbEntity
  8
0
100
AcDbBlockBegin
  2
U0011
 70
     0
 10
0.0
 20
0.0
 30
0.0
  3
U0011
  1
U0011
  0
INSERT
  5
73
330
71
100
AcDbEntity
  8
0
100
AcDbBlockReference
  2
U0012
 10
0.0
 20
0.0
 30
0.0
  0
ENDBLK
  5
74
330
71
100
AcDbEntity
  8
0
100
AcDbBlockEnd
  0
BLOCK
  5
76
330
75
100
AcDbEntity
  8
0
100
AcDbBlockBegin
  2
U0010
 70
     0
 10
0.0
 20
0.0
 30
0.0
  3
U0010
  1
U0010
  0
INSERT
  5
77
330
75
100
AcDbEntity
  8
0
100
AcDbBlockReference
  2
U0011
 10
0.0
 20
0.0
 30
0.0
  0
ENDBLK
  5
78
330
75
100
AcDbEntity
  8
0
100
AcDbBlockEnd
  0
BLOCK
  5
7A
330
79
100
AcDbEntity
  8
0
100
AcDbBlockBegin
  2
U0009
 70
     0
 10
0.0
 20
0.0
 30
0.0
  3
U0009
  1
U0009
  0
INSERT
  5
7B
330
79
100
AcDbEntity
  8
0
100
AcDbBlockReference
  2
U0010
 10
0.0
 20
0.0
 30
0.0
  0
ENDBLK
  5
7C
330
79
100
AcDbEntity
  8
0
100
AcDbBlockEnd
  0
BLOCK
  5
7E
330
7D
100
AcDbEntity
  8
0
100
AcDbBlockBegin
  2
U0007
 70
     0
 10
0.0
 20
0.0
 30
0.0
  3
U0007
  1
U0007
  0
INSERT
  5
7F
330
7D
100
AcDbEntity
  8
0
100
AcDbBlockReference
  2
U0008
 10
0.0
 20
0.0
 30
0.0
  0
INSERT
  5
80
330
7D
100
AcDbEntity
  8
0
100
AcDbBlockReference
  2
U0009
 10
0.0
 20
0.0
 30
0.0
  0
ENDBLK
  5
81
330
7D
100
AcDbEntity
  8
0
100
AcDbBlockEnd
  0
BLOCK
  5
83
330
82
100
AcDbEntity
  8
0
100
AcDbBlockBegin
  2
U0006
 70
     0
 10
0.0
 20
0.0
 30
0.0
  3
U0006
  1
U0006
  0
INSERT
  5
84
330
82
100
AcDbEntity
  8
0
100
AcDbBlockReference
  2
U0007
 10
0.0
 20
0.0
 30
0.0
  0
ENDBLK
  5
85
330
82
100
AcDbEntity
  8
0
100
AcDbBlockEnd
  0
BLOCK
  5
87
330
86
100
AcDbEntity
  8
0
100
AcDbBlockBegin
  2
U0005
 70
     0
 10
0.0
 20
0.0
 30
0.0
  3
U0005
  1
U0005
  0
LINE
  5
88
330
86
100
AcDbEntity
  8
1
  6
AUSGEZOGEN
 62
     1
100
AcDbLine
 10
59.30400600000001
 20
305.682285
 30
0.0
 11
59.30400600000001
 21
304.398257
 31
0.0
  0
ARC
  5
89
330
86
100
AcDbEntity
  8
1
  6
AUSGEZOGEN
 62
     1
100
AcDbCircle
 10
58.50383499999999
 20
306.28226
 30
0.0
 40
0.9999079999999999
100
AcDbArc
 50
270.0
 51
323.137095
  0
ARC
  5
8A
330
86
100
AcDbEntity
  8
1
  6
AUSGEZOGEN
 62
     1
100
AcDbCircle
 10
54.004018
 20
304.2822909999999
 30
0.0
 40
1.000061
100
AcDbArc
 50
90.0
 51
180.0
  0
LINE
  5
8B
330
86
100
AcDbEntity
  8
1
  6
AUSGEZOGEN
 62
     1
100
AcDbLine
 10
58.50383499999999
 20
305.282352
 30
0.0
 11
54.004018
 21
305.282352
 31
0.0
  0
LINE
  5
8C
330
86
100
AcDbEntity
  8
1
  6
AUSGEZOGEN
 62
     1
100
AcDbLine
 10
62.503774
 20
305.682285
 30
0.0
 11
59.30400600000001
 21
305.682285
 31
0.0
  0
LINE
  5
8D
330
86
100
AcDbEntity
  8
1
  6
AUSGEZOGEN
 62
     1
100
AcDbLine
 10
62.503774
 20
304.398257
 30
0.0
 11
59.30400600000001
 21
304.398257
 31
0.0
  0
LINE
  5
8E
330
86
100
AcDbEntity
  8
1
  6
AUSGEZOGEN
 62
     1
100
AcDbLine
 10
68.003957
 20
304.398257
 30
0.0
 11
65.503957
 21
304.398257
 31
0.0
  0
INSERT
  5
8F
330
86
100
AcDbEntity
  8
0
100
AcDbBlockReference
  2
U0006
 10
0.0
 20
0.0
 30
0.0
  0
ENDBLK
  5
90
330
86
100
AcDbEntity
  8
0
100
AcDbBlockEnd
  0
BLOCK
  5
92
330
91
100
AcDbEntity
  8
0
100
AcDbBlockBegin
  2
U0003
 70
     0
 10
0.0
 20
0.0
 30
0.0
  3
U0003
  1
U0003
  0
LINE
  5
93
330
91
100
AcDbEntity
  8
1
  6
AUSGEZOGEN
 62
     1
100
AcDbLine
 10
68.003957
 20
301.182773
 30
0.0
 11
68.003957
 21
305.682285
 31
0.0
  0
LINE
  5
94
330
91
100
AcDbEntity
  8
1
  6
AUSGEZOGEN
 62
     1
100
AcDbLine
 10
65.503957
 20
305.682285
 30
0.0
 11
65.503957
 21
301.182773
 31
0.0
  0
INSERT
  5
95
330
91
100
AcDbEntity
  8
0
100
AcDbBlockReference
  2
U0004
 10
0.0
 20
0.0
 30
0.0
  0
INSERT
  5
96
330
91
100
AcDbEntity
  8
0
100
AcDbBlockReference
  2
U0005
 10
0.0
 20
0.0
 30
0.0
  0
LINE
  5
97
330
91
100
AcDbEntity
  8
1
  6
AUSGEZOGEN
 62
     1
100
AcDbLine
 10
53.00395699999999
 20
304.2822909999999
 30
0.0
 11
53.00395699999999
 21
301.1829
 31
0.0
  0
ENDBLK
  5
98
330
91
100
AcDbEntity
  8
0
100
AcDbBlockEnd
  0
BLOCK
  5
9A
330
99
100
AcDbEntity
  8
0
100
AcDbBlockBegin
  2
U0016
 70
     0
 10
0.0
 20
0.0
 30
0.0
  3
U0016
  1
U0016
  0
ARC
  5
9B
330
99
100
AcDbEntity
  8
1
  6
AUSGEZOGEN
 62
     1
100
AcDbCircle
 10
409.504511
 20
293.682811
 30
0.0
 40
13.249978
100
AcDbArc
 50
175.0868759999999
 51
180.0
  0
LINE
  5
9C
330
99
100
AcDbEntity
  8
1
  6
AUSGEZOGEN
 62
     1
100
AcDbLine
 10
401.9211879999999
 20
304.548289
 30
0.0
 11
396.303217
 21
294.817607
 31
0.0
  0
ARC
  5
9D
330
99
100
AcDbEntity
  8
1
  6
AUSGEZOGEN
 62
     1
100
AcDbCircle
 10
409.504511
 20
293.682811
 30
0.0
 40
13.250085
100
AcDbArc
 50
115.087166
 51
124.9122699999999
  0
LINE
  5
9E
330
99
100
AcDbEntity
  8
1
  6
AUSGEZOGEN
 62
     1
100
AcDbLine
 10
403.88652
 20
305.6829329999999
 30
0.0
 11
409.5045009999999
 21
305.6829329999999
 31
0.0
  0
ENDBLK
  5
9F
330
99
100
AcDbEntity
  8
0
100
AcDbBlockEnd
  0
BLOCK
  5
A1
330
A0
100
AcDbEntity
  8
0
100
AcDbBlockBegin
  2
U0017
 70
     0
 10
0.0
 20
0.0
 30
0.0
  3
U0017
  1
U0017
  0
ARC
  5
A2
330
A0
100
AcDbEntity
  8
1
  6
AUSGEZOGEN
 62
     1
100
AcDbCircle
 10
409.504511
 20
293.682811
 30
0.0
 40
13.249965
100
AcDbArc
 50
355.087534
 51
0.0
  0
LINE
  5
A3
330
A0
100
AcDbEntity
  8
1
  6
AUSGEZOGEN
 62
     1
100
AcDbLine
 10
417.087824
 20
282.817638
 30
0.0
 11
422.705805
 21
292.5481669999999
 31
0.0
  0
ARC
  5
A4
330
A0
100
AcDbEntity
  8
1
  6
AUSGEZOGEN
 62
     1
100
AcDbCircle
 10
409.504511
 20
293.682811
 30
0.0
 40
13.249804
100
AcDbArc
 50
295.0876880000001
 51
304.912991
  0
LINE
  5
A5
330
A0
100
AcDbEntity
  8
1
  6
AUSGEZOGEN
 62
     1
100
AcDbLine
 10
415.1224919999999
 20
281.682994
 30
0.0
 11
409.504511
 21
281.682994
 31
0.0
  0
ENDBLK
  5
A6
330
A0
100
AcDbEntity
  8
0
100
AcDbBlockEnd
  0
BLOCK
  5
A8
330
A7
100
AcDbEntity
  8
0
100
AcDbBlockBegin
  2
U0018
 70
     0
 10
0.0
 20
0.0
 30
0.0
  3
U0018
  1
U0018
  0
ARC
  5
A9
330
A7
100
AcDbEntity
  8
1
  6
AUSGEZOGEN
 62
     1
100
AcDbCircle
 10
409.504511
 20
293.682811
 30
0.0
 40
13.25012199999999
100
AcDbArc
 50
180.0
 51
184.912466
  0
LINE
  5
AA
330
A7
100
AcDbEntity
  8
1
  6
AUSGEZOGEN
 62
     1
100
AcDbLine
 10
401.9211979999999
 20
282.817638
 30
0.0
 11
396.303217
 21
292.5481669999999
 31
0.0
  0
ARC
  5
AB
330
A7
100
AcDbEntity
  8
1
  6
AUSGEZOGEN
 62
     1
100
AcDbCircle
 10
409.504511
 20
293.682811
 30
0.0
 40
13.249854
100
AcDbArc
 50
235.0870089999999
 51
244.912312
  0
LINE
  5
AC
330
A7
100
AcDbEntity
  8
1
  6
AUSGEZOGEN
 62
     1
100
AcDbLine
 10
403.88653
 20
281.682994
 30
0.0
 11
409.504511
 21
281.682994
 31
0.0
  0
ENDBLK
  5
AD
330
A7
100
AcDbEntity
  8
0
100
AcDbBlockEnd
  0
BLOCK
  5
AF
330
AE
100
AcDbEntity
  8
0
100
AcDbBlockBegin
  2
U0019
 70
     0
 10
0.0
 20
0.0
 30
0.0
  3
U0019
  1
U0019
  0
ARC
  5
B0
330
AE
100
AcDbEntity
  8
1
  6
AUSGEZOGEN
 62
     1
100
AcDbCircle
 10
409.504511
 20
293.682811
 30
0.0
 40
13.25012199999999
100
AcDbArc
 50
0.0
 51
4.913123
  0
LINE
  5
B1
330
AE
100
AcDbEntity
  8
1
  6
AUSGEZOGEN
 62
     1
100
AcDbLine
 10
417.087814
 20
304.548289
 30
0.0
 11
422.705805
 21
294.817607
 31
0.0
  0
ARC
  5
B2
330
AE
100
AcDbEntity
  8
1
  6
AUSGEZOGEN
 62
     1
100
AcDbCircle
 10
409.504511
 20
293.682811
 30
0.0
 40
13.25009899999999
100
AcDbArc
 50
55.08779800000001
 51
64.91290799999999
  0
LINE
  5
B3
330
AE
100
AcDbEntity
  8
1
  6
AUSGEZOGEN
 62
     1
100
AcDbLine
 10
415.122482
 20
305.6829329999999
 30
0.0
 11
409.5045009999999
 21
305.6829329999999
 31
0.0
  0
ENDBLK
  5
B4
330
AE
100
AcDbEntity
  8
0
100
AcDbBlockEnd
  0
BLOCK
  5
B6
330
B5
100
AcDbEntity
  8
0
100
AcDbBlockBegin
  2
U0015
 70
     0
 10
0.0
 20
0.0
 30
0.0
  3
U0015
  1
U0015
  0
LINE
  5
B7
330
B5
100
AcDbEntity
  8
1
  6
STRICHPUNKT
 62
     1
100
AcDbLine
 10
429.504511
 20
293.682811
 30
0.0
 11
389.5045109999999
 21
293.682811
 31
0.0
  0
INSERT
  5
B8
330
B5
100
AcDbEntity
  8
0
100
AcDbBlockReference
  2
U0016
 10
0.0
 20
0.0
 30
0.0
  0
INSERT
  5
B9
330
B5
100
AcDbEntity
  8
0
100
AcDbBlockReference
  2
U0017
 10
0.0
 20
0.0
 30
0.0
  0
INSERT
  5
BA
330
B5
100
AcDbEntity
  8
0
100
AcDbBlockReference
  2
U0018
 10
0.0
 20
0.0
 30
0.0
  0
INSERT
  5
BB
330
B5
100
AcDbEntity
  8
0
100
AcDbBlockReference
  2
U0019
 10
0.0
 20
0.0
 30
0.0
  0
CIRCLE
  5
BC
330
B5
100
AcDbEntity
  8
1
  6
AUSGEZOGEN
 62
     1
100
AcDbCircle
 10
409.504511
 20
293.682811
 30
0.0
 40
11.599998
  0
CIRCLE
  5
BD
330
B5
100
AcDbEntity
  8
1
  6
AUSGEZOGEN
 62
     1
100
AcDbCircle
 10
409.504511
 20
293.682811
 30
0.0
 40
8.0
  0
ENDBLK
  5
BE
330
B5
100
AcDbEntity
  8
0
100
AcDbBlockEnd
  0
BLOCK
  5
C0
330
BF
100
AcDbEntity
  8
0
100
AcDbBlockBegin
  2
U0014
 70
     0
 10
0.0
 20
0.0
 30
0.0
  3
U0014
  1
U0014
  0
INSERT
  5
C1
330
BF
100
AcDbEntity
  8
0
100
AcDbBlockReference
  2
U0015
 10
0.0
 20
0.0
 30
0.0
  0
ENDBLK
  5
C2
330
BF
100
AcDbEntity
  8
0
100
AcDbBlockEnd
  0
BLOCK
  5
C4
330
C3
100
AcDbEntity
  8
0
100
AcDbBlockBegin
  2
U0022
 70
     0
 10
0.0
 20
0.0
 30
0.0
  3
U0022
  1
U0022
  0
LINE
  5
C5
330
C3
100
AcDbEntity
  8
1
  6
AUSGEZOGEN
 62
     3
100
AcDbLine
 10
1.003895999999999
 20
144.202493
 30
0.0
 11
1.003895999999999
 21
137.7025539999999
 31
0.0
  0
ENDBLK
  5
C6
330
C3
100
AcDbEntity
  8
0
100
AcDbBlockEnd
  0
BLOCK
  5
C8
330
C7
100
AcDbEntity
  8
0
100
AcDbBlockBegin
  2
U0021
 70
     0
 10
0.0
 20
0.0
 30
0.0
  3
U0021
  1
U0021
  0
INSERT
  5
C9
330
C7
100
AcDbEntity
  8
0
100
AcDbBlockReference
  2
U0022
 10
0.0
 20
0.0
 30
0.0
  0
ENDBLK
  5
CA
330
C7
100
AcDbEntity
  8
0
100
AcDbBlockEnd
  0
BLOCK
  5
CC
330
CB
100
AcDbEntity
  8
0
100
AcDbBlockBegin
  2
U0023
 70
     0
 10
0.0
 20
0.0
 30
0.0
  3
U0023
  1
U0023
  0
ARC
  5
CD
330
CB
100
AcDbEntity
  8
1
  6
AUSGEZOGEN
 62
     3
100
AcDbCircle
 10
6.003896
 20
146.3861789999999
 30
0.0
 40
5.000172
100
AcDbArc
 50
153.420876
 51
180.0000019999999
  0
ARC
  5
CE
330
CB
100
AcDbEntity
  8
1
  6
AUSGEZOGEN
 62
     3
100
AcDbCircle
 10
6.003896
 20
146.3861789999999
 30
0.0
 40
5.000276999999999
100
AcDbArc
 50
92.36105099999999
 51
153.420876
  0
LINE
  5
CF
330
CB
100
AcDbEntity
  8
1
  6
AUSGEZOGEN
 62
     3
100
AcDbLine
 10
67.003896
 20
152.182995
 30
0.0
 11
5.797901999999999
 21
151.382211
 31
0.0
  0
ENDBLK
  5
D0
330
CB
100
AcDbEntity
  8
0
100
AcDbBlockEnd
  0
BLOCK
  5
D2
330
D1
100
AcDbEntity
  8
0
100
AcDbBlockBegin
  2
U0024
 70
     0
 10
0.0
 20
0.0
 30
0.0
  3
U0024
  1
U0024
  0
ARC
  5
D3
330
D1
100
AcDbEntity
  8
1
  6
AUSGEZOGEN
 62
     3
100
AcDbCircle
 10
246.003774
 20
146.386185
 30
0.0
 40
5.0
100
AcDbArc
 50
0.000002
 51
87.64244399999997
  0
LINE
  5
D4
330
D1
100
AcDbEntity
  8
1
  6
AUSGEZOGEN
 62
     3
100
AcDbLine
 10
186.353261
 20
152.158279
 30
0.0
 11
246.209462
 21
151.382218
 31
0.0
  0
LINE
  5
D5
330
D1
100
AcDbEntity
  8
1
  6
AUSGEZOGEN
 62
     3
100
AcDbLine
 10
185.0037739999999
 20
152.1829979999999
 30
0.0
 11
186.353261
 21
152.158279
 31
0.0
  0
ENDBLK
  5
D6
330
D1
100
AcDbEntity
  8
0
100
AcDbBlockEnd
  0
BLOCK
  5
D8
330
D7
100
AcDbEntity
  8
0
100
AcDbBlockBegin
  2
U0020
 70
     0
 10
0.0
 20
0.0
 30
0.0
  3
U0020
  1
U0020
  0
INSERT
  5
D9
330
D7
100
AcDbEntity
  8
0
100
AcDbBlockReference
  2
U0021
 10
0.0
 20
0.0
 30
0.0
  0
LINE
  5
DA
330
D7
100
AcDbEntity
  8
1
  6
AUSGEZOGEN
 62
     3
100
AcDbLine
 10
1.003895999999999
 20
146.3861789999999
 30
0.0
 11
1.003895999999999
 21
144.202493
 31
0.0
  0
LINE
  5
DB
330
D7
100
AcDbEntity
  8
1
  6
AUSGEZOGEN
 62
     3
100
AcDbLine
 10
1.003895999999999
 20
135.952525
 30
0.0
 11
1.003895999999999
 21
137.7025539999999
 31
0.0
  0
INSERT
  5
DC
330
D7
100
AcDbEntity
  8
0
100
AcDbBlockReference
  2
U0023
 10
0.0
 20
0.0
 30
0.0
  0
INSERT
  5
DD
330
D7
100
AcDbEntity
  8
0
100
AcDbBlockReference
  2
U0024
 10
0.0
 20
0.0
 30
0.0
  0
LINE
  5
DE
330
D7
100
AcDbEntity
  8
1
  6
AUSGEZOGEN
 62
     3
100
AcDbLine
 10
70.807912
 20
152.182995
 30
0.0
 11
67.003896
 21
152.182995
 31
0.0
  0
LINE
  5
DF
330
D7
100
AcDbEntity
  8
1
  6
AUSGEZOGEN
 62
     3
100
AcDbLine
 10
76.003835
 20
152.182995
 30
0.0
 11
70.807912
 21
152.182995
 31
0.0
  0
LINE
  5
E0
330
D7
100
AcDbEntity
  8
1
  6
AUSGEZOGEN
 62
     3
100
AcDbLine
 10
176.0041399999999
 20
152.1829979999999
 30
0.0
 11
185.0037739999999
 21
152.1829979999999
 31
0.0
  0
ARC
  5
E1
330
D7
100
AcDbEntity
  8
1
  6
AUSGEZOGEN
 62
     3
100
AcDbCircle
 10
93.00395700000001
 20
150.1828729999999
 30
0.0
 40
1.999816999999999
100
AcDbArc
 50
0.0
 51
90.0
  0
ARC
  5
E2
330
D7
100
AcDbEntity
  8
1
  6
AUSGEZOGEN
 62
     3
100
AcDbCircle
 10
159.004018
 20
150.182875
 30
0.0
 40
2.000122
100
AcDbArc
 50
90.0
 51
180.0
  0
ARC
  5
E3
330
D7
100
AcDbEntity
  8
1
  6
AUSGEZOGEN
 62
     3
100
AcDbCircle
 10
97.00389600000001
 20
149.1829649999999
 30
0.0
 40
2.000122
100
AcDbArc
 50
180.0
 51
270.0
  0
ARC
  5
E4
330
D7
100
AcDbEntity
  8
1
  6
AUSGEZOGEN
 62
     3
100
AcDbCircle
 10
155.003774
 20
149.1829669999999
 30
0.0
 40
1.999968999999999
100
AcDbArc
 50
270.0
 51
0.0
  0
LINE
  5
E5
330
D7
100
AcDbEntity
  8
1
  6
AUSGEZOGEN
 62
     3
100
AcDbLine
 10
155.003774
 20
147.1829969999999
 30
0.0
 11
97.00389600000001
 21
147.182995
 31
0.0
  0
LINE
  5
E6
330
D7
100
AcDbEntity
  8
1
  6
AUSGEZOGEN
 62
     3
100
AcDbLine
 10
76.003835
 20
152.182995
 30
0.0
 11
93.00395700000001
 21
152.182995
 31
0.0
  0
LINE
  5
E7
330
D7
100
AcDbEntity
  8
1
  6
AUSGEZOGEN
 62
     3
100
AcDbLine
 10
176.0041399999999
 20
152.1829979999999
 30
0.0
 11
159.004018
 21
152.1829969999999
 31
0.0
  0
ENDBLK
  5
E8
330
D7
100
AcDbEntity
  8
0
100
AcDbBlockEnd
  0
BLOCK
  5
EA
330
E9
100
AcDbEntity
  8
0
100
AcDbBlockBegin
  2
U0028
 70
     0
 10
0.0
 20
0.0
 30
0.0
  3
U0028
  1
U0028
  0
LINE
  5
EB
330
E9
100
AcDbEntity
  8
1
  6
AUSGEZOGEN
 62
     3
100
AcDbLine
 10
251.003774
 20
64.163291
 30
0.0
 11
251.003774
 21
70.66337299999999
 31
0.0
  0
ENDBLK
  5
EC
330
E9
100
AcDbEntity
  8
0
100
AcDbBlockEnd
  0
BLOCK
  5
EE
330
ED
100
AcDbEntity
  8
0
100
AcDbBlockBegin
  2
U0027
 70
     0
 10
0.0
 20
0.0
 30
0.0
  3
U0027
  1
U0027
  0
INSERT
  5
EF
330
ED
100
AcDbEntity
  8
0
100
AcDbBlockReference
  2
U0028
 10
0.0
 20
0.0
 30
0.0
  0
ENDBLK
  5
F0
330
ED
100
AcDbEntity
  8
0
100
AcDbBlockEnd
  0
BLOCK
  5
F2
330
F1
100
AcDbEntity
  8
0
100
AcDbBlockBegin
  2
U0029
 70
     0
 10
0.0
 20
0.0
 30
0.0
  3
U0029
  1
U0029
  0
ARC
  5
F3
330
F1
100
AcDbEntity
  8
1
  6
AUSGEZOGEN
 62
     3
100
AcDbCircle
 10
246.003774
 20
61.979606
 30
0.0
 40
4.999830999999999
100
AcDbArc
 50
333.4208729999999
 51
0.0
  0
ARC
  5
F4
330
F1
100
AcDbEntity
  8
1
  6
AUSGEZOGEN
 62
     3
100
AcDbCircle
 10
246.003774
 20
61.979606
 30
0.0
 40
5.000112999999999
100
AcDbArc
 50
272.3576279999999
 51
333.4208729999999
  0
LINE
  5
F5
330
F1
100
AcDbEntity
  8
1
  6
AUSGEZOGEN
 62
     3
100
AcDbLine
 10
185.0037739999999
 20
56.18294399999999
 30
0.0
 11
246.209462
 21
56.983726
 31
0.0
  0
ENDBLK
  5
F6
330
F1
100
AcDbEntity
  8
0
100
AcDbBlockEnd
  0
BLOCK
  5
F8
330
F7
100
AcDbEntity
  8
0
100
AcDbBlockBegin
  2
U0030
 70
     0
 10
0.0
 20
0.0
 30
0.0
  3
U0030
  1
U0030
  0
ARC
  5
F9
330
F7
100
AcDbEntity
  8
1
  6
AUSGEZOGEN
 62
     3
100
AcDbCircle
 10
6.003896
 20
61.979587
 30
0.0
 40
5.0
100
AcDbArc
 50
180.0
 51
267.6388779999999
  0
LINE
  5
FA
330
F7
100
AcDbEntity
  8
1
  6
AUSGEZOGEN
 62
     3
100
AcDbLine
 10
67.003896
 20
56.18292499999999
 30
0.0
 11
5.797901999999999
 21
56.98370699999999
 31
0.0
  0
ENDBLK
  5
FB
330
F7
100
AcDbEntity
  8
0
100
AcDbBlockEnd
  0
BLOCK
  5
FD
330
FC
100
AcDbEntity
  8
0
100
AcDbBlockBegin
  2
U0026
 70
     0
 10
0.0
 20
0.0
 30
0.0
  3
U0026
  1
U0026
  0
INSERT
  5
FE
330
FC
100
AcDbEntity
  8
0
100
AcDbBlockReference
  2
U0027
 10
0.0
 20
0.0
 30
0.0
  0
LINE
  5
FF
330
FC
100
AcDbEntity
  8
1
  6
AUSGEZOGEN
 62
     3
100
AcDbLine
 10
251.003774
 20
61.979606
 30
0.0
 11
251.003774
 21
64.163291
 31
0.0
  0
LINE
  5
100
330
FC
100
AcDbEntity
  8
1
  6
AUSGEZOGEN
 62
     3
100
AcDbLine
 10
251.003774
 20
72.413404
 30
0.0
 11
251.003774
 21
70.66337299999999
 31
0.0
  0
INSERT
  5
101
330
FC
100
AcDbEntity
  8
0
100
AcDbBlockReference
  2
U0029
 10
0.0
 20
0.0
 30
0.0
  0
INSERT
  5
102
330
FC
100
AcDbEntity
  8
0
100
AcDbBlockReference
  2
U0030
 10
0.0
 20
0.0
 30
0.0
  0
LINE
  5
103
330
FC
100
AcDbEntity
  8
1
  6
AUSGEZOGEN
 62
     3
100
AcDbLine
 10
176.0041399999999
 20
56.18294399999999
 30
0.0
 11
185.0037739999999
 21
56.18294399999999
 31
0.0
  0
LINE
  5
104
330
FC
100
AcDbEntity
  8
1
  6
AUSGEZOGEN
 62
     3
100
AcDbLine
 10
76.003835
 20
56.18292499999999
 30
0.0
 11
67.003896
 21
56.18292499999999
 31
0.0
  0
ARC
  5
105
330
FC
100
AcDbEntity
  8
1
  6
AUSGEZOGEN
 62
     3
100
AcDbCircle
 10
159.004018
 20
58.182914
 30
0.0
 40
2.000122
100
AcDbArc
 50
180.0
 51
270.0
  0
ARC
  5
106
330
FC
100
AcDbEntity
  8
1
  6
AUSGEZOGEN
 62
     3
100
AcDbCircle
 10
93.00395700000001
 20
58.18289499999999
 30
0.0
 40
1.999968999999999
100
AcDbArc
 50
270.0
 51
0.0
  0
ARC
  5
107
330
FC
100
AcDbEntity
  8
1
  6
AUSGEZOGEN
 62
     3
100
AcDbCircle
 10
155.003774
 20
59.182975
 30
0.0
 40
2.000122
100
AcDbArc
 50
0.0
 51
90.0
  0
ARC
  5
108
330
FC
100
AcDbEntity
  8
1
  6
AUSGEZOGEN
 62
     3
100
AcDbCircle
 10
97.00389600000001
 20
59.182956
 30
0.0
 40
1.999968999999999
100
AcDbArc
 50
90.0
 51
180.0
  0
LINE
  5
109
330
FC
100
AcDbEntity
  8
1
  6
AUSGEZOGEN
 62
     3
100
AcDbLine
 10
97.00389600000001
 20
61.18292499999999
 30
0.0
 11
155.003774
 21
61.18294399999999
 31
0.0
  0
LINE
  5
10A
330
FC
100
AcDbEntity
  8
1
  6
AUSGEZOGEN
 62
     3
100
AcDbLine
 10
157.0038959999999
 20
58.182914
 30
0.0
 11
157.0038959999999
 21
59.182975
 31
0.0
  0
LINE
  5
10B
330
FC
100
AcDbEntity
  8
1
  6
AUSGEZOGEN
 62
     3
100
AcDbLine
 10
176.0041399999999
 20
56.18294399999999
 30
0.0
 11
159.004018
 21
56.18294399999999
 31
0.0
  0
LINE
  5
10C
330
FC
100
AcDbEntity
  8
1
  6
AUSGEZOGEN
 62
     3
100
AcDbLine
 10
95.00377399999999
 20
58.18289499999999
 30
0.0
 11
95.00377399999999
 21
59.182956
 31
0.0
  0
LINE
  5
10D
330
FC
100
AcDbEntity
  8
1
  6
AUSGEZOGEN
 62
     3
100
AcDbLine
 10
76.003835
 20
56.18292499999999
 30
0.0
 11
93.00395700000001
 21
56.18292499999999
 31
0.0
  0
ENDBLK
  5
10E
330
FC
100
AcDbEntity
  8
0
100
AcDbBlockEnd
  0
BLOCK
  5
110
330
10F
100
AcDbEntity
  8
0
100
AcDbBlockBegin
  2
U0025
 70
     0
 10
0.0
 20
0.0
 30
0.0
  3
U0025
  1
U0025
  0
INSERT
  5
111
330
10F
100
AcDbEntity
  8
0
100
AcDbBlockReference
  2
U0026
 10
0.0
 20
0.0
 30
0.0
  0
ENDBLK
  5
112
330
10F
100
AcDbEntity
  8
0
100
AcDbBlockEnd
  0
BLOCK
  5
114
330
113
100
AcDbEntity
  8
0
100
AcDbBlockBegin
  2
U0032
 70
     0
 10
0.0
 20
0.0
 30
0.0
  3
U0032
  1
U0032
  0
LINE
  5
115
330
113
100
AcDbEntity
  8
1
  6
AUSGEZOGEN
 62
     3
100
AcDbLine
 10
251.003774
 20
72.413404
 30
0.0
 11
251.003774
 21
146.386186
 31
0.0
  0
ENDBLK
  5
116
330
113
100
AcDbEntity
  8
0
100
AcDbBlockEnd
  0
BLOCK
  5
118
330
117
100
AcDbEntity
  8
0
100
AcDbBlockBegin
  2
U0033
 70
     0
 10
0.0
 20
0.0
 30
0.0
  3
U0033
  1
U0033
  0
LINE
  5
119
330
117
100
AcDbEntity
  8
1
  6
AUSGEZOGEN
 62
     3
100
AcDbLine
 10
1.003895999999999
 20
61.979587
 30
0.0
 11
1.003895999999999
 21
140.18287
 31
0.0
  0
ENDBLK
  5
11A
330
117
100
AcDbEntity
  8
0
100
AcDbBlockEnd
  0
BLOCK
  5
11C
330
11B
100
AcDbEntity
  8
0
100
AcDbBlockBegin
  2
U0031
 70
     0
 10
0.0
 20
0.0
 30
0.0
  3
U0031
  1
U0031
  0
INSERT
  5
11D
330
11B
100
AcDbEntity
  8
0
100
AcDbBlockReference
  2
U0032
 10
0.0
 20
0.0
 30
0.0
  0
INSERT
  5
11E
330
11B
100
AcDbEntity
  8
0
100
AcDbBlockReference
  2
U0033
 10
0.0
 20
0.0
 30
0.0
  0
LINE
  5
11F
330
11B
100
AcDbEntity
  8
1
  6
STRICHPUNKT
 62
     1
100
AcDbLine
 10
126.003835
 20
6.756032
 30
0.0
 11
126.003835
 21
104.1829649999999
 31
0.0
  0
LINE
  5
120
330
11B
100
AcDbEntity
  8
1
  6
AUSGEZOGEN
 62
     3
100
AcDbLine
 10
185.0037739999999
 20
56.18294399999999
 30
0.0
 11
185.0037739999999
 21
152.1829979999999
 31
0.0
  0
LINE
  5
121
330
11B
100
AcDbEntity
  8
1
  6
AUSGEZOGEN
 62
     3
100
AcDbLine
 10
67.003896
 20
56.18292499999999
 30
0.0
 11
67.003896
 21
152.182995
 31
0.0
  0
LINE
  5
122
330
11B
100
AcDbEntity
  8
1
  6
AUSGEZOGEN
 62
     3
100
AcDbLine
 10
157.0038959999999
 20
59.182975
 30
0.0
 11
157.0038959999999
 21
150.182875
 31
0.0
  0
LINE
  5
123
330
11B
100
AcDbEntity
  8
1
  6
AUSGEZOGEN
 62
     3
100
AcDbLine
 10
95.00377399999999
 20
59.182956
 30
0.0
 11
95.00377399999999
 21
150.1828729999999
 31
0.0
  0
LINE
  5
124
330
11B
100
AcDbEntity
  8
1
  6
AUSGEZOGEN
 62
     3
100
AcDbLine
 10
176.0041399999999
 20
149.1829669999999
 30
0.0
 11
176.0041399999999
 21
152.1829979999999
 31
0.0
  0
LINE
  5
125
330
11B
100
AcDbEntity
  8
1
  6
AUSGEZOGEN
 62
     3
100
AcDbLine
 10
176.0041399999999
 20
56.18294399999999
 30
0.0
 11
176.0041399999999
 21
149.1829669999999
 31
0.0
  0
LINE
  5
126
330
11B
100
AcDbEntity
  8
1
  6
AUSGEZOGEN
 62
     3
100
AcDbLine
 10
76.003835
 20
56.18292499999999
 30
0.0
 11
76.003835
 21
152.182995
 31
0.0
  0
LINE
  5
127
330
11B
100
AcDbEntity
  8
1
  6
STRICHPUNKT
 62
     1
100
AcDbLine
 10
126.003835
 20
104.1829649999999
 30
0.0
 11
263.782842
 21
104.1829649999999
 31
0.0
  0
LINE
  5
128
330
11B
100
AcDbEntity
  8
1
  6
STRICHPUNKT
 62
     1
100
AcDbLine
 10
-11.525469
 20
104.1829649999999
 30
0.0
 11
126.003835
 21
104.1829649999999
 31
0.0
  0
ENDBLK
  5
129
330
11B
100
AcDbEntity
  8
0
100
AcDbBlockEnd
  0
BLOCK
  5
12B
330
12A
100
AcDbEntity
  8
0
100
AcDbBlockBegin
  2
U0036
 70
     0
 10
0.0
 20
0.0
 30
0.0
  3
U0036
  1
U0036
  0
LINE
  5
12C
330
12A
100
AcDbEntity
  8
1
  6
AUSGEZOGEN
 62
     3
100
AcDbLine
 10
251.003774
 20
396.202457
 30
0.0
 11
251.003774
 21
389.7025179999999
 31
0.0
  0
ENDBLK
  5
12D
330
12A
100
AcDbEntity
  8
0
100
AcDbBlockEnd
  0
BLOCK
  5
12F
330
12E
100
AcDbEntity
  8
0
100
AcDbBlockBegin
  2
U0035
 70
     0
 10
0.0
 20
0.0
 30
0.0
  3
U0035
  1
U0035
  0
INSERT
  5
130
330
12E
100
AcDbEntity
  8
0
100
AcDbBlockReference
  2
U0036
 10
0.0
 20
0.0
 30
0.0
  0
ENDBLK
  5
131
330
12E
100
AcDbEntity
  8
0
100
AcDbBlockEnd
  0
BLOCK
  5
133
330
132
100
AcDbEntity
  8
0
100
AcDbBlockBegin
  2
U0037
 70
     0
 10
0.0
 20
0.0
 30
0.0
  3
U0037
  1
U0037
  0
ARC
  5
134
330
132
100
AcDbEntity
  8
1
  6
AUSGEZOGEN
 62
     3
100
AcDbCircle
 10
246.003774
 20
398.386142
 30
0.0
 40
5.0
100
AcDbArc
 50
0.0
 51
26.580691
  0
ARC
  5
135
330
132
100
AcDbEntity
  8
1
  6
AUSGEZOGEN
 62
     3
100
AcDbCircle
 10
246.003774
 20
313.98093
 30
0.0
 40
4.999502999999999
100
AcDbArc
 50
272.3579159999999
 51
0.0
  0
LINE
  5
136
330
132
100
AcDbEntity
  8
1
  6
AUSGEZOGEN
 62
     3
100
AcDbLine
 10
246.209462
 20
308.98566
 30
0.0
 11
185.0037739999999
 21
308.182895
 31
0.0
  0
LINE
  5
137
330
132
100
AcDbEntity
  8
1
  6
AUSGEZOGEN
 62
     3
100
AcDbLine
 10
251.003774
 20
387.952487
 30
0.0
 11
251.003774
 21
313.98093
 31
0.0
  0
LINE
  5
138
330
132
100
AcDbEntity
  8
1
  6
AUSGEZOGEN
 62
     3
100
AcDbLine
 10
185.0037739999999
 20
404.1828029999999
 30
0.0
 11
246.209462
 21
403.382175
 31
0.0
  0
ARC
  5
139
330
132
100
AcDbEntity
  8
1
  6
AUSGEZOGEN
 62
     3
100
AcDbCircle
 10
246.003774
 20
398.386142
 30
0.0
 40
4.999899
100
AcDbArc
 50
26.580691
 51
87.64244299999999
  0
ENDBLK
  5
13A
330
132
100
AcDbEntity
  8
0
100
AcDbBlockEnd
  0
BLOCK
  5
13C
330
13B
100
AcDbEntity
  8
0
100
AcDbBlockBegin
  2
U0038
 70
     0
 10
0.0
 20
0.0
 30
0.0
  3
U0038
  1
U0038
  0
ARC
  5
13D
330
13B
100
AcDbEntity
  8
1
  6
AUSGEZOGEN
 62
     3
100
AcDbCircle
 10
6.003896
 20
398.386142
 30
0.0
 40
5.000124999999999
100
AcDbArc
 50
92.36112299999999
 51
180.0
  0
ARC
  5
13E
330
13B
100
AcDbEntity
  8
1
  6
AUSGEZOGEN
 62
     3
100
AcDbCircle
 10
6.003896
 20
313.9807769999999
 30
0.0
 40
5.028863999999999
100
AcDbArc
 50
173.8583409999999
 51
267.638589
  0
LINE
  5
13F
330
13B
100
AcDbEntity
  8
1
  6
AUSGEZOGEN
 62
     3
100
AcDbLine
 10
7.503835
 20
308.915164
 30
0.0
 11
67.003896
 21
308.182895
 31
0.0
  0
LINE
  5
140
330
13B
100
AcDbEntity
  8
1
  6
AUSGEZOGEN
 62
     3
100
AcDbLine
 10
5.797901999999999
 20
308.985507
 30
0.0
 11
7.503835
 21
308.915164
 31
0.0
  0
LINE
  5
141
330
13B
100
AcDbEntity
  8
1
  6
AUSGEZOGEN
 62
     3
100
AcDbLine
 10
1.003895999999999
 20
398.386142
 30
0.0
 11
1.003895999999999
 21
320.182864
 31
0.0
  0
LINE
  5
142
330
13B
100
AcDbEntity
  8
1
  6
AUSGEZOGEN
 62
     3
100
AcDbLine
 10
67.003896
 20
404.1828029999999
 30
0.0
 11
5.797901999999999
 21
403.3820219999999
 31
0.0
  0
LINE
  5
143
330
13B
100
AcDbEntity
  8
1
  6
AUSGEZOGEN
 62
     3
100
AcDbLine
 10
1.003895999999999
 20
315.182864
 30
0.0
 11
1.003895999999999
 21
313.4427539999999
 31
0.0
  0
LINE
  5
144
330
13B
100
AcDbEntity
  8
1
  6
AUSGEZOGEN
 62
     3
100
AcDbLine
 10
1.003895999999999
 20
320.182864
 30
0.0
 11
1.003895999999999
 21
315.182864
 31
0.0
  0
ENDBLK
  5
145
330
13B
100
AcDbEntity
  8
0
100
AcDbBlockEnd
  0
BLOCK
  5
147
330
146
100
AcDbEntity
  8
0
100
AcDbBlockBegin
  2
U0039
 70
     0
 10
0.0
 20
0.0
 30
0.0
  3
U0039
  1
U0039
  0
LINE
  5
148
330
146
100
AcDbEntity
  8
1
  6
AUSGEZOGEN
 62
     3
100
AcDbLine
 10
97.00389600000001
 20
301.182773
 30
0.0
 11
155.003774
 21
301.1827919999999
 31
0.0
  0
ENDBLK
  5
149
330
146
100
AcDbEntity
  8
0
100
AcDbBlockEnd
  0
BLOCK
  5
14B
330
14A
100
AcDbEntity
  8
0
100
AcDbBlockBegin
  2
U0034
 70
     0
 10
0.0
 20
0.0
 30
0.0
  3
U0034
  1
U0034
  0
LINE
  5
14C
330
14A
100
AcDbEntity
  8
1
  6
AUSGEZOGEN
 62
     1
100
AcDbLine
 10
176.0041399999999
 20
329.182803
 30
0.0
 11
247.5034079999999
 21
329.182956
 31
0.0
  0
INSERT
  5
14D
330
14A
100
AcDbEntity
  8
0
100
AcDbBlockReference
  2
U0035
 10
0.0
 20
0.0
 30
0.0
  0
LINE
  5
14E
330
14A
100
AcDbEntity
  8
1
  6
AUSGEZOGEN
 62
     3
100
AcDbLine
 10
251.003774
 20
398.386142
 30
0.0
 11
251.003774
 21
396.202457
 31
0.0
  0
LINE
  5
14F
330
14A
100
AcDbEntity
  8
1
  6
AUSGEZOGEN
 62
     3
100
AcDbLine
 10
251.003774
 20
387.952487
 30
0.0
 11
251.003774
 21
389.7025179999999
 31
0.0
  0
INSERT
  5
150
330
14A
100
AcDbEntity
  8
0
100
AcDbBlockReference
  2
U0037
 10
0.0
 20
0.0
 30
0.0
  0
INSERT
  5
151
330
14A
100
AcDbEntity
  8
0
100
AcDbBlockReference
  2
U0038
 10
0.0
 20
0.0
 30
0.0
  0
LINE
  5
152
330
14A
100
AcDbEntity
  8
1
  6
STRICHPUNKT
 62
     1
100
AcDbLine
 10
126.003835
 20
412.1828339999999
 30
0.0
 11
126.003835
 21
356.182773
 31
0.0
  0
LINE
  5
153
330
14A
100
AcDbEntity
  8
1
  6
AUSGEZOGEN
 62
     1
100
AcDbLine
 10
76.003835
 20
329.182803
 30
0.0
 11
5.504018
 21
329.182803
 31
0.0
  0
LINE
  5
154
330
14A
100
AcDbEntity
  8
1
  6
AUSGEZOGEN
 62
     3
100
AcDbLine
 10
185.0037739999999
 20
308.182895
 30
0.0
 11
176.0041399999999
 21
308.182895
 31
0.0
  0
LINE
  5
155
330
14A
100
AcDbEntity
  8
1
  6
AUSGEZOGEN
 62
     3
100
AcDbLine
 10
185.0037739999999
 20
404.1828029999999
 30
0.0
 11
185.0037739999999
 21
308.182895
 31
0.0
  0
LINE
  5
156
330
14A
100
AcDbEntity
  8
1
  6
AUSGEZOGEN
 62
     3
100
AcDbLine
 10
176.0041399999999
 20
404.1828029999999
 30
0.0
 11
185.0037739999999
 21
404.1828029999999
 31
0.0
  0
LINE
  5
157
330
14A
100
AcDbEntity
  8
1
  6
AUSGEZOGEN
 62
     3
100
AcDbLine
 10
67.003896
 20
308.182895
 30
0.0
 11
76.003835
 21
308.182895
 31
0.0
  0
LINE
  5
158
330
14A
100
AcDbEntity
  8
1
  6
AUSGEZOGEN
 62
     3
100
AcDbLine
 10
67.003896
 20
404.1828029999999
 30
0.0
 11
67.003896
 21
308.182895
 31
0.0
  0
LINE
  5
159
330
14A
100
AcDbEntity
  8
1
  6
AUSGEZOGEN
 62
     3
100
AcDbLine
 10
76.003835
 20
404.1828029999999
 30
0.0
 11
67.003896
 21
404.1828029999999
 31
0.0
  0
LINE
  5
15A
330
14A
100
AcDbEntity
  8
1
  6
AUSGEZOGEN
 62
     1
100
AcDbLine
 10
176.0041399999999
 20
329.182803
 30
0.0
 11
159.004018
 21
329.182803
 31
0.0
  0
LINE
  5
15B
330
14A
100
AcDbEntity
  8
1
  6
AUSGEZOGEN
 62
     1
100
AcDbLine
 10
97.00389600000001
 20
326.182773
 30
0.0
 11
155.003774
 21
326.182773
 31
0.0
  0
LINE
  5
15C
330
14A
100
AcDbEntity
  8
1
  6
AUSGEZOGEN
 62
     1
100
AcDbLine
 10
76.003835
 20
329.182803
 30
0.0
 11
93.00395700000001
 21
329.182803
 31
0.0
  0
ARC
  5
15D
330
14A
100
AcDbEntity
  8
1
  6
AUSGEZOGEN
 62
     3
100
AcDbCircle
 10
159.004018
 20
402.1828339999999
 30
0.0
 40
1.999968999999999
100
AcDbArc
 50
90.0
 51
180.0
  0
ARC
  5
15E
330
14A
100
AcDbEntity
  8
1
  6
AUSGEZOGEN
 62
     3
100
AcDbCircle
 10
93.00395700000001
 20
402.1828339999999
 30
0.0
 40
1.999816999999999
100
AcDbArc
 50
0.0
 51
90.0
  0
ARC
  5
15F
330
14A
100
AcDbEntity
  8
1
  6
AUSGEZOGEN
 62
     3
100
AcDbCircle
 10
155.003774
 20
401.182773
 30
0.0
 40
1.999968999999999
100
AcDbArc
 50
270.0
 51
0.0
  0
ARC
  5
160
330
14A
100
AcDbEntity
  8
1
  6
AUSGEZOGEN
 62
     3
100
AcDbCircle
 10
97.00389600000001
 20
401.182773
 30
0.0
 40
2.000122
100
AcDbArc
 50
180.0
 51
270.0
  0
LINE
  5
161
330
14A
100
AcDbEntity
  8
1
  6
AUSGEZOGEN
 62
     3
100
AcDbLine
 10
97.00389600000001
 20
399.1828029999999
 30
0.0
 11
155.003774
 21
399.1828029999999
 31
0.0
  0
LINE
  5
162
330
14A
100
AcDbEntity
  8
1
  6
AUSGEZOGEN
 62
     3
100
AcDbLine
 10
155.003774
 20
301.1827919999999
 30
0.0
 11
202.503554
 21
301.1827919999999
 31
0.0
  0
LINE
  5
163
330
14A
100
AcDbEntity
  8
1
  6
AUSGEZOGEN
 62
     3
100
AcDbLine
 10
68.003957
 20
301.182773
 30
0.0
 11
97.00389600000001
 21
301.182773
 31
0.0
  0
LINE
  5
164
330
14A
100
AcDbEntity
  8
1
  6
AUSGEZOGEN
 62
     3
100
AcDbLine
 10
65.503957
 20
301.182773
 30
0.0
 11
68.003957
 21
301.182773
 31
0.0
  0
LINE
  5
165
330
14A
100
AcDbEntity
  8
1
  6
AUSGEZOGEN
 62
     3
100
AcDbLine
 10
50.463746
 20
301.182925
 30
0.0
 11
65.503957
 21
301.182773
 31
0.0
  0
LINE
  5
166
330
14A
100
AcDbEntity
  8
1
  6
AUSGEZOGEN
 62
     3
100
AcDbLine
 10
49.50411599999999
 20
301.182925
 30
0.0
 11
50.463746
 21
301.182925
 31
0.0
  0
ARC
  5
167
330
14A
100
AcDbEntity
  8
1
  6
AUSGEZOGEN
 62
     3
100
AcDbCircle
 10
155.003774
 20
303.182914
 30
0.0
 40
2.000122
100
AcDbArc
 50
270.0
 51
0.0
  0
ARC
  5
168
330
14A
100
AcDbEntity
  8
1
  6
AUSGEZOGEN
 62
     3
100
AcDbCircle
 10
97.00389600000001
 20
303.182895
 30
0.0
 40
2.000122
100
AcDbArc
 50
180.0
 51
270.0
  0
LINE
  5
169
330
14A
100
AcDbEntity
  8
1
  6
AUSGEZOGEN
 62
     3
100
AcDbLine
 10
157.0038959999999
 20
401.182773
 30
0.0
 11
157.0038959999999
 21
303.182914
 31
0.0
  0
LINE
  5
16A
330
14A
100
AcDbEntity
  8
1
  6
AUSGEZOGEN
 62
     3
100
AcDbLine
 10
157.0038959999999
 20
402.1828339999999
 30
0.0
 11
157.0038959999999
 21
401.182773
 31
0.0
  0
LINE
  5
16B
330
14A
100
AcDbEntity
  8
1
  6
AUSGEZOGEN
 62
     3
100
AcDbLine
 10
176.0041399999999
 20
404.1828029999999
 30
0.0
 11
159.004018
 21
404.1828029999999
 31
0.0
  0
LINE
  5
16C
330
14A
100
AcDbEntity
  8
1
  6
AUSGEZOGEN
 62
     3
100
AcDbLine
 10
95.00377399999999
 20
401.182773
 30
0.0
 11
95.00377399999999
 21
303.182895
 31
0.0
  0
LINE
  5
16D
330
14A
100
AcDbEntity
  8
1
  6
AUSGEZOGEN
 62
     3
100
AcDbLine
 10
95.00377399999999
 20
402.1828339999999
 30
0.0
 11
95.00377399999999
 21
401.182773
 31
0.0
  0
LINE
  5
16E
330
14A
100
AcDbEntity
  8
1
  6
AUSGEZOGEN
 62
     3
100
AcDbLine
 10
76.003835
 20
404.1828029999999
 30
0.0
 11
93.00395700000001
 21
404.1828029999999
 31
0.0
  0
LINE
  5
16F
330
14A
100
AcDbEntity
  8
1
  6
AUSGEZOGEN
 62
     3
100
AcDbLine
 10
176.0041399999999
 20
329.182803
 30
0.0
 11
176.0041399999999
 21
301.1827919999999
 31
0.0
  0
LINE
  5
170
330
14A
100
AcDbEntity
  8
1
  6
AUSGEZOGEN
 62
     3
100
AcDbLine
 10
176.0041399999999
 20
404.1828029999999
 30
0.0
 11
176.0041399999999
 21
329.182803
 31
0.0
  0
LINE
  5
171
330
14A
100
AcDbEntity
  8
1
  6
AUSGEZOGEN
 62
     3
100
AcDbLine
 10
76.003835
 20
404.1828029999999
 30
0.0
 11
76.003835
 21
301.182773
 31
0.0
  0
ARC
  5
172
330
14A
100
AcDbEntity
  8
1
  6
AUSGEZOGEN
 62
     3
100
AcDbCircle
 10
202.503554
 20
299.182822
 30
0.0
 40
2.000122
100
AcDbArc
 50
0.0
 51
90.0
  0
ARC
  5
173
330
14A
100
AcDbEntity
  8
1
  6
AUSGEZOGEN
 62
     3
100
AcDbCircle
 10
49.50411599999999
 20
299.1829549999999
 30
0.0
 40
1.999968999999999
100
AcDbArc
 50
90.0
 51
180.0
  0
INSERT
  5
174
330
14A
100
AcDbEntity
  8
0
100
AcDbBlockReference
  2
U0039
 10
0.0
 20
0.0
 30
0.0
  0
LINE
  5
175
330
14A
100
AcDbEntity
  8
1
  6
STRICHPUNKT
 62
     1
100
AcDbLine
 10
126.003835
 20
356.182773
 30
0.0
 11
263.2198149999999
 21
356.182939
 31
0.0
  0
LINE
  5
176
330
14A
100
AcDbEntity
  8
1
  6
STRICHPUNKT
 62
     1
100
AcDbLine
 10
-9.273458
 20
356.182773
 30
0.0
 11
126.003835
 21
356.182773
 31
0.0
  0
ENDBLK
  5
177
330
14A
100
AcDbEntity
  8
0
100
AcDbBlockEnd
  0
BLOCK
  5
179
330
178
100
AcDbEntity
  8
0
100
AcDbBlockBegin
  2
U0040
 70
     0
 10
0.0
 20
0.0
 30
0.0
  3
U0040
  1
U0040
  0
LINE
  5
17A
330
178
100
AcDbEntity
  8
1
  6
AUSGEZOGEN
 62
     3
100
AcDbLine
 10
204.503676
 20
276.182944
 30
0.0
 11
47.503994
 21
276.183077
 31
0.0
  0
LINE
  5
17B
330
178
100
AcDbEntity
  8
1
  6
AUSGEZOGEN
 62
     3
100
AcDbLine
 10
204.503676
 20
299.182822
 30
0.0
 11
204.503676
 21
276.182944
 31
0.0
  0
LINE
  5
17C
330
178
100
AcDbEntity
  8
1
  6
AUSGEZOGEN
 62
     3
100
AcDbLine
 10
47.503994
 20
282.0836509999999
 30
0.0
 11
47.503994
 21
299.1829549999999
 31
0.0
  0
LINE
  5
17D
330
178
100
AcDbEntity
  8
1
  6
AUSGEZOGEN
 62
     3
100
AcDbLine
 10
47.503994
 20
276.183077
 30
0.0
 11
47.503994
 21
282.0836509999999
 31
0.0
  0
ENDBLK
  5
17E
330
178
100
AcDbEntity
  8
0
100
AcDbBlockEnd
  0
BLOCK
  5
180
330
17F
100
AcDbEntity
  8
0
100
AcDbBlockBegin
  2
U0041
 70
     0
 10
0.0
 20
0.0
 30
0.0
  3
U0041
  1
U0041
  0
LINE
  5
181
330
17F
100
AcDbEntity
  8
1
  6
AUSGEZOGEN
 62
     3
100
AcDbLine
 10
364.504506
 20
276.182964
 30
0.0
 11
328.504445
 21
276.182964
 31
0.0
  0
LINE
  5
182
330
17F
100
AcDbEntity
  8
1
  6
AUSGEZOGEN
 62
     3
100
AcDbLine
 10
490.504572
 20
276.182964
 30
0.0
 11
454.504511
 21
276.182964
 31
0.0
  0
LINE
  5
183
330
17F
100
AcDbEntity
  8
1
  6
AUSGEZOGEN
 62
     3
100
AcDbLine
 10
490.504572
 20
299.182841
 30
0.0
 11
490.504572
 21
276.182964
 31
0.0
  0
LINE
  5
184
330
17F
100
AcDbEntity
  8
1
  6
AUSGEZOGEN
 62
     3
100
AcDbLine
 10
456.504633
 20
301.182811
 30
0.0
 11
488.50445
 21
301.182811
 31
0.0
  0
LINE
  5
185
330
17F
100
AcDbEntity
  8
1
  6
AUSGEZOGEN
 62
     3
100
AcDbLine
 10
328.504445
 20
276.182964
 30
0.0
 11
328.504445
 21
299.182841
 31
0.0
  0
ENDBLK
  5
186
330
17F
100
AcDbEntity
  8
0
100
AcDbBlockEnd
  0
BLOCK
  5
188
330
187
100
AcDbEntity
  8
0
100
AcDbBlockBegin
  2
U0042
 70
     0
 10
0.0
 20
0.0
 30
0.0
  3
U0042
  1
U0042
  0
LINE
  5
189
330
187
100
AcDbEntity
  8
1
  6
AUSGEZOGEN
 62
     3
100
AcDbLine
 10
365.0641959999999
 20
387.952373
 30
0.0
 11
361.866564
 21
362.067363
 31
0.0
  0
LINE
  5
18A
330
187
100
AcDbEntity
  8
1
  6
AUSGEZOGEN
 62
     3
100
AcDbLine
 10
365.787768
 20
393.8105269999999
 30
0.0
 11
365.0641959999999
 21
387.952373
 31
0.0
  0
LINE
  5
18B
330
187
100
AcDbEntity
  8
1
  6
AUSGEZOGEN
 62
     3
100
AcDbLine
 10
377.7350919999999
 20
400.6232709999999
 30
0.0
 11
403.620407
 21
403.8207499999999
 31
0.0
  0
LINE
  5
18C
330
187
100
AcDbEntity
  8
1
  6
AUSGEZOGEN
 62
     3
100
AcDbLine
 10
371.8769379999999
 20
399.899699
 30
0.0
 11
377.7350919999999
 21
400.6232709999999
 31
0.0
  0
ARC
  5
18D
330
187
100
AcDbEntity
  8
1
  6
AUSGEZOGEN
 62
     3
100
AcDbCircle
 10
372.735092
 20
392.952373
 30
0.0
 40
7.000126999999999
100
AcDbArc
 50
97.04167400000001
 51
172.958323
  0
ARC
  5
18E
330
187
100
AcDbEntity
  8
1
  6
AUSGEZOGEN
 62
     3
100
AcDbCircle
 10
377.004506
 20
315.182902
 30
0.0
 40
7.000122
100
AcDbArc
 50
180.0
 51
270.0
  0
LINE
  5
18F
330
187
100
AcDbEntity
  8
1
  6
AUSGEZOGEN
 62
     3
100
AcDbLine
 10
370.0043839999999
 20
320.182902
 30
0.0
 11
370.0043839999999
 21
328.9110819999999
 31
0.0
  0
LINE
  5
190
330
187
100
AcDbEntity
  8
1
  6
AUSGEZOGEN
 62
     3
100
AcDbLine
 10
370.0043839999999
 20
315.182902
 30
0.0
 11
370.0043839999999
 21
320.182902
 31
0.0
  0
LINE
  5
191
330
187
100
AcDbEntity
  8
1
  6
AUSGEZOGEN
 62
     3
100
AcDbLine
 10
382.0045059999999
 20
308.1827799999999
 30
0.0
 11
409.5045009999999
 21
308.1827799999999
 31
0.0
  0
LINE
  5
192
330
187
100
AcDbEntity
  8
1
  6
AUSGEZOGEN
 62
     3
100
AcDbLine
 10
377.004506
 20
308.1827799999999
 30
0.0
 11
382.0045059999999
 21
308.1827799999999
 31
0.0
  0
ARC
  5
193
330
187
100
AcDbEntity
  8
1
  6
AUSGEZOGEN
 62
     3
100
AcDbCircle
 10
409.5045009999999
 20
356.182811
 30
0.0
 40
48.00000999999999
100
AcDbArc
 50
172.95812
 51
214.6220309999999
  0
ARC
  5
194
330
187
100
AcDbEntity
  8
1
  6
AUSGEZOGEN
 62
     3
100
AcDbCircle
 10
409.5045009999999
 20
356.182811
 30
0.0
 40
48.000031
100
AcDbArc
 50
90.0
 51
97.04133800000001
  0
ENDBLK
  5
195
330
187
100
AcDbEntity
  8
0
100
AcDbBlockEnd
  0
BLOCK
  5
197
330
196
100
AcDbEntity
  8
0
100
AcDbBlockBegin
  2
U0043
 70
     0
 10
0.0
 20
0.0
 30
0.0
  3
U0043
  1
U0043
  0
LINE
  5
198
330
196
100
AcDbEntity
  8
1
  6
AUSGEZOGEN
 62
     3
100
AcDbLine
 10
453.2212469999999
 20
393.8105269999999
 30
0.0
 11
457.14245
 21
362.067363
 31
0.0
  0
LINE
  5
199
330
196
100
AcDbEntity
  8
1
  6
AUSGEZOGEN
 62
     3
100
AcDbLine
 10
447.132074
 20
399.899699
 30
0.0
 11
415.388596
 21
403.8207499999999
 31
0.0
  0
ARC
  5
19A
330
196
100
AcDbEntity
  8
1
  6
AUSGEZOGEN
 62
     3
100
AcDbCircle
 10
446.27392
 20
392.952373
 30
0.0
 40
7.000126999999999
100
AcDbArc
 50
7.041674999999997
 51
82.95832500000002
  0
LINE
  5
19B
330
196
100
AcDbEntity
  8
1
  6
AUSGEZOGEN
 62
     3
100
AcDbLine
 10
449.004633
 20
320.182902
 30
0.0
 11
449.004633
 21
328.9110819999999
 31
0.0
  0
LINE
  5
19C
330
196
100
AcDbEntity
  8
1
  6
AUSGEZOGEN
 62
     3
100
AcDbLine
 10
437.004511
 20
308.1827799999999
 30
0.0
 11
409.5045009999999
 21
308.1827799999999
 31
0.0
  0
ARC
  5
19D
330
196
100
AcDbEntity
  8
1
  6
AUSGEZOGEN
 62
     3
100
AcDbCircle
 10
409.5045009999999
 20
356.182811
 30
0.0
 40
48.000079
100
AcDbArc
 50
325.3779779999999
 51
7.041878000000001
  0
ARC
  5
19E
330
196
100
AcDbEntity
  8
1
  6
AUSGEZOGEN
 62
     3
100
AcDbCircle
 10
409.5045009999999
 20
356.182811
 30
0.0
 40
47.999957
100
AcDbArc
 50
82.95866300000002
 51
90.0
  0
ENDBLK
  5
19F
330
196
100
AcDbEntity
  8
0
100
AcDbBlockEnd
  0
BLOCK
  5
1A1
330
1A0
100
AcDbEntity
  8
0
100
AcDbBlockBegin
  2
U0045
 70
     0
 10
0.0
 20
0.0
 30
0.0
  3
U0045
  1
U0045
  0
LINE
  5
1A2
330
1A0
100
AcDbEntity
  8
1
  6
STRICHPUNKT
 62
     1
100
AcDbLine
 10
409.504511
 20
270.682933
 30
0.0
 11
409.5045009999999
 21
413.682811
 31
0.0
  0
ENDBLK
  5
1A3
330
1A0
100
AcDbEntity
  8
0
100
AcDbBlockEnd
  0
BLOCK
  5
1A5
330
1A4
100
AcDbEntity
  8
0
100
AcDbBlockBegin
  2
U0044
 70
     0
 10
0.0
 20
0.0
 30
0.0
  3
U0044
  1
U0044
  0
INSERT
  5
1A6
330
1A4
100
AcDbEntity
  8
0
100
AcDbBlockReference
  2
U0045
 10
0.0
 20
0.0
 30
0.0
  0
ENDBLK
  5
1A7
330
1A4
100
AcDbEntity
  8
0
100
AcDbBlockEnd
  0
BLOCK
  5
1A9
330
1A8
100
AcDbEntity
  8
0
100
AcDbBlockBegin
  2
U0002
 70
     0
 10
0.0
 20
0.0
 30
0.0
  3
U0002
  1
U0002
  0
LINE
  5
1AA
330
1A8
100
AcDbEntity
  8
1
  6
AUSGEZOGEN
 62
     1
100
AcDbLine
 10
68.003957
 20
304.6823759999999
 30
0.0
 11
76.003835
 21
304.6823759999999
 31
0.0
  0
INSERT
  5
1AB
330
1A8
100
AcDbEntity
  8
0
100
AcDbBlockReference
  2
U0003
 10
0.0
 20
0.0
 30
0.0
  0
INSERT
  5
1AC
330
1A8
100
AcDbEntity
  8
0
100
AcDbBlockReference
  2
U0014
 10
0.0
 20
0.0
 30
0.0
  0
LINE
  5
1AD
330
1A8
100
AcDbEntity
  8
1
  6
STRICHPUNKT
 62
     1
100
AcDbLine
 10
126.003835
 20
104.1829649999999
 30
0.0
 11
126.003835
 21
199.1829649999999
 31
0.0
  0
INSERT
  5
1AE
330
1A8
100
AcDbEntity
  8
0
100
AcDbBlockReference
  2
U0020
 10
0.0
 20
0.0
 30
0.0
  0
INSERT
  5
1AF
330
1A8
100
AcDbEntity
  8
0
100
AcDbBlockReference
  2
U0025
 10
0.0
 20
0.0
 30
0.0
  0
INSERT
  5
1B0
330
1A8
100
AcDbEntity
  8
0
100
AcDbBlockReference
  2
U0031
 10
0.0
 20
0.0
 30
0.0
  0
INSERT
  5
1B1
330
1A8
100
AcDbEntity
  8
0
100
AcDbBlockReference
  2
U0034
 10
0.0
 20
0.0
 30
0.0
  0
INSERT
  5
1B2
330
1A8
100
AcDbEntity
  8
0
100
AcDbBlockReference
  2
U0040
 10
0.0
 20
0.0
 30
0.0
  0
LINE
  5
1B3
330
1A8
100
AcDbEntity
  8
1
  6
STRICHPUNKT
 62
     1
100
AcDbLine
 10
158.503835
 20
309.6828339999999
 30
0.0
 11
158.503835
 21
257.1828529999999
 31
0.0
  0
LINE
  5
1B4
330
1A8
100
AcDbEntity
  8
1
  6
STRICHPUNKT
 62
     1
100
AcDbLine
 10
93.503835
 20
257.1828339999999
 30
0.0
 11
93.503835
 21
308.6827729999999
 31
0.0
  0
LINE
  5
1B5
330
1A8
100
AcDbEntity
  8
1
  6
STRICHPUNKT
 62
     1
100
AcDbLine
 10
126.003835
 20
356.182773
 30
0.0
 11
126.003835
 21
257.1828529999999
 31
0.0
  0
LINE
  5
1B6
330
1A8
100
AcDbEntity
  8
1
  6
STRICHPUNKT
 62
     1
100
AcDbLine
 10
472.004511
 20
306.182811
 30
0.0
 11
472.004511
 21
271.182964
 31
0.0
  0
LINE
  5
1B7
330
1A8
100
AcDbEntity
  8
1
  6
STRICHPUNKT
 62
     1
100
AcDbLine
 10
347.0045069999999
 20
271.182964
 30
0.0
 11
347.0045059999999
 21
306.182811
 31
0.0
  0
LINE
  5
1B8
330
1A8
100
AcDbEntity
  8
1
  6
AUSGEZOGEN
 62
     3
100
AcDbLine
 10
364.504506
 20
277.682902
 30
0.0
 11
454.504511
 21
277.682902
 31
0.0
  0
LINE
  5
1B9
330
1A8
100
AcDbEntity
  8
1
  6
AUSGEZOGEN
 62
     3
100
AcDbLine
 10
456.504633
 20
301.182811
 30
0.0
 11
454.004633
 21
301.182811
 31
0.0
  0
ARC
  5
1BA
330
1A8
100
AcDbEntity
  8
1
  6
AUSGEZOGEN
 62
     3
100
AcDbCircle
 10
365.0043839999999
 20
306.182811
 30
0.0
 40
5.0
100
AcDbArc
 50
270.0
 51
0.0
  0
LINE
  5
1BB
330
1A8
100
AcDbEntity
  8
1
  6
AUSGEZOGEN
 62
     3
100
AcDbLine
 10
362.5043839999999
 20
301.182811
 30
0.0
 11
365.0043839999999
 21
301.182811
 31
0.0
  0
ARC
  5
1BC
330
1A8
100
AcDbEntity
  8
1
  6
AUSGEZOGEN
 62
     3
100
AcDbCircle
 10
362.5043839999999
 20
299.182841
 30
0.0
 40
2.000122
100
AcDbArc
 50
0.0
 51
90.0
  0
LINE
  5
1BD
330
1A8
100
AcDbEntity
  8
1
  6
AUSGEZOGEN
 62
     3
100
AcDbLine
 10
330.504567
 20
301.182811
 30
0.0
 11
362.5043839999999
 21
301.182811
 31
0.0
  0
ARC
  5
1BE
330
1A8
100
AcDbEntity
  8
1
  6
AUSGEZOGEN
 62
     3
100
AcDbCircle
 10
456.504633
 20
299.182841
 30
0.0
 40
1.999968999999999
100
AcDbArc
 50
90.0
 51
180.0
  0
LINE
  5
1BF
330
1A8
100
AcDbEntity
  8
1
  6
AUSGEZOGEN
 62
     3
100
AcDbLine
 10
454.504511
 20
276.182964
 30
0.0
 11
454.504511
 21
299.182841
 31
0.0
  0
LINE
  5
1C0
330
1A8
100
AcDbEntity
  8
1
  6
AUSGEZOGEN
 62
     3
100
AcDbLine
 10
364.504506
 20
276.182964
 30
0.0
 11
364.504506
 21
299.182841
 31
0.0
  0
ARC
  5
1C1
330
1A8
100
AcDbEntity
  8
1
  6
AUSGEZOGEN
 62
     3
100
AcDbCircle
 10
454.004633
 20
306.182811
 30
0.0
 40
5.0
100
AcDbArc
 50
180.0
 51
270.0
  0
LINE
  5
1C2
330
1A8
100
AcDbEntity
  8
1
  6
AUSGEZOGEN
 62
     3
100
AcDbLine
 10
449.004633
 20
315.182902
 30
0.0
 11
449.004633
 21
306.182811
 31
0.0
  0
LINE
  5
1C3
330
1A8
100
AcDbEntity
  8
1
  6
AUSGEZOGEN
 62
     3
100
AcDbLine
 10
370.0043839999999
 20
315.182902
 30
0.0
 11
370.0043839999999
 21
304.682872
 31
0.0
  0
ARC
  5
1C4
330
1A8
100
AcDbEntity
  8
1
  6
AUSGEZOGEN
 62
     3
100
AcDbCircle
 10
488.50445
 20
299.182841
 30
0.0
 40
2.000122
100
AcDbArc
 50
0.0
 51
90.0
  0
ARC
  5
1C5
330
1A8
100
AcDbEntity
  8
1
  6
AUSGEZOGEN
 62
     3
100
AcDbCircle
 10
330.504567
 20
299.182841
 30
0.0
 40
1.999968999999999
100
AcDbArc
 50
90.0
 51
180.0
  0
INSERT
  5
1C6
330
1A8
100
AcDbEntity
  8
0
100
AcDbBlockReference
  2
U0041
 10
0.0
 20
0.0
 30
0.0
  0
LINE
  5
1C7
330
1A8
100
AcDbEntity
  8
1
  6
AUSGEZOGEN
 62
     3
100
AcDbLine
 10
449.004633
 20
315.182902
 30
0.0
 11
449.004633
 21
320.182902
 31
0.0
  0
LINE
  5
1C8
330
1A8
100
AcDbEntity
  8
1
  6
AUSGEZOGEN
 62
     3
100
AcDbLine
 10
442.004511
 20
308.1827799999999
 30
0.0
 11
437.004511
 21
308.1827799999999
 31
0.0
  0
ARC
  5
1C9
330
1A8
100
AcDbEntity
  8
1
  6
AUSGEZOGEN
 62
     3
100
AcDbCircle
 10
442.004511
 20
315.182902
 30
0.0
 40
7.000122
100
AcDbArc
 50
270.0
 51
0.0
  0
INSERT
  5
1CA
330
1A8
100
AcDbEntity
  8
0
100
AcDbBlockReference
  2
U0042
 10
0.0
 20
0.0
 30
0.0
  0
INSERT
  5
1CB
330
1A8
100
AcDbEntity
  8
0
100
AcDbBlockReference
  2
U0043
 10
0.0
 20
0.0
 30
0.0
  0
LINE
  5
1CC
330
1A8
100
AcDbEntity
  8
1
  6
STRICHPUNKT
 62
     1
100
AcDbLine
 10
464.504511
 20
356.182811
 30
0.0
 11
352.7045779999999
 21
356.182811
 31
0.0
  0
INSERT
  5
1CD
330
1A8
100
AcDbEntity
  8
0
100
AcDbBlockReference
  2
U0044
 10
0.0
 20
0.0
 30
0.0
  0
ENDBLK
  5
1CE
330
1A8
100
AcDbEntity
  8
0
100
AcDbBlockEnd
  0
BLOCK
  5
1D0
330
1CF
100
AcDbEntity
  8
0
100
AcDbBlockBegin
  2
U0001
 70
     0
 10
0.0
 20
0.0
 30
0.0
  3
U0001
  1
U0001
  0
INSERT
  5
1D1
330
1CF
100
AcDbEntity
  8
0
100
AcDbBlockReference
  2
U0002
 10
0.0
 20
0.0
 30
0.0
  0
ENDBLK
  5
1D2
330
1CF
100
AcDbEntity
  8
0
100
AcDbBlockEnd
  0
ENDSEC
  0
SECTION
  2
ENTITIES
  0
LINE
  5
4EC
330
1E
100
AcDbEntity
  8
Rüttler
100
AcDbLine
 10
192.004332463093
 20
139.9661693907971
 30
0.0
 11
134.0044544630925
 21
139.9661673908001
 31
0.0
  0
LINE
  5
4ED
330
1E
100
AcDbEntity
  8
Rüttler
100
AcDbLine
 10
192.004332463093
 20
53.96610539079734
 30
0.0
 11
134.0044544630925
 21
53.96610739079438
 31
0.0
  0
LINE
  5
4EE
330
1E
100
AcDbEntity
  8
Rüttler
100
AcDbLine
 10
98.50439346308826
 20
177.9661073907943
 30
0.0
 11
227.5043934630937
 21
177.9661073908016
 31
0.0
  0
LINE
  5
4EF
330
1E
100
AcDbEntity
  8
Rüttler
100
AcDbLine
 10
98.50439346308826
 20
15.96616739080013
 30
0.0
 11
227.5043934630937
 21
15.96616739079286
 31
0.0
  0
LINE
  5
4F0
330
1E
100
AcDbEntity
  8
Rüttler
100
AcDbLine
 10
104.0044544630925
 20
48.96609739079827
 30
0.0
 11
42.79846046309262
 21
49.7668793907967
 31
0.0
  0
LINE
  5
4F1
330
1E
100
AcDbEntity
  8
Rüttler
100
AcDbLine
 10
104.0044544630925
 20
144.9661673908001
 30
0.0
 11
42.79846046309262
 21
144.1653833907973
 31
0.0
  0
LINE
  5
4F2
330
1E
100
AcDbEntity
  8
Rüttler
100
AcDbLine
 10
38.00445446309254
 20
54.76275939079892
 30
0.0
 11
38.00445446309254
 21
139.1167198724109
 31
0.0
  0
ARC
  5
4F3
330
1E
100
AcDbEntity
  8
Rüttler
100
AcDbCircle
 10
43.00445446309254
 20
54.76275939079892
 30
0.0
 40
5.0
100
AcDbArc
 50
180.0
 51
267.6388779999524
  0
ARC
  5
4F7
330
1E
100
AcDbEntity
  8
Rüttler
100
AcDbCircle
 10
43.00445446309254
 20
139.1693513907982
 30
0.0
 40
5.000276999999999
100
AcDbArc
 50
92.36105100005452
 51
180.6030905004901
  0
ARC
  5
4F9
330
1E
100
AcDbEntity
  8
Rüttler
100
AcDbCircle
 10
98.50439346308826
 20
18.96616739080013
 30
0.0
 40
3.0
100
AcDbArc
 50
180.0
 51
270.0
  0
ARC
  5
4FA
330
1E
100
AcDbEntity
  8
Rüttler
100
AcDbCircle
 10
98.5043934630919
 20
39.30846151311448
 30
0.0
 40
3.0
100
AcDbArc
 50
122.1526746596263
 51
180.0
  0
LINE
  5
4FB
330
1E
100
AcDbEntity
  8
Rüttler
100
AcDbLine
 10
95.5043934630919
 20
39.30846151311448
 30
0.0
 11
95.50439346308825
 21
18.96616739080013
 31
0.0
  0
LINE
  5
4FC
330
1E
100
AcDbEntity
  8
Rüttler
100
AcDbLine
 10
96.90786200350499
 20
41.84836058562609
 30
0.0
 11
108.231378856615
 21
48.96610439080063
 31
0.0
  0
LINE
  5
4FD
330
1E
100
AcDbEntity
  8
Rüttler
100
AcDbLine
 10
96.90786200350499
 20
152.0839141959684
 30
0.0
 11
108.231378856615
 21
144.9661703907938
 31
0.0
  0
LINE
  5
4FE
330
1E
100
AcDbEntity
  8
Rüttler
100
AcDbLine
 10
95.5043934630919
 20
154.62381326848
 30
0.0
 11
95.50439346308825
 21
174.9661073907943
 31
0.0
  0
ARC
  5
4FF
330
1E
100
AcDbEntity
  8
0
  6
AUSGEZOGEN
 62
     3
100
AcDbCircle
 10
98.5043934630919
 20
154.62381326848
 30
0.0
 40
3.0
100
AcDbArc
 50
180.0
 51
237.8473253403736
  0
ARC
  5
500
330
1E
100
AcDbEntity
  8
0
  6
AUSGEZOGEN
 62
     3
100
AcDbCircle
 10
98.50439346308826
 20
174.9661073907943
 30
0.0
 40
3.0
100
AcDbArc
 50
90.0
 51
180.0
  0
LINE
  5
501
330
1E
100
AcDbEntity
  8
Rüttler
100
AcDbLine
 10
113.0043934630937
 20
48.96609739079827
 30
0.0
 11
113.0043934630937
 21
144.9661673908001
 31
0.0
  0
LINE
  5
502
330
1E
100
AcDbEntity
  8
Rüttler
100
AcDbLine
 10
132.004332463093
 20
51.96612839079785
 30
0.0
 11
132.004332463093
 21
142.9660453907988
 31
0.0
  0
LINE
  5
504
330
1E
100
AcDbEntity
  8
Rüttler
100
AcDbLine
 10
113.0040884630923
 20
144.9661703907938
 30
0.0
 11
130.0042104630918
 21
144.9661693907935
 31
0.0
  0
ARC
  5
508
330
1E
100
AcDbEntity
  8
Rüttler
100
AcDbCircle
 10
134.0044544630943
 20
141.9661393907943
 30
0.0
 40
1.999968999999999
100
AcDbArc
 50
180.0
 51
270.0
  0
ARC
  5
509
330
1E
100
AcDbEntity
  8
Rüttler
100
AcDbCircle
 10
130.0042104630918
 20
142.9660473907959
 30
0.0
 40
2.000122
100
AcDbArc
 50
0.0
 51
90.0
  0
ARC
  5
50A
330
1E
100
AcDbEntity
  8
Rüttler
100
AcDbCircle
 10
130.0042104630918
 20
142.9660473907959
 30
0.0
 40
2.000122
100
AcDbArc
 50
0.0
 51
90.0
  0
CIRCLE
  5
50D
330
1E
100
AcDbEntity
  8
Rüttler
100
AcDbCircle
 10
118.00439346309
 20
159.4661373907936
 30
0.0
 40
6.0
  0
LINE
  5
50F
330
1E
100
AcDbEntity
  8
Rüttler
100
AcDbLine
 10
113.0040884630941
 20
141.9661393907943
 30
0.0
 11
113.0040884630923
 21
144.9661703907938
 31
0.0
  0
LINE
  5
510
330
1E
100
AcDbEntity
  8
Rüttler
100
AcDbLine
 10
113.0040884630941
 20
51.96613539080022
 30
0.0
 11
113.0040884630923
 21
48.96610439080063
 31
0.0
  0
LINE
  5
511
330
1E
100
AcDbEntity
  8
0
  6
STRICHPUNKT
 62
     7
 48
10.0
370
    18
100
AcDbLine
 10
118.0043934630882
 20
26.03155189423955
 30
0.0
 11
118.0043934630919
 21
42.90072288736223
 31
0.0
  0
CIRCLE
  5
512
330
1E
100
AcDbEntity
  8
Rüttler
100
AcDbCircle
 10
118.00439346309
 20
34.46613739080089
 30
0.0
 40
6.0
  0
ARC
  5
513
330
1E
100
AcDbEntity
  8
Rüttler
100
AcDbCircle
 10
130.50439346309
 20
26.96616739080013
 30
0.0
 40
6.500023999999999
100
AcDbArc
 50
262.0078409999592
 51
0.0
  0
LINE
  5
514
330
1E
100
AcDbEntity
  8
0
  6
STRICHPUNKT
 62
     7
 48
10.0
370
    18
100
AcDbLine
 10
130.5043934630882
 20
16.96616739080013
 30
0.0
 11
130.5043934630919
 21
36.96613739080089
 31
0.0
  0
ARC
  5
515
330
1E
100
AcDbEntity
  8
Rüttler
100
AcDbCircle
 10
130.0042104630918
 20
50.96622739079862
 30
0.0
 40
2.000122
100
AcDbArc
 50
270.0
 51
0.0
  0
ARC
  5
516
330
1E
100
AcDbEntity
  8
Rüttler
100
AcDbCircle
 10
130.0042104630918
 20
50.96622739079862
 30
0.0
 40
2.000122
100
AcDbArc
 50
270.0
 51
0.0
  0
ARC
  5
517
330
1E
100
AcDbEntity
  8
Rüttler
100
AcDbCircle
 10
134.0044544630943
 20
51.96613539080022
 30
0.0
 40
1.999968999999999
100
AcDbArc
 50
90.0
 51
180.0
  0
ARC
  5
518
330
1E
100
AcDbEntity
  8
0
  6
AUSGEZOGEN
 62
     3
100
AcDbCircle
 10
130.50439346309
 20
26.96616739080013
 30
0.0
 40
6.5
100
AcDbArc
 50
0.0
 51
29.98318099991862
  0
LINE
  5
519
330
1E
100
AcDbEntity
  8
0
  6
STRICHPUNKT
 62
     7
370
    15
100
AcDbLine
 10
130.5043934630919
 20
35.46615239079869
 30
0.0
 11
130.5043934630882
 21
18.46615239079869
 31
0.0
  0
LINE
  5
51A
330
1E
100
AcDbEntity
  8
0
  6
STRICHPUNKT
 62
     7
 48
10.0
370
    18
100
AcDbLine
 10
145.50439346309
 20
26.9661673907965
 30
0.0
 11
115.50439346309
 21
26.96616739080013
 31
0.0
  0
ARC
  5
51B
330
1E
100
AcDbEntity
  8
Rüttler
100
AcDbCircle
 10
130.50439346309
 20
26.96616739080013
 30
0.0
 40
6.500008999999999
100
AcDbArc
 50
29.98318099991862
 51
262.0078409999592
  0
LINE
  5
51C
330
1E
100
AcDbEntity
  8
Rüttler
100
AcDbLine
 10
113.0040884630923
 20
48.96610439080063
 30
0.0
 11
130.0042104630918
 21
48.96610539080097
 31
0.0
  0
LINE
  5
51D
330
1E
100
AcDbEntity
  8
Rüttler
100
AcDbLine
 10
104.0044544630925
 20
48.96609739079827
 30
0.0
 11
104.0044544630925
 21
144.9661673908001
 31
0.0
  0
LINE
  5
51E
330
1E
100
AcDbEntity
  8
Rüttler
100
AcDbLine
 10
104.0044544630925
 20
144.9661703907902
 30
0.0
 11
102.6549674630912
 21
144.9414513907893
 31
0.0
  0
LINE
  5
520
330
1E
100
AcDbEntity
  8
0
  6
STRICHPUNKT
 62
     7
 48
10.0
370
    18
100
AcDbLine
 10
105.5040884630905
 20
19.46613739080089
 30
0.0
 11
105.5040884630905
 21
39.46613439079987
 31
0.0
  0
LINE
  5
521
330
1E
100
AcDbEntity
  8
Rüttler
100
AcDbLine
 10
104.0044544630925
 20
48.96610439080427
 30
0.0
 11
102.6549674630912
 21
48.99082339080519
 31
0.0
  0
CIRCLE
  5
524
330
1E
100
AcDbEntity
  8
Rüttler
100
AcDbCircle
 10
105.50439346309
 20
164.4661073907943
 30
0.0
 40
5.5
  0
LINE
  5
525
330
1E
100
AcDbEntity
  8
Rüttler
100
AcDbLine
 10
113.0040884630923
 20
144.9661703907938
 30
0.0
 11
104.0044544630925
 21
144.9661703907902
 31
0.0
  0
LINE
  5
526
330
1E
100
AcDbEntity
  8
Rüttler
100
AcDbLine
 10
113.0040884630923
 20
48.96610439080063
 30
0.0
 11
104.0044544630925
 21
48.96610439080427
 31
0.0
  0
CIRCLE
  5
527
330
1E
100
AcDbEntity
  8
Rüttler
100
AcDbCircle
 10
105.50439346309
 20
29.46616739080013
 30
0.0
 40
5.5
  0
LINE
  5
528
330
1E
100
AcDbEntity
  8
0
  6
STRICHPUNKT
 62
     7
 48
10.0
370
    18
100
AcDbLine
 10
115.50439346309
 20
29.46616739080013
 30
0.0
 11
96.62215846309095
 21
29.46616739080377
 31
0.0
  0
LINE
  5
529
330
1E
100
AcDbEntity
  8
0
  6
STRICHPUNKT
 62
     7
 48
10.0
370
    18
100
AcDbLine
 10
126.4389789596514
 20
34.46613739080089
 30
0.0
 11
109.5698079665287
 21
34.46613739080089
 31
0.0
  0
LINE
  5
52A
330
1E
100
AcDbEntity
  8
Rüttler
100
AcDbLine
 10
222.0043324630931
 20
48.96611639079742
 30
0.0
 11
283.2100204630931
 21
49.76689839079949
 31
0.0
  0
LINE
  5
52B
330
1E
100
AcDbEntity
  8
Rüttler
100
AcDbLine
 10
223.3538194630944
 20
144.9414513907965
 30
0.0
 11
283.2100204630931
 21
144.1653903907997
 31
0.0
  0
ARC
  5
52C
330
1E
100
AcDbEntity
  8
Rüttler
100
AcDbCircle
 10
227.5043934630937
 20
39.3084615131072
 30
0.0
 40
3.0
100
AcDbArc
 50
0.0
 51
57.84732534037362
  0
LINE
  5
52D
330
1E
100
AcDbEntity
  8
Rüttler
100
AcDbLine
 10
229.1009249226806
 20
41.84836058561882
 30
0.0
 11
217.7774080695705
 21
48.966104390797
 31
0.0
  0
ARC
  5
52E
330
1E
100
AcDbEntity
  8
Rüttler
100
AcDbCircle
 10
227.5043934630937
 20
18.96616739079286
 30
0.0
 40
3.0
100
AcDbArc
 50
270.0
 51
0.0
  0
LINE
  5
52F
330
1E
100
AcDbEntity
  8
Rüttler
100
AcDbLine
 10
230.5043934630937
 20
39.3084615131072
 30
0.0
 11
230.5043934630937
 21
18.96616739079286
 31
0.0
  0
LINE
  5
530
330
1E
100
AcDbEntity
  8
Rüttler
100
AcDbLine
 10
230.5043934630937
 20
154.6238132684873
 30
0.0
 11
230.5043934630937
 21
174.9661073908016
 31
0.0
  0
ARC
  5
531
330
1E
100
AcDbEntity
  8
Rüttler
100
AcDbCircle
 10
227.5043934630937
 20
174.9661073908016
 30
0.0
 40
3.0
100
AcDbArc
 50
0.0
 51
90.0
  0
LINE
  5
532
330
1E
100
AcDbEntity
  8
Rüttler
100
AcDbLine
 10
229.1009249226806
 20
152.0839141959756
 30
0.0
 11
217.7774080695705
 21
144.9661703907975
 31
0.0
  0
ARC
  5
533
330
1E
100
AcDbEntity
  8
Rüttler
100
AcDbCircle
 10
227.5043934630937
 20
154.6238132684873
 30
0.0
 40
3.0
100
AcDbArc
 50
302.1526746596264
 51
0.0
  0
LINE
  5
534
330
1E
100
AcDbEntity
  8
Rüttler
100
AcDbLine
 10
213.0046984630932
 20
48.96611639079742
 30
0.0
 11
213.0046984630932
 21
141.9661393907979
 31
0.0
  0
LINE
  5
535
330
1E
100
AcDbEntity
  8
Rüttler
100
AcDbLine
 10
222.0043324630931
 20
48.96611639079742
 30
0.0
 11
222.0043324630931
 21
144.9661703907975
 31
0.0
  0
CIRCLE
  5
538
330
1E
100
AcDbEntity
  8
Rüttler
100
AcDbCircle
 10
208.0043934630955
 20
159.4661373907972
 30
0.0
 40
6.0
  0
LINE
  5
53A
330
1E
100
AcDbEntity
  8
Rüttler
100
AcDbLine
 10
213.0046984630932
 20
144.9661703907975
 30
0.0
 11
222.0043324630931
 21
144.9661703907975
 31
0.0
  0
LINE
  5
53B
330
1E
100
AcDbEntity
  8
Rüttler
100
AcDbLine
 10
213.0046984630932
 20
141.9661393907979
 30
0.0
 11
213.0046984630932
 21
144.9661703907975
 31
0.0
  0
LINE
  5
53C
330
1E
100
AcDbEntity
  8
Rüttler
100
AcDbLine
 10
222.0043324630931
 20
144.9661703907975
 30
0.0
 11
223.3538194630944
 21
144.9414513907965
 31
0.0
  0
CIRCLE
  5
53D
330
1E
100
AcDbEntity
  8
Rüttler
100
AcDbCircle
 10
220.5043934630937
 20
164.466107390798
 30
0.0
 40
5.5
  0
CIRCLE
  5
53F
330
1E
100
AcDbEntity
  8
Rüttler
100
AcDbCircle
 10
208.0043934630955
 20
34.46613739079726
 30
0.0
 40
6.0
  0
LINE
  5
540
330
1E
100
AcDbEntity
  8
0
  6
STRICHPUNKT
 62
     7
 48
10.0
370
    18
100
AcDbLine
 10
208.0043934630955
 20
26.03155189423592
 30
0.0
 11
208.0043934630955
 21
42.90072288735859
 31
0.0
  0
LINE
  5
541
330
1E
100
AcDbEntity
  8
0
  6
STRICHPUNKT
 62
     7
 48
10.0
370
    18
100
AcDbLine
 10
199.5698079665342
 20
34.46613739079726
 30
0.0
 11
216.4389789596568
 21
34.46613739079726
 31
0.0
  0
LINE
  5
542
330
1E
100
AcDbEntity
  8
0
  6
STRICHPUNKT
 62
     7
 48
10.0
370
    18
100
AcDbLine
 10
210.5043934630937
 20
29.46616739079649
 30
0.0
 11
229.3866284630928
 21
29.46616739079649
 31
0.0
  0
CIRCLE
  5
543
330
1E
100
AcDbEntity
  8
Rüttler
100
AcDbCircle
 10
220.5043934630937
 20
29.46616739079649
 30
0.0
 40
5.5
  0
LINE
  5
544
330
1E
100
AcDbEntity
  8
Rüttler
100
AcDbLine
 10
222.0043324630931
 20
48.966104390797
 30
0.0
 11
223.3538194630944
 21
48.99082339079791
 31
0.0
  0
LINE
  5
545
330
1E
100
AcDbEntity
  8
Rüttler
100
AcDbLine
 10
213.0046984630932
 20
51.96613539079658
 30
0.0
 11
213.0046984630932
 21
48.966104390797
 31
0.0
  0
LINE
  5
546
330
1E
100
AcDbEntity
  8
Rüttler
100
AcDbLine
 10
213.0046984630932
 20
48.966104390797
 30
0.0
 11
222.0043324630931
 21
48.966104390797
 31
0.0
  0
LINE
  5
547
330
1E
100
AcDbEntity
  8
0
  6
STRICHPUNKT
 62
     7
 48
10.0
370
    18
100
AcDbLine
 10
220.5046984630933
 20
19.46613739079725
 30
0.0
 11
220.5046984630933
 21
39.46613439079624
 31
0.0
  0
LINE
  5
548
330
1E
100
AcDbEntity
  8
Rüttler
100
AcDbLine
 10
194.0044544630925
 20
51.966147390797
 30
0.0
 11
194.0044544630925
 21
142.9660473907995
 31
0.0
  0
ARC
  5
54B
330
1E
100
AcDbEntity
  8
Rüttler
100
AcDbCircle
 10
196.0045764630938
 20
142.9660473907995
 30
0.0
 40
2.000122
100
AcDbArc
 50
90.0
 51
180.0
  0
ARC
  5
54C
330
1E
100
AcDbEntity
  8
Rüttler
100
AcDbCircle
 10
196.0045764630938
 20
142.9660473907995
 30
0.0
 40
2.000122
100
AcDbArc
 50
90.0
 51
180.0
  0
ARC
  5
54D
330
1E
100
AcDbEntity
  8
Rüttler
100
AcDbCircle
 10
192.004332463093
 20
141.9661393907979
 30
0.0
 40
1.999968999999999
100
AcDbArc
 50
270.0
 51
0.0
  0
ARC
  5
550
330
1E
100
AcDbEntity
  8
0
  6
AUSGEZOGEN
 62
     3
100
AcDbCircle
 10
195.5043934630937
 20
26.9661673907965
 30
0.0
 40
6.5
100
AcDbArc
 50
150.0168190000813
 51
180.0
  0
ARC
  5
551
330
1E
100
AcDbEntity
  8
Rüttler
100
AcDbCircle
 10
192.004332463093
 20
51.96613539079658
 30
0.0
 40
1.999968999999999
100
AcDbArc
 50
0.0
 51
90.0
  0
ARC
  5
552
330
1E
100
AcDbEntity
  8
Rüttler
100
AcDbCircle
 10
196.0045764630938
 20
50.96622739079498
 30
0.0
 40
2.000122
100
AcDbArc
 50
180.0
 51
270.0
  0
ARC
  5
553
330
1E
100
AcDbEntity
  8
Rüttler
100
AcDbCircle
 10
196.0045764630938
 20
50.96622739079498
 30
0.0
 40
2.000122
100
AcDbArc
 50
180.0
 51
270.0
  0
LINE
  5
554
330
1E
100
AcDbEntity
  8
0
  6
STRICHPUNKT
 62
     7
 48
10.0
370
    18
100
AcDbLine
 10
195.5043934630937
 20
16.9661673907965
 30
0.0
 11
195.5043934630937
 21
36.96613739079726
 31
0.0
  0
ARC
  5
555
330
1E
100
AcDbEntity
  8
Rüttler
100
AcDbCircle
 10
195.5043934630937
 20
26.9661673907965
 30
0.0
 40
6.500023999999999
100
AcDbArc
 50
180.0
 51
277.9921589999355
  0
LINE
  5
558
330
1E
100
AcDbEntity
  8
Rüttler
100
AcDbLine
 10
213.0046984630932
 20
144.9661703907975
 30
0.0
 11
196.0045764630938
 21
144.9661693907971
 31
0.0
  0
LINE
  5
559
330
1E
100
AcDbEntity
  8
Rüttler
100
AcDbLine
 10
213.0046984630932
 20
48.966104390797
 30
0.0
 11
196.0045764630938
 21
48.96610539079734
 31
0.0
  0
ARC
  5
55A
330
1E
100
AcDbEntity
  8
Rüttler
100
AcDbCircle
 10
195.5043934630937
 20
26.9661673907965
 30
0.0
 40
6.500008999999999
100
AcDbArc
 50
277.9921589999355
 51
150.0168190000813
  0
LINE
  5
55B
330
1E
100
AcDbEntity
  8
0
  6
STRICHPUNKT
 62
     7
 48
10.0
370
    18
100
AcDbLine
 10
180.5043934630937
 20
26.9661673907965
 30
0.0
 11
210.5043934630937
 21
26.9661673907965
 31
0.0
  0
LINE
  5
55C
330
1E
100
AcDbEntity
  8
Rüttler
100
AcDbLine
 10
288.004163463094
 20
54.76277839079807
 30
0.0
 11
288.004332463093
 21
139.169358390797
 31
0.0
  0
ARC
  5
55D
330
1E
100
AcDbEntity
  8
Rüttler
100
AcDbCircle
 10
283.004332463093
 20
54.76277839079807
 30
0.0
 40
4.999830999999999
100
AcDbArc
 50
333.4208729999975
 51
0.0
  0
ARC
  5
55E
330
1E
100
AcDbEntity
  8
Rüttler
100
AcDbCircle
 10
283.004332463093
 20
54.76277839079807
 30
0.0
 40
5.000112999999999
100
AcDbArc
 50
272.3576280000517
 51
333.4208729999975
  0
ARC
  5
55F
330
1E
100
AcDbEntity
  8
Rüttler
100
AcDbCircle
 10
283.004332463093
 20
139.1693573907966
 30
0.0
 40
5.0
100
AcDbArc
 50
0.0000019999897792
 51
87.64244399996612
  0
LINE
  5
75A
330
1E
100
AcDbEntity
  8
0
370
    18
100
AcDbLine
 10
149.1515996447425
 20
102.3613598998251
 30
0.0
 11
147.8093345139529
 21
102.3613598998251
 31
0.0
  0
LINE
  5
75B
330
1E
100
AcDbEntity
  8
0
370
    18
100
AcDbLine
 10
148.6185560821662
 20
100.3720142416426
 30
0.0
 11
148.1590174178125
 21
98.65699259823371
 31
0.0
  0
LINE
  5
75C
330
1E
100
AcDbEntity
  8
0
370
    18
100
AcDbLine
 10
148.1679877890882
 20
94.28375094088607
 30
0.0
 11
149.4420325293936
 21
94.28375094088607
 31
0.0
  0
LINE
  5
75D
330
1E
100
AcDbEntity
  8
0
370
    18
100
AcDbLine
 10
147.940163950917
 20
97.98811824247753
 30
0.0
 11
148.6497539656657
 21
96.23595901094632
 31
0.0
  0
LWPOLYLINE
  5
75E
330
1E
100
AcDbEntity
  8
0
  6
Continuous
100
AcDbPolyline
 90
        4
 70
     1
 43
0.0
 10
138.525701257462
 20
88.9724797255681
 10
187.4830856687253
 20
88.9724797255681
 10
187.4830856687253
 20
105.9597045560213
 10
138.525701257462
 20
105.9597045560213
  0
LINE
  5
787
330
1E
100
AcDbEntity
  8
0
  6
STRICHPUNKT
 62
     7
 48
10.0
370
    18
100
AcDbLine
 10
29.95587606417086
 20
97.46609214079469
 30
0.0
 11
138.525701257462
 21
97.46609214079469
 31
0.0
  0
LINE
  5
78C
330
1E
100
AcDbEntity
  8
0
370
    18
100
AcDbLine
 10
143.3821069600147
 20
96.96894303664521
 30
0.0
 11
143.258059885265
 21
96.50599305114952
 31
0.0
  0
LINE
  5
78D
330
1E
100
AcDbEntity
  8
0
370
    18
100
AcDbLine
 10
142.352632291651
 20
97.98811824247753
 30
0.0
 11
141.3600500647208
 21
94.28375094088607
 31
0.0
  0
LINE
  5
78E
330
1E
100
AcDbEntity
  8
0
370
    18
100
AcDbLine
 10
146.6789781036503
 20
97.98811824247753
 30
0.0
 11
145.6863958767206
 21
94.28375094088607
 31
0.0
  0
LINE
  5
78F
330
1E
100
AcDbEntity
  8
0
370
    18
100
AcDbLine
 10
141.3600500647213
 20
94.28375094088607
 30
0.0
 11
145.1553900064713
 21
94.28375094088607
 31
0.0
  0
LINE
  5
790
330
1E
100
AcDbEntity
  8
0
370
    18
100
AcDbLine
 10
148.1679877890882
 20
94.28375094088607
 30
0.0
 11
147.460852482639
 21
96.04488617672735
 31
0.0
  0
LINE
  5
791
330
1E
100
AcDbEntity
  8
0
370
    18
100
AcDbLine
 10
147.460852482639
 20
96.04488617672735
 30
0.0
 11
146.9889577184332
 21
94.28375094088607
 31
0.0
  0
LINE
  5
792
330
1E
100
AcDbEntity
  8
0
370
    18
100
AcDbLine
 10
145.5524439303928
 20
95.7655763583042
 30
0.0
 11
145.7508379853029
 21
96.50599305114952
 31
0.0
  0
LINE
  5
793
330
1E
100
AcDbEntity
  8
0
370
    18
100
AcDbLine
 10
145.1553900064713
 20
94.28375094088607
 30
0.0
 11
145.428132306773
 21
95.30163906298401
 31
0.0
  0
LINE
  5
794
330
1E
100
AcDbEntity
  8
0
370
    18
100
AcDbLine
 10
143.059665830355
 20
95.7655763583042
 30
0.0
 11
142.9456301741013
 21
95.33998949529223
 31
0.0
  0
LINE
  5
795
330
1E
100
AcDbEntity
  8
0
370
    18
100
AcDbLine
 10
143.059665830355
 20
95.7655763583042
 30
0.0
 11
142.9353542067351
 21
95.30163906298401
 31
0.0
  0
LINE
  5
796
330
1E
100
AcDbEntity
  8
0
370
    18
100
AcDbLine
 10
143.059665830355
 20
95.7655763583042
 30
0.0
 11
145.5524439303928
 21
95.7655763583042
 31
0.0
  0
LINE
  5
797
330
1E
100
AcDbEntity
  8
0
370
    18
100
AcDbLine
 10
142.9353542067351
 20
95.30163906298401
 30
0.0
 11
145.4384082741393
 21
95.30163906298401
 31
0.0
  0
LINE
  5
798
330
1E
100
AcDbEntity
  8
0
370
    18
100
AcDbLine
 10
145.7508379853029
 20
96.50599305114952
 30
0.0
 11
143.258059885265
 21
96.50599305114952
 31
0.0
  0
LINE
  5
799
330
1E
100
AcDbEntity
  8
0
370
    18
100
AcDbLine
 10
145.6863958767206
 20
94.28375094088607
 30
0.0
 11
146.9889577184332
 21
94.28375094088607
 31
0.0
  0
LINE
  5
79A
330
1E
100
AcDbEntity
  8
0
370
    18
100
AcDbLine
 10
146.1479722334009
 20
97.98811824247753
 30
0.0
 11
142.352632291651
 21
97.98811824247753
 31
0.0
  0
LINE
  5
79B
330
1E
100
AcDbEntity
  8
0
370
    18
100
AcDbLine
 10
146.816752287023
 20
98.65699259823371
 30
0.0
 11
148.1590174178125
 21
98.65699259823371
 31
0.0
  0
LINE
  5
79C
330
1E
100
AcDbEntity
  8
0
370
    18
100
AcDbLine
 10
147.940163950917
 20
97.98811824247753
 30
0.0
 11
146.6789781036503
 21
97.98811824247753
 31
0.0
  0
LINE
  5
79D
330
1E
100
AcDbEntity
  8
0
370
    18
100
AcDbLine
 10
147.8093345139529
 20
102.3613598998251
 30
0.0
 11
146.816752287023
 21
98.65699259823371
 31
0.0
  0
LINE
  5
79E
330
1E
100
AcDbEntity
  8
0
370
    18
100
AcDbLine
 10
145.8748850600525
 20
96.96894303664521
 30
0.0
 11
143.3718309926485
 21
96.96894303664521
 31
0.0
  0
LWPOLYLINE
  5
79F
330
1E
100
AcDbEntity
  8
0
370
    18
100
AcDbPolyline
 90
        4
 70
     1
 43
0.0
 10
143.2052890740779
 20
100.939362280494
 10
142.6097397379197
 20
98.71674189953907
 10
146.0612786456645
 20
98.71674189953907
 10
146.6568279818226
 20
100.939362280494
  0
LINE
  5
7A0
330
1E
100
AcDbEntity
  8
0
370
    18
100
AcDbLine
 10
145.8748850600525
 20
96.96894303664521
 30
0.0
 11
146.1479722334009
 21
97.98811824247753
 31
0.0
  0
LINE
  5
7C1
330
1E
100
AcDbEntity
  8
0
  6
STRICHPUNKT
 62
     7
 48
10.0
370
    18
100
AcDbLine
 10
163.0043934630937
 20
2.466092140794671
 30
0.0
 11
163.0043934630937
 21
88.97247972556806
 31
0.0
  0
LINE
  5
7E8
330
1E
100
AcDbEntity
  8
0
  6
STRICHPUNKT
 62
     7
 48
10.0
370
    18
100
AcDbLine
 10
187.4830856687253
 20
97.46609214079469
 30
0.0
 11
296.0529108620166
 21
97.46609214079473
 31
0.0
  0
LINE
  5
7EB
330
1E
100
AcDbEntity
  8
0
  6
STRICHPUNKT
 62
     7
 48
10.0
370
    18
100
AcDbLine
 10
163.0043934630937
 20
105.9597045560212
 30
0.0
 11
163.0043934630937
 21
192.4660921407946
 31
0.0
  0
LINE
  5
7EC
330
1E
100
AcDbEntity
  8
0
370
    18
100
AcDbLine
 10
171.6841485118819
 20
101.4847795464771
 30
0.0
 11
170.5694056455595
 21
101.4847795464771
 31
0.0
  0
LINE
  5
7ED
330
1E
100
AcDbEntity
  8
0
370
    18
100
AcDbLine
 10
171.8212507876637
 20
97.12146371139865
 30
0.0
 11
170.7065079213408
 21
97.12146371139865
 31
0.0
  0
LINE
  5
7EE
330
1E
100
AcDbEntity
  8
0
370
    18
100
AcDbLine
 10
172.841564717463
 20
102.3613598998251
 30
0.0
 11
169.5017228016272
 21
102.3613598998251
 31
0.0
  0
LINE
  5
7EF
330
1E
100
AcDbEntity
  8
0
370
    18
100
AcDbLine
 10
172.9786669932447
 20
97.99804406474664
 30
0.0
 11
169.638825077409
 21
97.99804406474664
 31
0.0
  0
LINE
  5
7F0
330
1E
100
AcDbEntity
  8
0
370
    18
100
AcDbLine
 10
171.2395216453863
 20
98.65699259823371
 30
0.0
 11
172.9485261322919
 21
98.65699259823371
 31
0.0
  0
ARC
  5
7F1
330
1E
100
AcDbEntity
  8
0
370
    18
100
AcDbCircle
 10
171.4910381657641
 20
101.3488986827056
 30
0.0
 40
0.7682193793950698
100
AcDbArc
 50
270.1852188608381
 51
291.3103783431899
  0
LINE
  5
7F2
330
1E
100
AcDbEntity
  8
0
370
    18
100
AcDbLine
 10
171.6306238410317
 20
96.2173674822568
 30
0.0
 11
170.4642560668622
 21
96.2173674822568
 31
0.0
  0
LINE
  5
7F3
330
1E
100
AcDbEntity
  8
0
370
    18
100
AcDbLine
 10
171.3766239211682
 20
94.2936767631554
 30
0.0
 11
173.0856284080735
 21
94.2936767631554
 31
0.0
  0
LWPOLYLINE
  5
7F4
330
1E
100
AcDbEntity
  8
0
370
    18
100
AcDbPolyline
 90
        4
 70
     1
 43
0.0
 10
159.9774459457266
 20
93.69526701379802
 10
159.3818966095686
 20
91.4726466328431
 10
182.4329025276713
 20
91.4726466328431
 10
183.0284518638293
 20
93.69526701379802
  0
LINE
  5
7F5
330
1E
100
AcDbEntity
  8
0
370
    18
100
AcDbLine
 10
160.615072228507
 20
97.98811824247753
 30
0.0
 11
159.2997010889491
 21
97.98811824247753
 31
0.0
  0
ARC
  5
7F6
330
1E
100
AcDbEntity
  8
0
370
    18
100
AcDbCircle
 10
161.0264478320077
 20
99.67748258284973
 30
0.0
 40
0.9587608077068694
100
AcDbArc
 50
164.9999999999988
 51
261.6882763531173
  0
LINE
  5
7F7
330
1E
100
AcDbEntity
  8
0
370
    18
100
AcDbLine
 10
159.6224900015771
 20
94.28375094088607
 30
0.0
 11
160.615072228507
 21
97.98811824247753
 31
0.0
  0
LINE
  5
7F8
330
1E
100
AcDbEntity
  8
0
370
    18
100
AcDbLine
 10
158.8302114378495
 20
96.23595901094632
 30
0.0
 11
159.2997010889491
 21
97.98811824247753
 31
0.0
  0
LINE
  5
7F9
330
1E
100
AcDbEntity
  8
0
370
    18
100
AcDbLine
 10
158.1206214231007
 20
97.98811824247753
 30
0.0
 11
158.8302114378495
 21
96.23595901094632
 31
0.0
  0
ARC
  5
7FA
330
1E
100
AcDbEntity
  8
0
370
    18
100
AcDbCircle
 10
157.7333420664978
 20
94.416098730577
 30
0.0
 40
6.22149298766157
100
AcDbArc
 50
158.0969939507942
 51
170.4856136403675
  0
ARC
  5
7FB
330
1E
100
AcDbEntity
  8
0
370
    18
100
AcDbCircle
 10
158.3093078642256
 20
94.16435627179168
 30
0.0
 40
8.224997010073714
100
AcDbArc
 50
157.3874044007946
 51
171.0200151799526
  0
LINE
  5
7FC
330
1E
100
AcDbEntity
  8
0
370
    18
100
AcDbLine
 10
148.6497539656657
 20
96.23595901094632
 30
0.0
 11
149.1192436167652
 21
97.98811824247753
 31
0.0
  0
LINE
  5
7FD
330
1E
100
AcDbEntity
  8
0
370
    18
100
AcDbLine
 10
149.4420325293936
 20
94.28375094088607
 30
0.0
 11
150.4346147563232
 21
97.98811824247753
 31
0.0
  0
LINE
  5
7FE
330
1E
100
AcDbEntity
  8
0
370
    18
100
AcDbLine
 10
156.859435575834
 20
97.98811824247753
 30
0.0
 11
155.8668533489042
 21
94.28375094088607
 31
0.0
  0
LINE
  5
7FF
330
1E
100
AcDbEntity
  8
0
370
    18
100
AcDbLine
 10
156.3975590087369
 20
97.98811824247753
 30
0.0
 11
155.4049767818073
 21
94.28375094088607
 31
0.0
  0
LINE
  5
800
330
1E
100
AcDbEntity
  8
0
370
    18
100
AcDbLine
 10
155.0552938779473
 20
97.98811824247753
 30
0.0
 11
154.0627116510177
 21
94.28375094088607
 31
0.0
  0
LINE
  5
801
330
1E
100
AcDbEntity
  8
0
370
    18
100
AcDbLine
 10
154.0627116510177
 20
94.28375094088607
 30
0.0
 11
155.4049767818073
 21
94.28375094088607
 31
0.0
  0
LINE
  5
802
330
1E
100
AcDbEntity
  8
0
370
    18
100
AcDbLine
 10
152.5445513915253
 20
96.17062846940043
 30
0.0
 11
154.1092735705222
 21
96.17062846940043
 31
0.0
  0
LINE
  5
803
330
1E
100
AcDbEntity
  8
0
370
    18
100
AcDbLine
 10
153.6036862605404
 20
94.28375094088607
 30
0.0
 11
154.1092735705222
 21
96.17062846940043
 31
0.0
  0
LINE
  5
804
330
1E
100
AcDbEntity
  8
0
370
    18
100
AcDbLine
 10
151.9765213609345
 20
95.00295894892122
 30
0.0
 11
152.0182115827701
 21
95.00295894892122
 31
0.0
  0
ARC
  5
805
330
1E
100
AcDbEntity
  8
0
370
    18
100
AcDbCircle
 10
152.0182115827701
 20
95.46316413662068
 30
0.0
 40
0.4602051876992975
100
AcDbArc
 50
270.0
 51
334.2263645027493
  0
ARC
  5
806
330
1E
100
AcDbEntity
  8
0
370
    18
100
AcDbCircle
 10
151.1513062961947
 20
95.88175051008248
 30
0.0
 40
1.422878199650913
100
AcDbArc
 50
334.2263645027386
 51
11.71383119333146
  0
ARC
  5
807
330
1E
100
AcDbEntity
  8
0
370
    18
100
AcDbCircle
 10
152.7783922576784
 20
95.43426391013429
 30
0.0
 40
1.150512969248243
100
AcDbArc
 50
270.0
 51
270.0
  0
LINE
  5
808
330
1E
100
AcDbEntity
  8
0
370
    18
100
AcDbLine
 10
153.6036862605404
 20
94.28375094088607
 30
0.0
 11
151.874641929401
 21
94.28375094088607
 31
0.0
  0
ARC
  5
809
330
1E
100
AcDbEntity
  8
0
370
    18
100
AcDbCircle
 10
151.132134444307
 20
95.29853890655477
 30
0.0
 40
0.9587608077068694
100
AcDbArc
 50
171.0200151799526
 51
262.0635437036931
  0
ARC
  5
80A
330
1E
100
AcDbEntity
  8
0
370
    18
100
AcDbCircle
 10
151.9765213609345
 20
95.38646327200387
 30
0.0
 40
0.3835043230827479
100
AcDbArc
 50
171.2985646492627
 51
270.0
  0
ARC
  5
80B
330
1E
100
AcDbEntity
  8
0
370
    18
100
AcDbCircle
 10
151.9827429476825
 20
101.4000248055707
 30
0.0
 40
7.119253077153191
100
AcDbArc
 50
262.0635437036931
 51
271.6576250419802
  0
LINE
  5
80C
330
1E
100
AcDbEntity
  8
0
370
    18
100
AcDbLine
 10
158.3484452612719
 20
94.28375094088607
 30
0.0
 11
159.6224900015771
 21
94.28375094088607
 31
0.0
  0
LINE
  5
80D
330
1E
100
AcDbEntity
  8
0
370
    18
100
AcDbLine
 10
158.3484452612719
 20
94.28375094088607
 30
0.0
 11
157.6413099548222
 21
96.04488617672735
 31
0.0
  0
LINE
  5
80E
330
1E
100
AcDbEntity
  8
0
370
    18
100
AcDbLine
 10
155.8668533489042
 20
94.28375094088607
 30
0.0
 11
157.1694151906165
 21
94.28375094088607
 31
0.0
  0
LINE
  5
80F
330
1E
100
AcDbEntity
  8
0
370
    18
100
AcDbLine
 10
157.6413099548222
 20
96.04488617672735
 30
0.0
 11
157.1694151906165
 21
94.28375094088607
 31
0.0
  0
LINE
  5
810
330
1E
100
AcDbEntity
  8
0
370
    18
100
AcDbLine
 10
153.5195332576306
 20
98.65699259823371
 30
0.0
 11
154.7935779979359
 21
98.65699259823371
 31
0.0
  0
LINE
  5
811
330
1E
100
AcDbEntity
  8
0
370
    18
100
AcDbLine
 10
154.0012994342081
 20
100.6092006682939
 30
0.0
 11
154.4707890853076
 21
102.3613598998251
 31
0.0
  0
ARC
  5
812
330
1E
100
AcDbEntity
  8
0
370
    18
100
AcDbCircle
 10
152.8312378153784
 20
88.17953753671009
 30
0.0
 40
8.85764661435673
100
AcDbArc
 50
80.0265067162775
 51
93.02614479233048
  0
ARC
  5
813
330
1E
100
AcDbEntity
  8
0
370
    18
100
AcDbCircle
 10
152.9957903298237
 20
83.52102215767763
 30
0.0
 40
14.46807838019826
100
AcDbArc
 50
83.51735091136804
 51
95.92334440423654
  0
LINE
  5
814
330
1E
100
AcDbEntity
  8
0
370
    18
100
AcDbLine
 10
153.5195332576306
 20
98.65699259823371
 30
0.0
 11
152.8123979511808
 21
100.4181278340749
 31
0.0
  0
LINE
  5
815
330
1E
100
AcDbEntity
  8
0
370
    18
100
AcDbLine
 10
152.8123979511808
 20
100.4181278340749
 30
0.0
 11
152.3405031869754
 21
98.65699259823371
 31
0.0
  0
LINE
  5
816
330
1E
100
AcDbEntity
  8
0
370
    18
100
AcDbLine
 10
153.2917094194593
 20
102.3613598998251
 30
0.0
 11
154.0012994342081
 21
100.6092006682939
 31
0.0
  0
LINE
  5
817
330
1E
100
AcDbEntity
  8
0
370
    18
100
AcDbLine
 10
153.2917094194593
 20
102.3613598998251
 30
0.0
 11
152.0305235721926
 21
102.3613598998251
 31
0.0
  0
ARC
  5
818
330
1E
100
AcDbEntity
  8
0
370
    18
100
AcDbCircle
 10
152.3879231263961
 20
96.5652691446661
 30
0.0
 40
0.4602051876992975
100
AcDbArc
 50
93.02614479233048
 51
158.0969939507942
  0
LINE
  5
819
330
1E
100
AcDbEntity
  8
0
370
    18
100
AcDbLine
 10
149.9853797259001
 20
100.4610607196438
 30
0.0
 11
150.6517955178504
 21
98.65699259823371
 31
0.0
  0
LINE
  5
81A
330
1E
100
AcDbEntity
  8
0
370
    18
100
AcDbLine
 10
148.6185560821662
 20
100.3720142416426
 30
0.0
 11
149.2471696064969
 21
98.67028142913966
 31
0.0
  0
ARC
  5
81B
330
1E
100
AcDbEntity
  8
0
370
    18
100
AcDbCircle
 10
151.6016583864207
 20
96.95821149915832
 30
0.0
 40
0.9587608077068694
100
AcDbArc
 50
95.92334440423654
 51
157.3874044008002
  0
LINE
  5
81C
330
1E
100
AcDbEntity
  8
0
370
    18
100
AcDbLine
 10
149.2111951345566
 20
98.65699259823371
 30
0.0
 11
150.6517955178504
 21
98.65699259823371
 31
0.0
  0
LINE
  5
81D
330
1E
100
AcDbEntity
  8
0
370
    18
100
AcDbLine
 10
150.4346147563236
 20
97.98811824247753
 30
0.0
 11
149.1192436167652
 21
97.98811824247753
 31
0.0
  0
LINE
  5
81E
330
1E
100
AcDbEntity
  8
0
370
    18
100
AcDbLine
 10
151.6443777447804
 20
102.3613598998251
 30
0.0
 11
150.0498914349355
 21
102.3613598998251
 31
0.0
  0
LINE
  5
81F
330
1E
100
AcDbEntity
  8
0
370
    18
100
AcDbLine
 10
151.6443777447804
 20
102.3613598998251
 30
0.0
 11
149.9853797259001
 21
100.4610607196438
 31
0.0
  0
LINE
  5
820
330
1E
100
AcDbEntity
  8
0
370
    18
100
AcDbLine
 10
149.1515996447425
 20
102.3613598998251
 30
0.0
 11
148.7538002434915
 21
100.8767523231359
 31
0.0
  0
LINE
  5
821
330
1E
100
AcDbEntity
  8
0
370
    18
100
AcDbLine
 10
150.0498914349355
 20
102.3613598998251
 30
0.0
 11
148.7538002434915
 21
100.8767523231359
 31
0.0
  0
LINE
  5
822
330
1E
100
AcDbEntity
  8
0
370
    18
100
AcDbLine
 10
152.0305235721926
 20
102.3613598998251
 30
0.0
 11
151.037941345263
 21
98.65699259823371
 31
0.0
  0
LINE
  5
823
330
1E
100
AcDbEntity
  8
0
370
    18
100
AcDbLine
 10
151.037941345263
 20
98.65699259823371
 30
0.0
 11
152.3405031869754
 21
98.65699259823371
 31
0.0
  0
LINE
  5
824
330
1E
100
AcDbEntity
  8
0
370
    18
100
AcDbLine
 10
158.5169565287285
 20
98.65699259823371
 30
0.0
 11
159.8208222738793
 21
98.65699259823371
 31
0.0
  0
LINE
  5
825
330
1E
100
AcDbEntity
  8
0
370
    18
100
AcDbLine
 10
158.5169565287285
 20
98.65699259823371
 30
0.0
 11
158.4902504393617
 21
99.18537794101098
 31
0.0
  0
LINE
  5
826
330
1E
100
AcDbEntity
  8
0
370
    18
100
AcDbLine
 10
158.4496108525063
 20
99.98944033052214
 30
0.0
 11
158.3628876140177
 21
101.7052770247633
 31
0.0
  0
LINE
  5
827
330
1E
100
AcDbEntity
  8
0
370
    18
100
AcDbLine
 10
159.8209201181328
 20
98.65505673002497
 30
0.0
 11
159.6335930754224
 21
102.3613598998251
 31
0.0
  0
LINE
  5
828
330
1E
100
AcDbEntity
  8
0
370
    18
100
AcDbLine
 10
156.6983297001195
 20
98.65699259823371
 30
0.0
 11
156.9868618319156
 21
99.18537794101098
 31
0.0
  0
LINE
  5
829
330
1E
100
AcDbEntity
  8
0
370
    18
100
AcDbLine
 10
155.1003331846788
 20
98.65699259823371
 30
0.0
 11
157.1231542358201
 21
102.3613598998251
 31
0.0
  0
LINE
  5
82A
330
1E
100
AcDbEntity
  8
0
370
    18
100
AcDbLine
 10
154.7935779979359
 20
98.65699259823371
 30
0.0
 11
155.7861602248656
 21
102.3613598998251
 31
0.0
  0
LINE
  5
82B
330
1E
100
AcDbEntity
  8
0
370
    18
100
AcDbLine
 10
155.1003331846788
 20
98.65699259823371
 30
0.0
 11
156.6983297001195
 21
98.65699259823371
 31
0.0
  0
LINE
  5
82C
330
1E
100
AcDbEntity
  8
0
370
    18
100
AcDbLine
 10
156.3975590087369
 20
97.98811824247753
 30
0.0
 11
155.0552938779473
 21
97.98811824247753
 31
0.0
  0
LINE
  5
82D
330
1E
100
AcDbEntity
  8
0
370
    18
100
AcDbLine
 10
155.7861602248656
 20
102.3613598998251
 30
0.0
 11
154.4707890853076
 21
102.3613598998251
 31
0.0
  0
LINE
  5
82E
330
1E
100
AcDbEntity
  8
0
370
    18
100
AcDbLine
 10
154.3653162904581
 20
96.90332723942072
 30
0.0
 11
154.6292700127217
 21
97.89659296864443
 31
0.0
  0
LINE
  5
82F
330
1E
100
AcDbEntity
  8
0
370
    18
100
AcDbLine
 10
159.6335930754224
 20
102.3613598998251
 30
0.0
 11
157.1231542358201
 21
102.3613598998251
 31
0.0
  0
LINE
  5
830
330
1E
100
AcDbEntity
  8
0
370
    18
100
AcDbLine
 10
158.1206214231007
 20
97.98811824247753
 30
0.0
 11
156.859435575834
 21
97.98811824247753
 31
0.0
  0
LINE
  5
831
330
1E
100
AcDbEntity
  8
0
370
    18
100
AcDbLine
 10
157.4259312317656
 20
99.98944033052214
 30
0.0
 11
158.3628876140177
 21
101.7052770247633
 31
0.0
  0
LINE
  5
832
330
1E
100
AcDbEntity
  8
0
370
    18
100
AcDbLine
 10
157.4259312317656
 20
99.98944033052214
 30
0.0
 11
158.4496108525063
 21
99.98944033052214
 31
0.0
  0
LINE
  5
833
330
1E
100
AcDbEntity
  8
0
370
    18
100
AcDbLine
 10
156.9868618319156
 20
99.18537794101098
 30
0.0
 11
158.4902504393617
 21
99.18537794101098
 31
0.0
  0
LINE
  5
834
330
1E
100
AcDbEntity
  8
0
370
    18
100
AcDbLine
 10
170.4642560668622
 20
96.2173674822568
 30
0.0
 11
170.7065079213408
 21
97.12146371139865
 31
0.0
  0
LINE
  5
835
330
1E
100
AcDbEntity
  8
0
370
    18
100
AcDbLine
 10
166.3586428971851
 20
96.96894303664521
 30
0.0
 11
166.2345958224354
 21
96.50599305114952
 31
0.0
  0
LINE
  5
836
330
1E
100
AcDbEntity
  8
0
370
    18
100
AcDbLine
 10
162.1229075236308
 20
96.96894303664521
 30
0.0
 11
161.9988604488815
 21
96.50599305114952
 31
0.0
  0
LINE
  5
837
330
1E
100
AcDbEntity
  8
0
370
    18
100
AcDbLine
 10
165.3291682288214
 20
97.98811824247753
 30
0.0
 11
164.3365860018913
 21
94.28375094088607
 31
0.0
  0
LINE
  5
838
330
1E
100
AcDbEntity
  8
0
370
    18
100
AcDbLine
 10
161.093432855267
 20
97.98811824247753
 30
0.0
 11
160.1008506283373
 21
94.28375094088607
 31
0.0
  0
LINE
  5
839
330
1E
100
AcDbEntity
  8
0
370
    18
100
AcDbLine
 10
169.638825077409
 20
97.99804406474664
 30
0.0
 11
168.6435832344182
 21
94.28375094088607
 31
0.0
  0
LINE
  5
83A
330
1E
100
AcDbEntity
  8
0
370
    18
100
AcDbLine
 10
164.3365860018913
 20
94.28375094088607
 30
0.0
 11
168.1319259436418
 21
94.28375094088607
 31
0.0
  0
LINE
  5
83B
330
1E
100
AcDbEntity
  8
0
370
    18
100
AcDbLine
 10
164.2932444940087
 20
95.7655763583042
 30
0.0
 11
164.4916385489194
 21
96.50599305114952
 31
0.0
  0
LINE
  5
83C
330
1E
100
AcDbEntity
  8
0
370
    18
100
AcDbLine
 10
163.8961905700874
 20
94.28375094088607
 30
0.0
 11
164.168932870389
 21
95.30163906298401
 31
0.0
  0
LINE
  5
83D
330
1E
100
AcDbEntity
  8
0
370
    18
100
AcDbLine
 10
161.8004663939709
 20
95.7655763583042
 30
0.0
 11
161.6864307377174
 21
95.33998949529223
 31
0.0
  0
LINE
  5
83E
330
1E
100
AcDbEntity
  8
0
370
    18
100
AcDbLine
 10
161.8004663939709
 20
95.7655763583042
 30
0.0
 11
161.6761547703512
 21
95.30163906298401
 31
0.0
  0
LINE
  5
83F
330
1E
100
AcDbEntity
  8
0
370
    18
100
AcDbLine
 10
164.4916385489194
 20
96.50599305114952
 30
0.0
 11
161.9988604488815
 21
96.50599305114952
 31
0.0
  0
LINE
  5
840
330
1E
100
AcDbEntity
  8
0
370
    18
100
AcDbLine
 10
161.8004663939709
 20
95.7655763583042
 30
0.0
 11
164.2932444940087
 21
95.7655763583042
 31
0.0
  0
LINE
  5
841
330
1E
100
AcDbEntity
  8
0
370
    18
100
AcDbLine
 10
161.6761547703512
 20
95.30163906298401
 30
0.0
 11
164.1792088377552
 21
95.30163906298401
 31
0.0
  0
LINE
  5
842
330
1E
100
AcDbEntity
  8
0
370
    18
100
AcDbLine
 10
160.1008506283373
 20
94.28375094088607
 30
0.0
 11
163.8961905700874
 21
94.28375094088607
 31
0.0
  0
LINE
  5
843
330
1E
100
AcDbEntity
  8
0
370
    18
100
AcDbLine
 10
170.3730956258957
 20
95.87715208492818
 30
0.0
 11
171.3766239211682
 21
94.2936767631554
 31
0.0
  0
LINE
  5
844
330
1E
100
AcDbEntity
  8
0
370
    18
100
AcDbLine
 10
170.3730956258957
 20
95.87715208492818
 30
0.0
 11
169.9488046921919
 21
94.2936767631554
 31
0.0
  0
LINE
  5
845
330
1E
100
AcDbEntity
  8
0
370
    18
100
AcDbLine
 10
168.5289798675627
 20
95.7655763583042
 30
0.0
 11
168.7273739224734
 21
96.50599305114952
 31
0.0
  0
LINE
  5
846
330
1E
100
AcDbEntity
  8
0
370
    18
100
AcDbLine
 10
168.1319259436418
 20
94.28375094088607
 30
0.0
 11
168.4046682439431
 21
95.30163906298401
 31
0.0
  0
LINE
  5
847
330
1E
100
AcDbEntity
  8
0
370
    18
100
AcDbLine
 10
166.0362017675249
 20
95.7655763583042
 30
0.0
 11
165.9221661112719
 21
95.33998949529223
 31
0.0
  0
LINE
  5
848
330
1E
100
AcDbEntity
  8
0
370
    18
100
AcDbLine
 10
166.0362017675249
 20
95.7655763583042
 30
0.0
 11
165.9118901439053
 21
95.30163906298401
 31
0.0
  0
LINE
  5
849
330
1E
100
AcDbEntity
  8
0
370
    18
100
AcDbLine
 10
166.0362017675249
 20
95.7655763583042
 30
0.0
 11
168.5289798675627
 21
95.7655763583042
 31
0.0
  0
LINE
  5
84A
330
1E
100
AcDbEntity
  8
0
370
    18
100
AcDbLine
 10
165.9118901439053
 20
95.30163906298401
 30
0.0
 11
168.4149442113097
 21
95.30163906298401
 31
0.0
  0
LINE
  5
84B
330
1E
100
AcDbEntity
  8
0
370
    18
100
AcDbLine
 10
168.7273739224734
 20
96.50599305114952
 30
0.0
 11
166.2345958224354
 21
96.50599305114952
 31
0.0
  0
LINE
  5
84C
330
1E
100
AcDbEntity
  8
0
370
    18
100
AcDbLine
 10
168.6462428504794
 20
94.2936767631554
 30
0.0
 11
169.9488046921919
 21
94.2936767631554
 31
0.0
  0
LINE
  5
84D
330
1E
100
AcDbEntity
  8
0
370
    18
100
AcDbLine
 10
164.1781877364599
 20
98.65699259823371
 30
0.0
 11
167.9735276782098
 21
98.65699259823371
 31
0.0
  0
LINE
  5
84E
330
1E
100
AcDbEntity
  8
0
370
    18
100
AcDbLine
 10
168.96610990514
 20
102.3613598998251
 30
0.0
 11
165.1707699633895
 21
102.3613598998251
 31
0.0
  0
LINE
  5
84F
330
1E
100
AcDbEntity
  8
0
370
    18
100
AcDbLine
 10
165.8778035020934
 20
100.1388180156521
 30
0.0
 11
165.7637678458401
 21
99.71323115263999
 31
0.0
  0
LINE
  5
850
330
1E
100
AcDbEntity
  8
0
370
    18
100
AcDbLine
 10
165.8778035020934
 20
100.1388180156521
 30
0.0
 11
165.7534918784737
 21
99.67488072033177
 31
0.0
  0
LINE
  5
851
330
1E
100
AcDbEntity
  8
0
370
    18
100
AcDbLine
 10
165.7534918784737
 20
99.67488072033177
 30
0.0
 11
168.2565459458779
 21
99.67488072033177
 31
0.0
  0
LINE
  5
852
330
1E
100
AcDbEntity
  8
0
370
    18
100
AcDbLine
 10
169.1245081705714
 20
97.98811824247753
 30
0.0
 11
165.3291682288214
 21
97.98811824247753
 31
0.0
  0
LINE
  5
853
330
1E
100
AcDbEntity
  8
0
370
    18
100
AcDbLine
 10
165.1707699633895
 20
102.3613598998251
 30
0.0
 11
164.1781877364599
 21
98.65699259823371
 31
0.0
  0
LINE
  5
854
330
1E
100
AcDbEntity
  8
0
370
    18
100
AcDbLine
 10
163.8182933854504
 20
99.48858315010239
 30
0.0
 11
164.5880515955733
 21
102.3613598998251
 31
0.0
  0
LINE
  5
855
330
1E
100
AcDbEntity
  8
0
370
    18
100
AcDbLine
 10
164.6156856236686
 20
96.96894303664521
 30
0.0
 11
164.8887727970173
 21
97.98811824247753
 31
0.0
  0
ARC
  5
856
330
1E
100
AcDbEntity
  8
0
370
    18
100
AcDbCircle
 10
161.9170004073236
 20
105.7732664629185
 30
0.0
 40
7.119253077153191
100
AcDbArc
 50
261.6882763531173
 51
278.5178280220953
  0
LINE
  5
857
330
1E
100
AcDbEntity
  8
0
370
    18
100
AcDbLine
 10
162.1872040991172
 20
102.3613598998251
 30
0.0
 11
161.5037533279795
 21
99.81068689746714
 31
0.0
  0
ARC
  5
858
330
1E
100
AcDbEntity
  8
0
370
    18
100
AcDbCircle
 10
161.837146385123
 20
99.72135449704342
 30
0.0
 40
0.3451538907744731
100
AcDbArc
 50
164.9999999999988
 51
270.0
  0
LINE
  5
859
330
1E
100
AcDbEntity
  8
0
370
    18
100
AcDbLine
 10
162.0583182790336
 20
99.3762006062691
 30
0.0
 11
161.837146385123
 21
99.3762006062691
 31
0.0
  0
ARC
  5
85A
330
1E
100
AcDbEntity
  8
0
370
    18
100
AcDbCircle
 10
162.0583182790336
 20
99.72135449704342
 30
0.0
 40
0.3451538907744731
100
AcDbArc
 50
270.0
 51
344.9999999999988
  0
LINE
  5
85B
330
1E
100
AcDbEntity
  8
0
370
    18
100
AcDbLine
 10
162.391711336177
 20
99.63202209661972
 30
0.0
 11
163.1230351964177
 21
102.3613598998251
 31
0.0
  0
LINE
  5
85C
330
1E
100
AcDbEntity
  8
0
370
    18
100
AcDbLine
 10
162.1872040991172
 20
102.3613598998251
 30
0.0
 11
160.7530083647457
 21
102.3613598998251
 31
0.0
  0
LINE
  5
85D
330
1E
100
AcDbEntity
  8
0
370
    18
100
AcDbLine
 10
160.7530083647457
 20
102.3613598998251
 30
0.0
 11
160.1003560066101
 21
99.92562813958214
 31
0.0
  0
ARC
  5
85E
330
1E
100
AcDbEntity
  8
0
370
    18
100
AcDbCircle
 10
162.8181142140205
 20
99.75658035137326
 30
0.0
 40
1.035461672323419
100
AcDbArc
 50
278.5178280220953
 51
344.9999999999988
  0
LINE
  5
85F
330
1E
100
AcDbEntity
  8
0
370
    18
100
AcDbLine
 10
164.8887727970173
 20
97.98811824247753
 30
0.0
 11
161.093432855267
 21
97.98811824247753
 31
0.0
  0
LINE
  5
860
330
1E
100
AcDbEntity
  8
0
370
    18
100
AcDbLine
 10
164.5880515955733
 20
102.3613598998251
 30
0.0
 11
163.1230351964177
 21
102.3613598998251
 31
0.0
  0
LINE
  5
861
330
1E
100
AcDbEntity
  8
0
370
    18
100
AcDbLine
 10
164.6156856236686
 20
96.96894303664521
 30
0.0
 11
162.1126315562643
 21
96.96894303664521
 31
0.0
  0
LINE
  5
862
330
1E
100
AcDbEntity
  8
0
370
    18
100
AcDbLine
 10
171.49352156525
 20
100.5806833173351
 30
0.0
 11
170.3271537910805
 21
100.5806833173351
 31
0.0
  0
LINE
  5
863
330
1E
100
AcDbEntity
  8
0
370
    18
100
AcDbLine
 10
170.2359933501138
 20
100.2404679200067
 30
0.0
 11
171.2395216453863
 21
98.65699259823371
 31
0.0
  0
LINE
  5
864
330
1E
100
AcDbEntity
  8
0
370
    18
100
AcDbLine
 10
170.2359933501138
 20
100.2404679200067
 30
0.0
 11
169.8117024164102
 21
98.65699259823371
 31
0.0
  0
LINE
  5
865
330
1E
100
AcDbEntity
  8
0
370
    18
100
AcDbLine
 10
170.3271537910805
 20
100.5806833173351
 30
0.0
 11
170.5694056455595
 21
101.4847795464771
 31
0.0
  0
LINE
  5
866
330
1E
100
AcDbEntity
  8
0
370
    18
100
AcDbLine
 10
167.9735276782098
 20
98.65699259823371
 30
0.0
 11
168.2462699785115
 21
99.67488072033177
 31
0.0
  0
LINE
  5
867
330
1E
100
AcDbEntity
  8
0
370
    18
100
AcDbLine
 10
168.3705816021314
 20
100.1388180156521
 30
0.0
 11
168.5689756570418
 21
100.8792347084971
 31
0.0
  0
LINE
  5
868
330
1E
100
AcDbEntity
  8
0
370
    18
100
AcDbLine
 10
168.693022731791
 20
101.3421846939928
 30
0.0
 11
168.96610990514
 21
102.3613598998251
 31
0.0
  0
LINE
  5
869
330
1E
100
AcDbEntity
  8
0
370
    18
100
AcDbLine
 10
166.2002446317531
 20
101.3421846939928
 30
0.0
 11
166.076197557004
 21
100.8792347084971
 31
0.0
  0
LINE
  5
86A
330
1E
100
AcDbEntity
  8
0
370
    18
100
AcDbLine
 10
165.8778035020934
 20
100.1388180156521
 30
0.0
 11
168.3705816021314
 21
100.1388180156521
 31
0.0
  0
LINE
  5
86B
330
1E
100
AcDbEntity
  8
0
370
    18
100
AcDbLine
 10
168.693022731791
 20
101.3421846939928
 30
0.0
 11
166.189968664387
 21
101.3421846939928
 31
0.0
  0
LINE
  5
86C
330
1E
100
AcDbEntity
  8
0
370
    18
100
AcDbLine
 10
168.5689756570418
 20
100.8792347084971
 30
0.0
 11
166.076197557004
 21
100.8792347084971
 31
0.0
  0
LINE
  5
86D
330
1E
100
AcDbEntity
  8
0
370
    18
100
AcDbLine
 10
168.8514209972229
 20
96.96894303664521
 30
0.0
 11
166.3483669298187
 21
96.96894303664521
 31
0.0
  0
LINE
  5
86E
330
1E
100
AcDbEntity
  8
0
370
    18
100
AcDbLine
 10
169.5017228016272
 20
102.3613598998251
 30
0.0
 11
168.5091405746977
 21
98.65699259823371
 31
0.0
  0
LINE
  5
86F
330
1E
100
AcDbEntity
  8
0
370
    18
100
AcDbLine
 10
168.5091405746977
 20
98.65699259823371
 30
0.0
 11
169.8117024164102
 21
98.65699259823371
 31
0.0
  0
LINE
  5
870
330
1E
100
AcDbEntity
  8
0
370
    18
100
AcDbLine
 10
168.8514209972229
 20
96.96894303664521
 30
0.0
 11
169.1245081705714
 21
97.98811824247753
 31
0.0
  0
ARC
  5
871
330
1E
100
AcDbEntity
  8
0
370
    18
100
AcDbCircle
 10
182.6163903446422
 20
83.52102215767763
 30
0.0
 40
14.46807838019826
100
AcDbArc
 50
83.51735091136804
 51
95.92334440423654
  0
ARC
  5
872
330
1E
100
AcDbEntity
  8
0
370
    18
100
AcDbCircle
 10
182.4518378301967
 20
88.17953753671009
 30
0.0
 40
8.85764661435673
100
AcDbArc
 50
80.0265067162775
 51
93.02614479233048
  0
LINE
  5
873
330
1E
100
AcDbEntity
  8
0
370
    18
100
AcDbLine
 10
182.1651514063433
 20
96.17062846940043
 30
0.0
 11
183.7298735853402
 21
96.17062846940043
 31
0.0
  0
LINE
  5
874
330
1E
100
AcDbEntity
  8
0
370
    18
100
AcDbLine
 10
183.2242862753585
 20
94.28375094088607
 30
0.0
 11
181.3974044780701
 21
94.28375094088607
 31
0.0
  0
ARC
  5
875
330
1E
100
AcDbEntity
  8
0
370
    18
100
AcDbCircle
 10
187.3539420813159
 20
94.416098730577
 30
0.0
 40
6.22149298766157
100
AcDbArc
 50
158.0969939507942
 51
170.4856136403675
  0
ARC
  5
876
330
1E
100
AcDbEntity
  8
0
370
    18
100
AcDbCircle
 10
171.6625840684085
 20
96.76056721289615
 30
0.0
 40
0.5483274067590241
100
AcDbArc
 50
296.5093598874432
 51
350.9662004601515
  0
LINE
  5
877
330
1E
100
AcDbEntity
  8
0
370
    18
100
AcDbLine
 10
173.6774790704897
 20
96.50249350578565
 30
0.0
 11
173.7936277995946
 21
96.93596646404023
 31
0.0
  0
LINE
  5
878
330
1E
100
AcDbEntity
  8
0
370
    18
100
AcDbLine
 10
176.352161145966
 20
97.98811824247753
 30
0.0
 11
175.3595789190359
 21
94.28375094088607
 31
0.0
  0
LINE
  5
879
330
1E
100
AcDbEntity
  8
0
370
    18
100
AcDbLine
 10
175.8902845788688
 20
97.98811824247753
 30
0.0
 11
174.8977023519393
 21
94.28375094088607
 31
0.0
  0
LINE
  5
87A
330
1E
100
AcDbEntity
  8
0
370
    18
100
AcDbLine
 10
174.5480194480793
 20
97.98811824247753
 30
0.0
 11
173.5554372211498
 21
94.28375094088607
 31
0.0
  0
ARC
  5
87B
330
1E
100
AcDbEntity
  8
0
370
    18
100
AcDbCircle
 10
187.9299078790443
 20
94.16435627179168
 30
0.0
 40
8.224997010073714
100
AcDbArc
 50
157.3874044007946
 51
171.0200151799526
  0
LINE
  5
87C
330
1E
100
AcDbEntity
  8
0
370
    18
100
AcDbLine
 10
177.6133469932322
 20
97.98811824247753
 30
0.0
 11
178.322937007981
 21
96.23595901094632
 31
0.0
  0
LINE
  5
87D
330
1E
100
AcDbEntity
  8
0
370
    18
100
AcDbLine
 10
178.322937007981
 20
96.23595901094632
 30
0.0
 11
178.7924266590806
 21
97.98811824247753
 31
0.0
  0
LINE
  5
87E
330
1E
100
AcDbEntity
  8
0
370
    18
100
AcDbLine
 10
179.1152155717092
 20
94.28375094088607
 30
0.0
 11
180.1077977986389
 21
97.98811824247753
 31
0.0
  0
LINE
  5
87F
330
1E
100
AcDbEntity
  8
0
370
    18
100
AcDbLine
 10
177.8411708314034
 20
94.28375094088607
 30
0.0
 11
177.1340355249541
 21
96.04488617672735
 31
0.0
  0
LINE
  5
880
330
1E
100
AcDbEntity
  8
0
370
    18
100
AcDbLine
 10
177.1340355249541
 20
96.04488617672735
 30
0.0
 11
176.6621407607485
 21
94.28375094088607
 31
0.0
  0
LINE
  5
881
330
1E
100
AcDbEntity
  8
0
370
    18
100
AcDbLine
 10
175.3595789190359
 20
94.28375094088607
 30
0.0
 11
176.6621407607485
 21
94.28375094088607
 31
0.0
  0
ARC
  5
882
330
1E
100
AcDbEntity
  8
0
370
    18
100
AcDbCircle
 10
172.8625182641395
 20
96.7208615957103
 30
0.0
 40
0.8437095107820451
100
AcDbArc
 50
270.0
 51
345.0438139040567
  0
ARC
  5
883
330
1E
100
AcDbEntity
  8
0
370
    18
100
AcDbCircle
 10
171.628140441546
 20
96.98558284762714
 30
0.0
 40
0.7682193793950698
100
AcDbArc
 50
270.1852188608381
 51
291.3103783431899
  0
LINE
  5
884
330
1E
100
AcDbEntity
  8
0
370
    18
100
AcDbLine
 10
172.8625182641395
 20
95.87715208492818
 30
0.0
 11
172.0821001128009
 21
95.87715208492818
 31
0.0
  0
LINE
  5
885
330
1E
100
AcDbEntity
  8
0
370
    18
100
AcDbLine
 10
172.0821001128009
 20
95.87715208492818
 30
0.0
 11
173.0856284080735
 21
94.2936767631554
 31
0.0
  0
LINE
  5
886
330
1E
100
AcDbEntity
  8
0
370
    18
100
AcDbLine
 10
173.5554372211498
 20
94.28375094088607
 30
0.0
 11
174.8977023519393
 21
94.28375094088607
 31
0.0
  0
ARC
  5
887
330
1E
100
AcDbEntity
  8
0
370
    18
100
AcDbCircle
 10
181.5971213757526
 20
95.38646327200387
 30
0.0
 40
0.3835043230827479
100
AcDbArc
 50
171.2985646492627
 51
270.0
  0
LINE
  5
888
330
1E
100
AcDbEntity
  8
0
370
    18
100
AcDbLine
 10
181.5971213757526
 20
95.00295894892122
 30
0.0
 11
181.6388115975884
 21
95.00295894892122
 31
0.0
  0
ARC
  5
889
330
1E
100
AcDbEntity
  8
0
370
    18
100
AcDbCircle
 10
181.6388115975884
 20
95.46316413662068
 30
0.0
 40
0.4602051876992975
100
AcDbArc
 50
270.0
 51
334.2263645027493
  0
ARC
  5
88A
330
1E
100
AcDbEntity
  8
0
370
    18
100
AcDbCircle
 10
180.7719063110132
 20
95.88175051008248
 30
0.0
 40
1.422878199650913
100
AcDbArc
 50
334.2263645027386
 51
11.71383119333146
  0
ARC
  5
88B
330
1E
100
AcDbEntity
  8
0
370
    18
100
AcDbCircle
 10
182.3989922724969
 20
95.43426391013429
 30
0.0
 40
1.150512969248243
100
AcDbArc
 50
270.0
 51
270.0
  0
ARC
  5
88C
330
1E
100
AcDbEntity
  8
0
370
    18
100
AcDbCircle
 10
180.7527344591251
 20
95.29853890655477
 30
0.0
 40
0.9587608077068694
100
AcDbArc
 50
171.0200151799526
 51
262.0635437036931
  0
LINE
  5
88D
330
1E
100
AcDbEntity
  8
0
370
    18
100
AcDbLine
 10
177.8411708314034
 20
94.28375094088607
 30
0.0
 11
179.1152155717092
 21
94.28375094088607
 31
0.0
  0
ARC
  5
88E
330
1E
100
AcDbEntity
  8
0
370
    18
100
AcDbCircle
 10
181.6033429625008
 20
101.4000248055707
 30
0.0
 40
7.119253077153191
100
AcDbArc
 50
262.0635437036931
 51
268.3423749580197
  0
LINE
  5
88F
330
1E
100
AcDbEntity
  8
0
370
    18
100
AcDbLine
 10
177.6133469932322
 20
97.98811824247753
 30
0.0
 11
176.352161145966
 21
97.98811824247753
 31
0.0
  0
LINE
  5
890
330
1E
100
AcDbEntity
  8
0
370
    18
100
AcDbLine
 10
171.9449978370191
 20
100.2404679200067
 30
0.0
 11
172.9485261322919
 21
98.65699259823371
 31
0.0
  0
ARC
  5
891
330
1E
100
AcDbEntity
  8
0
370
    18
100
AcDbCircle
 10
172.841564717463
 20
101.5176503890429
 30
0.0
 40
0.8437095107820451
100
AcDbArc
 50
344.9999529879292
 51
90.0
  0
LINE
  5
892
330
1E
100
AcDbEntity
  8
0
370
    18
100
AcDbLine
 10
173.540376794708
 20
100.8658093408641
 30
0.0
 11
173.6565255238127
 21
101.2992822991185
 31
0.0
  0
ARC
  5
893
330
1E
100
AcDbEntity
  8
0
370
    18
100
AcDbCircle
 10
172.7254159883578
 20
101.0841774307887
 30
0.0
 40
0.8437095107820451
100
AcDbArc
 50
270.0
 51
345.0438139040567
  0
ARC
  5
894
330
1E
100
AcDbEntity
  8
0
370
    18
100
AcDbCircle
 10
171.5254817926269
 20
101.1238830479744
 30
0.0
 40
0.5483274067590241
100
AcDbArc
 50
296.5093598874432
 51
350.9662004601515
  0
ARC
  5
895
330
1E
100
AcDbEntity
  8
0
370
    18
100
AcDbCircle
 10
171.6854654083972
 20
101.0984473795297
 30
0.0
 40
0.386334411403646
100
AcDbArc
 50
350.9662004601515
 51
90.1953042656462
  0
LINE
  5
896
330
1E
100
AcDbEntity
  8
0
370
    18
100
AcDbLine
 10
172.7254159883578
 20
100.2404679200067
 30
0.0
 11
171.9449978370191
 21
100.2404679200067
 31
0.0
  0
ARC
  5
897
330
1E
100
AcDbEntity
  8
0
370
    18
100
AcDbCircle
 10
172.9786669932447
 20
97.15433455396465
 30
0.0
 40
0.8437095107820451
100
AcDbArc
 50
344.9999529879292
 51
90.0
  0
ARC
  5
898
330
1E
100
AcDbEntity
  8
0
370
    18
100
AcDbCircle
 10
171.8225676841791
 20
96.7351315444514
 30
0.0
 40
0.386334411403646
100
AcDbArc
 50
350.9662004601515
 51
90.1953042656462
  0
LINE
  5
899
330
1E
100
AcDbEntity
  8
0
370
    18
100
AcDbLine
 10
175.8902845788688
 20
97.98811824247753
 30
0.0
 11
174.5480194480793
 21
97.98811824247753
 31
0.0
  0
ARC
  5
89A
330
1E
100
AcDbEntity
  8
0
370
    18
100
AcDbCircle
 10
182.0085231412143
 20
96.5652691446661
 30
0.0
 40
0.4602051876992975
100
AcDbArc
 50
93.02614479233048
 51
158.0969939507942
  0
LINE
  5
89B
330
1E
100
AcDbEntity
  8
0
370
    18
100
AcDbLine
 10
180.1077977986389
 20
97.98811824247753
 30
0.0
 11
178.7924266590806
 21
97.98811824247753
 31
0.0
  0
ARC
  5
89C
330
1E
100
AcDbEntity
  8
0
370
    18
100
AcDbCircle
 10
181.2222584012388
 20
96.95821149915832
 30
0.0
 40
0.9587608077068694
100
AcDbArc
 50
95.92334440423654
 51
157.3874044008002
  0
LINE
  5
89D
330
1E
100
AcDbEntity
  8
0
370
    18
100
AcDbLine
 10
183.2242862753585
 20
94.28375094088607
 30
0.0
 11
183.7298735853402
 21
96.17062846940043
 31
0.0
  0
LINE
  5
89E
330
1E
100
AcDbEntity
  8
0
370
    18
100
AcDbLine
 10
183.9859163052762
 20
96.90332723942072
 30
0.0
 11
184.24987002754
 21
97.89659296864443
 31
0.0
  0
LINE
  5
8A2
330
1E
100
AcDbEntity
  8
0
  6
STRICHPUNKT
 62
     7
 48
8.0
370
    18
100
AcDbLine
 10
108.0044084631013
 20
159.4661223907936
 30
0.0
 11
128.0043784630788
 21
159.4661223907936
 31
0.0
  0
LINE
  5
8A9
330
1E
100
AcDbEntity
  8
0
  6
STRICHPUNKT
 62
     7
 48
8.0
370
    18
100
AcDbLine
 10
118.00439346309
 20
169.4661223907936
 30
0.0
 11
118.00439346309
 21
149.4661523907935
 31
0.0
  0
LINE
  5
8C0
330
1E
100
AcDbEntity
  8
Rüttler
100
AcDbLine
 10
134.0044544630937
 20
294.4659001407947
 30
0.0
 11
192.0043324630937
 21
294.4659191407946
 31
0.0
  0
LINE
  5
8C1
330
1E
100
AcDbEntity
  8
0
  6
STRICHPUNKT
 62
     7
 48
10.0
370
    18
100
AcDbLine
 10
27.72710046309254
 20
349.4659001407947
 30
0.0
 11
298.2816029642479
 21
349.4659001407947
 31
0.0
  0
LINE
  5
8C2
330
1E
100
AcDbEntity
  8
Rüttler
100
AcDbLine
 10
134.0044544630937
 20
392.4659301407946
 30
0.0
 11
192.0043324630937
 21
392.4659301407946
 31
0.0
  0
LINE
  5
8C3
330
1E
100
AcDbEntity
  8
0
 62
     7
370
    18
100
AcDbLine
 10
134.0044544630937
 20
322.1942091407946
 30
0.0
 11
192.0043324630937
 21
322.1942091407946
 31
0.0
  0
LINE
  5
8C4
330
1E
100
AcDbEntity
  8
Rüttler
100
AcDbLine
 10
241.5042344630937
 20
269.4660711407947
 30
0.0
 11
84.50455246309375
 21
269.4662041407947
 31
0.0
  0
LINE
  5
8C5
330
1E
100
AcDbEntity
  8
Rüttler
100
AcDbLine
 10
38.00445446309254
 20
391.6692691407947
 30
0.0
 11
38.00445446309254
 21
313.4659911407946
 31
0.0
  0
LINE
  5
8C6
330
1E
100
AcDbEntity
  8
Rüttler
100
AcDbLine
 10
113.0043934630937
 20
397.4659301407946
 30
0.0
 11
113.0043934630937
 21
294.4659001407947
 31
0.0
  0
LINE
  5
8C7
330
1E
100
AcDbEntity
  8
Rüttler
100
AcDbLine
 10
132.0043324630937
 20
394.4659001407947
 30
0.0
 11
132.0043324630937
 21
296.4660221407947
 31
0.0
  0
LINE
  5
8C8
330
1E
100
AcDbEntity
  8
Rüttler
100
AcDbLine
 10
104.0044544630937
 20
397.4659301407946
 30
0.0
 11
104.0044544630937
 21
301.4660221407947
 31
0.0
  0
ARC
  5
8C9
330
1E
100
AcDbEntity
  8
Rüttler
100
AcDbCircle
 10
43.00445446309254
 20
307.2639041407946
 30
0.0
 40
5.028863999999999
100
AcDbArc
 50
173.8583409999999
 51
267.6385890000001
  0
LINE
  5
8CA
330
1E
100
AcDbEntity
  8
Rüttler
100
AcDbLine
 10
38.00445446309254
 20
313.4659911407946
 30
0.0
 11
38.00445446309254
 21
308.4659911407947
 31
0.0
  0
LINE
  5
8CB
330
1E
100
AcDbEntity
  8
Rüttler
100
AcDbLine
 10
38.00445446309254
 20
308.4659911407947
 30
0.0
 11
38.00445446309254
 21
306.7258811407946
 31
0.0
  0
LINE
  5
8CC
330
1E
100
AcDbEntity
  8
Rüttler
100
AcDbLine
 10
44.50439346309254
 20
302.1982911407947
 30
0.0
 11
104.0044544630937
 21
301.4660221407947
 31
0.0
  0
LINE
  5
8CD
330
1E
100
AcDbEntity
  8
Rüttler
100
AcDbLine
 10
86.52925022021232
 20
294.4659001407947
 30
0.0
 11
134.0044544630937
 21
294.4659001407947
 31
0.0
  0
LINE
  5
8CE
330
1E
100
AcDbEntity
  8
Rüttler
100
AcDbLine
 10
84.50455246309375
 20
275.3667781407946
 30
0.0
 11
84.50455246309375
 21
292.4660821407946
 31
0.0
  0
LINE
  5
8CF
330
1E
100
AcDbEntity
  8
Rüttler
100
AcDbLine
 10
84.50455246309375
 20
275.3667781407946
 30
0.0
 11
84.50455246309375
 21
269.4663571407946
 31
0.0
  0
LINE
  5
8D0
330
1E
100
AcDbEntity
  8
Rüttler
100
AcDbLine
 10
84.50455246309375
 20
269.4662041407947
 30
0.0
 11
84.50455246309375
 21
275.3667781407946
 31
0.0
  0
LINE
  5
8D1
330
1E
100
AcDbEntity
  8
Rüttler
100
AcDbLine
 10
84.50455246309375
 20
269.4662041407947
 30
0.0
 11
84.50455246309375
 21
269.4663571407946
 31
0.0
  0
ARC
  5
8D2
330
1E
100
AcDbEntity
  8
1
100
AcDbCircle
 10
91.00457646309374
 20
297.5654181407946
 30
0.0
 40
1.000061
100
AcDbArc
 50
90.0
 51
180.0
  0
ARC
  5
8D3
330
1E
100
AcDbEntity
  8
Rüttler
100
AcDbCircle
 10
86.50467446309374
 20
292.4660821407946
 30
0.0
 40
1.999968999999999
100
AcDbArc
 50
89.29592778702431
 51
180.0
  0
LINE
  5
8D4
330
1E
100
AcDbEntity
  8
1
100
AcDbLine
 10
90.00451546309372
 20
297.5654181407946
 30
0.0
 11
90.00451546309372
 21
294.4660271407947
 31
0.0
  0
ARC
  5
8D5
330
1E
100
AcDbEntity
  8
1
100
AcDbCircle
 10
95.50439346309373
 20
299.5653871407947
 30
0.0
 40
0.9999079999999999
100
AcDbArc
 50
270.0
 51
323.1370949999999
  0
LINE
  5
8D6
330
1E
100
AcDbEntity
  8
1
100
AcDbLine
 10
95.57440846309375
 20
294.4659701407946
 30
0.0
 11
96.30456446309375
 21
297.6813841407947
 31
0.0
  0
LINE
  5
8D7
330
1E
100
AcDbEntity
  8
1
100
AcDbLine
 10
95.50439346309373
 20
298.5654791407947
 30
0.0
 11
91.00457646309374
 21
298.5654791407947
 31
0.0
  0
LINE
  5
8D8
330
1E
100
AcDbEntity
  8
1
100
AcDbLine
 10
99.50433246309373
 20
297.6813841407947
 30
0.0
 11
96.30456446309375
 21
297.6813841407947
 31
0.0
  0
LINE
  5
8D9
330
1E
100
AcDbEntity
  8
1
100
AcDbLine
 10
99.50433246309373
 20
298.9654121407947
 30
0.0
 11
96.30456446309375
 21
298.9654121407947
 31
0.0
  0
LINE
  5
8DA
330
1E
100
AcDbEntity
  8
1
100
AcDbLine
 10
96.30456446309375
 20
298.9654121407947
 30
0.0
 11
96.30456446309375
 21
297.6813841407947
 31
0.0
  0
LINE
  5
8DB
330
1E
100
AcDbEntity
  8
1
100
AcDbLine
 10
99.50433246309373
 20
294.4659301407946
 30
0.0
 11
99.50433246309373
 21
298.9654121407947
 31
0.0
  0
LINE
  5
8DC
330
1E
100
AcDbEntity
  8
Rüttler
100
AcDbLine
 10
42.79846046309254
 20
302.2686341407947
 30
0.0
 11
44.50439346309254
 21
302.1982911407947
 31
0.0
  0
LINE
  5
8DD
330
1E
100
AcDbEntity
  8
0
  6
STRICHPUNKT
 62
     7
 48
20.0
370
    18
100
AcDbLine
 10
105.5040884630937
 20
291.1115451407947
 30
0.0
 11
105.5040884630937
 21
272.5324571407946
 31
0.0
  0
LINE
  5
8DE
330
1E
100
AcDbEntity
  8
Rüttler
100
AcDbLine
 10
104.0044544630937
 20
301.4660221407947
 30
0.0
 11
113.0043934630937
 21
301.4660221407947
 31
0.0
  0
LINE
  5
8DF
330
1E
100
AcDbEntity
  8
1
100
AcDbLine
 10
105.0045154630937
 20
297.9655031407947
 30
0.0
 11
113.0043934630937
 21
297.9655031407947
 31
0.0
  0
LINE
  5
8E0
330
1E
100
AcDbEntity
  8
1
  6
Continuous
100
AcDbLine
 10
102.5045154630937
 20
298.9654121407947
 30
0.0
 11
105.0045154630937
 21
298.9654121407947
 31
0.0
  0
LINE
  5
8E1
330
1E
100
AcDbEntity
  8
1
100
AcDbLine
 10
105.0045154630937
 20
297.6813841407947
 30
0.0
 11
102.5045154630937
 21
297.6813841407947
 31
0.0
  0
LINE
  5
8E2
330
1E
100
AcDbEntity
  8
1
100
AcDbLine
 10
102.5045154630937
 20
298.9654121407947
 30
0.0
 11
102.5045154630937
 21
294.4659001407947
 31
0.0
  0
LINE
  5
8E3
330
1E
100
AcDbEntity
  8
1
100
AcDbLine
 10
105.0045154630937
 20
294.4659001407947
 30
0.0
 11
105.0045154630937
 21
298.9654121407947
 31
0.0
  0
ARC
  5
8E4
330
1E
100
AcDbEntity
  8
Rüttler
100
AcDbCircle
 10
134.0044544630937
 20
296.4660221407947
 30
0.0
 40
2.000122
100
AcDbArc
 50
180.0
 51
270.0
  0
ARC
  5
8E5
330
1E
100
AcDbEntity
  8
Rüttler
100
AcDbCircle
 10
43.00445446309254
 20
391.6692691407947
 30
0.0
 40
5.000124999999999
100
AcDbArc
 50
92.36112299999982
 51
180.0
  0
LINE
  5
8E6
330
1E
100
AcDbEntity
  8
Rüttler
100
AcDbLine
 10
104.0044544630937
 20
397.4659301407946
 30
0.0
 11
42.79846046309254
 21
396.6651491407947
 31
0.0
  0
LINE
  5
8E7
330
1E
100
AcDbEntity
  8
Rüttler
100
AcDbLine
 10
113.0043934630937
 20
397.4659301407946
 30
0.0
 11
130.0045154630937
 21
397.4659301407946
 31
0.0
  0
LINE
  5
8E8
330
1E
100
AcDbEntity
  8
Rüttler
100
AcDbLine
 10
113.0043934630937
 20
397.4659301407946
 30
0.0
 11
104.0044544630937
 21
397.4659301407946
 31
0.0
  0
ARC
  5
8E9
330
1E
100
AcDbEntity
  8
Rüttler
100
AcDbCircle
 10
130.0045154630937
 20
395.4659611407946
 30
0.0
 40
1.999816999999999
100
AcDbArc
 50
0.0
 51
90.0
  0
LINE
  5
8EA
330
1E
100
AcDbEntity
  8
Rüttler
100
AcDbLine
 10
132.0043324630937
 20
395.4659611407946
 30
0.0
 11
132.0043324630937
 21
394.4659001407947
 31
0.0
  0
ARC
  5
8EB
330
1E
100
AcDbEntity
  8
Rüttler
100
AcDbCircle
 10
134.0044544630937
 20
394.4659001407947
 30
0.0
 40
2.000122
100
AcDbArc
 50
180.0
 51
270.0
  0
LINE
  5
8EC
330
1E
100
AcDbEntity
  8
Rüttler
100
AcDbLine
 10
288.0042489642478
 20
381.2356141407947
 30
0.0
 11
288.0042489642478
 21
307.2640571407946
 31
0.0
  0
LINE
  5
8ED
330
1E
100
AcDbEntity
  8
Rüttler
100
AcDbLine
 10
213.0046984630937
 20
397.4659301407946
 30
0.0
 11
213.0046984630937
 21
322.4659301407946
 31
0.0
  0
LINE
  5
8EE
330
1E
100
AcDbEntity
  8
Rüttler
100
AcDbLine
 10
194.0044544630937
 20
394.4659001407947
 30
0.0
 11
194.0044544630937
 21
296.4660411407947
 31
0.0
  0
LINE
  5
8EF
330
1E
100
AcDbEntity
  8
Rüttler
100
AcDbLine
 10
222.0043324630937
 20
397.4659301407946
 30
0.0
 11
222.0043324630937
 21
301.4660221407947
 31
0.0
  0
LINE
  5
8F0
330
1E
100
AcDbEntity
  8
0
  6
STRICHPUNKT
 62
     7
 48
10.0
370
    18
100
AcDbLine
 10
163.0043934630937
 20
405.4659611407946
 30
0.0
 11
163.0043934630937
 21
265.1351060115602
 31
0.0
  0
LINE
  5
8F1
330
1E
100
AcDbEntity
  8
Rüttler
100
AcDbLine
 10
283.2099369642479
 20
302.2687871407947
 30
0.0
 11
222.0043324630937
 21
301.4660221407947
 31
0.0
  0
ARC
  5
8F2
330
1E
100
AcDbEntity
  8
Rüttler
100
AcDbCircle
 10
239.5041124630937
 20
292.4659491407947
 30
0.0
 40
2.000122
100
AcDbArc
 50
0.0
 51
90.0
  0
LINE
  5
8F3
330
1E
100
AcDbEntity
  8
Rüttler
100
AcDbLine
 10
192.0043324630937
 20
294.4659191407946
 30
0.0
 11
239.5041124630937
 21
294.4659191407946
 31
0.0
  0
ARC
  5
8F4
330
1E
100
AcDbEntity
  8
Rüttler
100
AcDbCircle
 10
192.0043324630937
 20
296.4660411407947
 30
0.0
 40
2.000122
100
AcDbArc
 50
270.0
 51
0.0
  0
LINE
  5
8F5
330
1E
100
AcDbEntity
  8
Rüttler
100
AcDbLine
 10
213.0046984630937
 20
322.4659301407946
 30
0.0
 11
213.0046984630937
 21
294.4659191407946
 31
0.0
  0
LINE
  5
8F6
330
1E
100
AcDbEntity
  8
Rüttler
100
AcDbLine
 10
222.0043324630937
 20
301.4660221407947
 30
0.0
 11
213.0046984630937
 21
301.4660221407947
 31
0.0
  0
LINE
  5
8F7
330
1E
100
AcDbEntity
  8
0
  6
STRICHPUNKT
 62
     7
 48
20.0
370
    18
100
AcDbLine
 10
220.5046984630937
 20
291.1115451407947
 30
0.0
 11
220.5046984630937
 21
272.5324571407946
 31
0.0
  0
ARC
  5
8F8
330
1E
100
AcDbEntity
  8
Rüttler
100
AcDbCircle
 10
283.0042489642479
 20
307.2640571407946
 30
0.0
 40
4.999502999999999
100
AcDbArc
 50
272.357916
 51
0.0
  0
LINE
  5
8F9
330
1E
100
AcDbEntity
  8
Rüttler
100
AcDbLine
 10
241.5042344630937
 20
292.4659491407947
 30
0.0
 11
241.5042344630937
 21
269.4660711407947
 31
0.0
  0
LINE
  5
8FA
330
1E
100
AcDbEntity
  8
Rüttler
100
AcDbLine
 10
222.0043324630937
 20
397.4659301407946
 30
0.0
 11
283.2099369642479
 21
396.6653021407947
 31
0.0
  0
ARC
  5
8FB
330
1E
100
AcDbEntity
  8
Rüttler
100
AcDbCircle
 10
196.0045764630937
 20
395.4659611407946
 30
0.0
 40
1.999968999999999
100
AcDbArc
 50
90.0
 51
180.0
  0
LINE
  5
8FC
330
1E
100
AcDbEntity
  8
Rüttler
100
AcDbLine
 10
194.0044544630937
 20
395.4659611407946
 30
0.0
 11
194.0044544630937
 21
394.4659001407947
 31
0.0
  0
ARC
  5
8FD
330
1E
100
AcDbEntity
  8
Rüttler
100
AcDbCircle
 10
192.0043324630937
 20
394.4659001407947
 30
0.0
 40
1.999968999999999
100
AcDbArc
 50
270.0
 51
0.0
  0
LINE
  5
8FE
330
1E
100
AcDbEntity
  8
Rüttler
100
AcDbLine
 10
213.0046984630937
 20
397.4659301407946
 30
0.0
 11
222.0043324630937
 21
397.4659301407946
 31
0.0
  0
LINE
  5
8FF
330
1E
100
AcDbEntity
  8
Rüttler
100
AcDbLine
 10
213.0046984630937
 20
397.4659301407946
 30
0.0
 11
196.0045764630937
 21
397.4659301407946
 31
0.0
  0
LINE
  5
900
330
1E
100
AcDbEntity
  8
Rüttler
100
AcDbLine
 10
288.0042489642478
 20
389.4855841407947
 30
0.0
 11
288.0042489642478
 21
382.9856451407946
 31
0.0
  0
LINE
  5
901
330
1E
100
AcDbEntity
  8
Rüttler
100
AcDbLine
 10
288.0042489642478
 20
381.2356141407947
 30
0.0
 11
288.0042489642478
 21
382.9856451407946
 31
0.0
  0
ARC
  5
902
330
1E
100
AcDbEntity
  8
Rüttler
100
AcDbCircle
 10
283.0042489642479
 20
391.6692691407947
 30
0.0
 40
5.0
100
AcDbArc
 50
0.0
 51
26.58069099999992
  0
LINE
  5
903
330
1E
100
AcDbEntity
  8
Rüttler
100
AcDbLine
 10
288.0042489642478
 20
391.6692691407947
 30
0.0
 11
288.0042489642478
 21
389.4855841407947
 31
0.0
  0
ARC
  5
904
330
1E
100
AcDbEntity
  8
Rüttler
100
AcDbCircle
 10
283.0042489642479
 20
391.6692691407947
 30
0.0
 40
4.999899
100
AcDbArc
 50
26.58069099999992
 51
87.64244300000013
  0
TEXT
  5
905
330
1E
100
AcDbEntity
  8
Text
  6
Continuous
 62
    10
370
    50
100
AcDbText
 10
381.7698890879489
 20
128.003528876216
 30
0.0
 40
10.0
  1
%%uRZ 30
  7
Stil1
100
AcDbText
  0
LINE
  5
906
330
1E
100
AcDbEntity
  8
Rüttler
100
AcDbLine
 10
493.5051914630937
 20
294.4659381407947
 30
0.0
 11
525.5050084630936
 21
294.4659381407947
 31
0.0
  0
LINE
  5
907
330
1E
100
AcDbEntity
  8
Rüttler
100
AcDbLine
 10
527.5051304630937
 20
269.4660911407947
 30
0.0
 11
491.5050694630937
 21
269.4660911407947
 31
0.0
  0
ARC
  5
908
330
1E
100
AcDbEntity
  8
Rüttler
100
AcDbCircle
 10
446.5050594630937
 20
349.4659381407947
 30
0.0
 40
48.00000999999999
100
AcDbArc
 50
172.9581199999999
 51
214.6220309999999
  0
ARC
  5
909
330
1E
100
AcDbEntity
  8
Rüttler
100
AcDbCircle
 10
446.5050594630937
 20
349.4659381407947
 30
0.0
 40
48.000079
100
AcDbArc
 50
325.3779779999999
 51
7.041878000000009
  0
LINE
  5
90A
330
1E
100
AcDbEntity
  8
0
  6
STRICHPUNKT
 62
     7
 48
10.0
370
    15
100
AcDbLine
 10
446.5050694630937
 20
263.9660601407947
 30
0.0
 11
446.5050594630937
 21
406.9659381407947
 31
0.0
  0
LINE
  5
90B
330
1E
100
AcDbEntity
  8
1
  6
STRICHPUNKT
 62
     7
 48
10.0
100
AcDbLine
 10
466.5050694630937
 20
286.9659381407947
 30
0.0
 11
426.5050694630937
 21
286.9659381407947
 31
0.0
  0
LINE
  5
90C
330
1E
100
AcDbEntity
  8
Rüttler
100
AcDbLine
 10
419.0050644630937
 20
301.4659071407947
 30
0.0
 11
446.5050594630937
 21
301.4659071407947
 31
0.0
  0
LINE
  5
90D
330
1E
100
AcDbEntity
  8
Rüttler
100
AcDbLine
 10
401.5050644630937
 20
270.9660291407947
 30
0.0
 11
491.5050694630937
 21
270.9660291407947
 31
0.0
  0
LINE
  5
90E
330
1E
100
AcDbEntity
  8
0
  6
STRICHPUNKT
 62
     7
 48
10.0
370
    18
100
AcDbLine
 10
384.0050654630937
 20
264.4660911407947
 30
0.0
 11
384.0050644630937
 21
299.4659381407947
 31
0.0
  0
LINE
  5
90F
330
1E
100
AcDbEntity
  8
Rüttler
100
AcDbLine
 10
401.5050644630937
 20
269.4660911407947
 30
0.0
 11
365.5050034630937
 21
269.4660911407947
 31
0.0
  0
LINE
  5
910
330
1E
100
AcDbEntity
  8
Rüttler
100
AcDbLine
 10
367.5051254630937
 20
294.4659381407947
 30
0.0
 11
399.5049424630936
 21
294.4659381407947
 31
0.0
  0
LINE
  5
911
330
1E
100
AcDbEntity
  8
Rüttler
100
AcDbLine
 10
365.5050034630937
 20
269.4660911407947
 30
0.0
 11
365.5050034630937
 21
292.4659681407947
 31
0.0
  0
ARC
  5
912
330
1E
100
AcDbEntity
  8
Rüttler
100
AcDbCircle
 10
367.5051254630937
 20
292.4659681407947
 30
0.0
 40
1.999968999999999
100
AcDbArc
 50
90.0
 51
180.0
  0
ARC
  5
913
330
1E
100
AcDbEntity
  8
Rüttler
100
AcDbCircle
 10
414.0050644630937
 20
308.4660291407947
 30
0.0
 40
7.000122
100
AcDbArc
 50
180.0
 51
270.0
  0
LINE
  5
914
330
1E
100
AcDbEntity
  8
Rüttler
100
AcDbLine
 10
407.0049424630936
 20
308.4660291407947
 30
0.0
 11
407.0049424630936
 21
297.9659991407947
 31
0.0
  0
ARC
  5
915
330
1E
100
AcDbEntity
  8
Rüttler
100
AcDbCircle
 10
402.0049424630936
 20
299.4659381407947
 30
0.0
 40
5.0
100
AcDbArc
 50
270.0
 51
0.0
  0
LINE
  5
916
330
1E
100
AcDbEntity
  8
Rüttler
100
AcDbLine
 10
401.5050644630937
 20
269.4660911407947
 30
0.0
 11
401.5050644630937
 21
292.4659681407947
 31
0.0
  0
ARC
  5
917
330
1E
100
AcDbEntity
  8
Rüttler
100
AcDbCircle
 10
399.5049424630936
 20
292.4659681407947
 30
0.0
 40
2.000122
100
AcDbArc
 50
0.0
 51
90.0
  0
LINE
  5
918
330
1E
100
AcDbEntity
  8
Rüttler
100
AcDbLine
 10
399.5049424630936
 20
294.4659381407947
 30
0.0
 11
402.0049424630936
 21
294.4659381407947
 31
0.0
  0
LINE
  5
919
330
1E
100
AcDbEntity
  8
Rüttler
100
AcDbLine
 10
414.0050644630937
 20
301.4659071407947
 30
0.0
 11
419.0050644630937
 21
301.4659071407947
 31
0.0
  0
LINE
  5
91A
330
1E
100
AcDbEntity
  8
Rüttler
100
AcDbLine
 10
407.0049424630936
 20
313.4660291407947
 30
0.0
 11
407.0049424630936
 21
322.1942091407946
 31
0.0
  0
LINE
  5
91B
330
1E
100
AcDbEntity
  8
Rüttler
100
AcDbLine
 10
407.0049424630936
 20
308.4660291407947
 30
0.0
 11
407.0049424630936
 21
313.4660291407947
 31
0.0
  0
LINE
  5
91C
330
1E
100
AcDbEntity
  8
0
  6
STRICHPUNKT
 62
     7
 48
10.0
370
    18
100
AcDbLine
 10
509.0050694630938
 20
299.4659381407947
 30
0.0
 11
509.0050694630938
 21
264.4660911407947
 31
0.0
  0
LINE
  5
91D
330
1E
100
AcDbEntity
  8
Rüttler
100
AcDbLine
 10
474.0050694630937
 20
301.4659071407947
 30
0.0
 11
446.5050594630937
 21
301.4659071407947
 31
0.0
  0
LINE
  5
91E
330
1E
100
AcDbEntity
  8
1
100
AcDbLine
 10
452.1230504630937
 20
274.9661211407947
 30
0.0
 11
446.5050694630937
 21
274.9661211407947
 31
0.0
  0
LINE
  5
91F
330
1E
100
AcDbEntity
  8
1
100
AcDbLine
 10
452.1230404630937
 20
298.9660601407947
 30
0.0
 11
446.5050594630937
 21
298.9660601407947
 31
0.0
  0
CIRCLE
  5
920
330
1E
100
AcDbEntity
  8
1
100
AcDbCircle
 10
446.5050694630937
 20
286.9659381407947
 30
0.0
 40
8.0
  0
CIRCLE
  5
921
330
1E
100
AcDbEntity
  8
1
100
AcDbCircle
 10
446.5050694630937
 20
286.9659381407947
 30
0.0
 40
11.599998
  0
LINE
  5
922
330
1E
100
AcDbEntity
  8
1
100
AcDbLine
 10
438.9217564630937
 20
276.1007651407946
 30
0.0
 11
433.3037754630937
 21
285.8312941407946
 31
0.0
  0
LINE
  5
923
330
1E
100
AcDbEntity
  8
1
100
AcDbLine
 10
440.8870884630937
 20
274.9661211407947
 30
0.0
 11
446.5050694630937
 21
274.9661211407947
 31
0.0
  0
ARC
  5
924
330
1E
100
AcDbEntity
  8
1
100
AcDbCircle
 10
446.5050694630937
 20
286.9659381407947
 30
0.0
 40
13.249854
100
AcDbArc
 50
235.0870089999999
 51
244.9123119999998
  0
LINE
  5
925
330
1E
100
AcDbEntity
  8
1
100
AcDbLine
 10
438.9217464630937
 20
297.8314161407947
 30
0.0
 11
433.3037754630937
 21
288.1007341407947
 31
0.0
  0
ARC
  5
926
330
1E
100
AcDbEntity
  8
1
100
AcDbCircle
 10
446.5050694630937
 20
286.9659381407947
 30
0.0
 40
13.249978
100
AcDbArc
 50
175.0868759999999
 51
180.0
  0
ARC
  5
927
330
1E
100
AcDbEntity
  8
1
100
AcDbCircle
 10
446.5050694630937
 20
286.9659381407947
 30
0.0
 40
13.25012199999999
100
AcDbArc
 50
180.0
 51
184.9124659999999
  0
LINE
  5
928
330
1E
100
AcDbEntity
  8
1
100
AcDbLine
 10
440.8870784630937
 20
298.9660601407947
 30
0.0
 11
446.5050594630937
 21
298.9660601407947
 31
0.0
  0
ARC
  5
929
330
1E
100
AcDbEntity
  8
1
100
AcDbCircle
 10
446.5050694630937
 20
286.9659381407947
 30
0.0
 40
13.250085
100
AcDbArc
 50
115.0871659999999
 51
124.9122700000001
  0
LINE
  5
92A
330
1E
100
AcDbEntity
  8
1
100
AcDbLine
 10
454.0883824630937
 20
276.1007651407946
 30
0.0
 11
459.7063634630937
 21
285.8312941407946
 31
0.0
  0
ARC
  5
92B
330
1E
100
AcDbEntity
  8
1
100
AcDbCircle
 10
446.5050694630937
 20
286.9659381407947
 30
0.0
 40
13.249804
100
AcDbArc
 50
295.0876880000001
 51
304.912991
  0
LINE
  5
92C
330
1E
100
AcDbEntity
  8
1
100
AcDbLine
 10
454.0883724630937
 20
297.8314161407947
 30
0.0
 11
459.7063634630937
 21
288.1007341407947
 31
0.0
  0
ARC
  5
92D
330
1E
100
AcDbEntity
  8
1
100
AcDbCircle
 10
446.5050694630937
 20
286.9659381407947
 30
0.0
 40
13.249965
100
AcDbArc
 50
355.087534
 51
0.0
  0
ARC
  5
92E
330
1E
100
AcDbEntity
  8
1
100
AcDbCircle
 10
446.5050694630937
 20
286.9659381407947
 30
0.0
 40
13.25012199999999
100
AcDbArc
 50
0.0
 51
4.913123000000007
  0
ARC
  5
92F
330
1E
100
AcDbEntity
  8
1
100
AcDbCircle
 10
446.5050694630937
 20
286.9659381407947
 30
0.0
 40
13.25009899999999
100
AcDbArc
 50
55.08779799999989
 51
64.91290800000009
  0
ARC
  5
930
330
1E
100
AcDbEntity
  8
Rüttler
100
AcDbCircle
 10
479.0050694630937
 20
308.4660291407947
 30
0.0
 40
7.000122
100
AcDbArc
 50
270.0
 51
0.0
  0
LINE
  5
931
330
1E
100
AcDbEntity
  8
Rüttler
100
AcDbLine
 10
486.0051914630937
 20
308.4660291407947
 30
0.0
 11
486.0051914630937
 21
299.4659381407947
 31
0.0
  0
LINE
  5
932
330
1E
100
AcDbEntity
  8
Rüttler
100
AcDbLine
 10
491.5050694630937
 20
269.4660911407947
 30
0.0
 11
491.5050694630937
 21
292.4659681407947
 31
0.0
  0
LINE
  5
933
330
1E
100
AcDbEntity
  8
Rüttler
100
AcDbLine
 10
479.0050694630937
 20
301.4659071407947
 30
0.0
 11
474.0050694630937
 21
301.4659071407947
 31
0.0
  0
ARC
  5
934
330
1E
100
AcDbEntity
  8
Rüttler
100
AcDbCircle
 10
491.0051914630937
 20
299.4659381407947
 30
0.0
 40
5.0
100
AcDbArc
 50
180.0
 51
270.0
  0
ARC
  5
935
330
1E
100
AcDbEntity
  8
Rüttler
100
AcDbCircle
 10
493.5051914630937
 20
292.4659681407947
 30
0.0
 40
1.999968999999999
100
AcDbArc
 50
90.0
 51
180.0
  0
LINE
  5
936
330
1E
100
AcDbEntity
  8
Rüttler
100
AcDbLine
 10
493.5051914630937
 20
294.4659381407947
 30
0.0
 11
491.0051914630937
 21
294.4659381407947
 31
0.0
  0
LINE
  5
937
330
1E
100
AcDbEntity
  8
Rüttler
100
AcDbLine
 10
486.0051914630937
 20
313.4660291407947
 30
0.0
 11
486.0051914630937
 21
322.1942091407946
 31
0.0
  0
LINE
  5
938
330
1E
100
AcDbEntity
  8
Rüttler
100
AcDbLine
 10
486.0051914630937
 20
308.4660291407947
 30
0.0
 11
486.0051914630937
 21
313.4660291407947
 31
0.0
  0
LINE
  5
939
330
1E
100
AcDbEntity
  8
Rüttler
100
AcDbLine
 10
414.7356504630937
 20
393.9063981407946
 30
0.0
 11
440.6209654630937
 21
397.1038771407947
 31
0.0
  0
LINE
  5
93A
330
1E
100
AcDbEntity
  8
0
  6
STRICHPUNKT
 62
     7
 48
10.0
370
    18
100
AcDbLine
 10
500.4553835232919
 20
349.4659381407947
 30
0.0
 11
392.5547434448603
 21
349.4659381407947
 31
0.0
  0
LINE
  5
93B
330
1E
100
AcDbEntity
  8
Rüttler
100
AcDbLine
 10
402.0647544630937
 20
381.2355001407947
 30
0.0
 11
398.8671224630937
 21
355.3504901407947
 31
0.0
  0
ARC
  5
93C
330
1E
100
AcDbEntity
  8
Rüttler
100
AcDbCircle
 10
409.7356504630937
 20
386.2355001407947
 30
0.0
 40
7.000126999999999
100
AcDbArc
 50
97.04167399999992
 51
172.958323
  0
LINE
  5
93D
330
1E
100
AcDbEntity
  8
Rüttler
100
AcDbLine
 10
402.7883264630937
 20
387.0936541407946
 30
0.0
 11
402.0647544630937
 21
381.2355001407947
 31
0.0
  0
LINE
  5
93E
330
1E
100
AcDbEntity
  8
Rüttler
100
AcDbLine
 10
408.8774964630937
 20
393.1828261407947
 30
0.0
 11
414.7356504630937
 21
393.9063981407946
 31
0.0
  0
LINE
  5
93F
330
1E
100
AcDbEntity
  8
Rüttler
100
AcDbLine
 10
484.1326324630937
 20
393.1828261407947
 30
0.0
 11
452.3891544630937
 21
397.1038771407947
 31
0.0
  0
ARC
  5
940
330
1E
100
AcDbEntity
  8
Rüttler
100
AcDbCircle
 10
446.5050594630937
 20
349.4659381407947
 30
0.0
 40
47.999957
100
AcDbArc
 50
82.95866299999992
 51
90.0
  0
ARC
  5
941
330
1E
100
AcDbEntity
  8
Rüttler
100
AcDbCircle
 10
446.5050594630937
 20
349.4659381407947
 30
0.0
 40
48.000031
100
AcDbArc
 50
90.0
 51
97.0413379999998
  0
LINE
  5
942
330
1E
100
AcDbEntity
  8
Rüttler
100
AcDbLine
 10
490.2218054630936
 20
387.0936541407946
 30
0.0
 11
494.1430084630937
 21
355.3504901407947
 31
0.0
  0
ARC
  5
943
330
1E
100
AcDbEntity
  8
Rüttler
100
AcDbCircle
 10
483.2744784630937
 20
386.2355001407947
 30
0.0
 40
7.000126999999999
100
AcDbArc
 50
7.041675000000015
 51
82.95832500000012
  0
LINE
  5
944
330
1E
100
AcDbEntity
  8
Rüttler
100
AcDbLine
 10
527.5051304630937
 20
292.4659681407947
 30
0.0
 11
527.5051304630937
 21
269.4660911407947
 31
0.0
  0
ARC
  5
945
330
1E
100
AcDbEntity
  8
Rüttler
100
AcDbCircle
 10
525.5050084630936
 20
292.4659681407947
 30
0.0
 40
2.000122
100
AcDbArc
 50
0.0
 51
90.0
  0
CIRCLE
  5
948
330
1E
100
AcDbEntity
  8
Rüttler
  6
Continuous
100
AcDbCircle
 10
195.5043934630937
 20
166.9661223907994
 30
0.0
 40
6.5
  0
CIRCLE
  5
949
330
1E
100
AcDbEntity
  8
Rüttler
  6
Continuous
100
AcDbCircle
 10
130.50439346309
 20
166.9661073907962
 30
0.0
 40
6.5
  0
LINE
  5
94A
330
1E
100
AcDbEntity
  8
0
  6
STRICHPUNKT
 62
     7
 48
8.0
370
    18
100
AcDbLine
 10
195.5043934630937
 20
176.9661223907994
 30
0.0
 11
195.5043934630937
 21
156.9661523907993
 31
0.0
  0
LINE
  5
94B
330
1E
100
AcDbEntity
  8
0
  6
STRICHPUNKT
 62
     7
 48
8.0
370
    18
100
AcDbLine
 10
185.504408463105
 20
166.9661223907994
 30
0.0
 11
205.5043784630825
 21
166.9661223907994
 31
0.0
  0
LINE
  5
94C
330
1E
100
AcDbEntity
  8
0
  6
STRICHPUNKT
 62
     7
 48
8.0
370
    18
100
AcDbLine
 10
208.0043934630955
 20
169.4661373907972
 30
0.0
 11
208.0043934630955
 21
149.4661673907971
 31
0.0
  0
LINE
  5
94D
330
1E
100
AcDbEntity
  8
0
  6
STRICHPUNKT
 62
     7
 48
8.0
370
    18
100
AcDbLine
 10
198.0044084631068
 20
159.4661373907972
 30
0.0
 11
218.0043784630843
 21
159.4661373907972
 31
0.0
  0
LINE
  5
94E
330
1E
100
AcDbEntity
  8
0
  6
STRICHPUNKT
 62
     7
 48
8.0
370
    18
100
AcDbLine
 10
220.5043934630937
 20
174.466107390798
 30
0.0
 11
220.5043934630937
 21
154.4661373907979
 31
0.0
  0
LINE
  5
94F
330
1E
100
AcDbEntity
  8
0
  6
STRICHPUNKT
 62
     7
 48
8.0
370
    18
100
AcDbLine
 10
210.504408463105
 20
164.466107390798
 30
0.0
 11
230.5043784630825
 21
164.466107390798
 31
0.0
  0
LINE
  5
950
330
1E
100
AcDbEntity
  8
0
  6
STRICHPUNKT
 62
     7
 48
8.0
370
    18
100
AcDbLine
 10
120.5044084631013
 20
166.9660923907962
 30
0.0
 11
140.5043784630788
 21
166.9660923907962
 31
0.0
  0
LINE
  5
951
330
1E
100
AcDbEntity
  8
0
  6
STRICHPUNKT
 62
     7
 48
8.0
370
    18
100
AcDbLine
 10
130.50439346309
 20
176.9660923907962
 30
0.0
 11
130.50439346309
 21
156.9661223907961
 31
0.0
  0
LINE
  5
952
330
1E
100
AcDbEntity
  8
0
  6
STRICHPUNKT
 62
     7
 48
8.0
370
    18
100
AcDbLine
 10
95.50440846310136
 20
164.4661073907943
 30
0.0
 11
115.5043784630788
 21
164.4661073907943
 31
0.0
  0
LINE
  5
953
330
1E
100
AcDbEntity
  8
0
  6
STRICHPUNKT
 62
     7
 48
8.0
370
    18
100
AcDbLine
 10
105.50439346309
 20
174.4661073907943
 30
0.0
 11
105.50439346309
 21
154.4661373907943
 31
0.0
  0
VIEWPORT
  5
95E
330
1A
100
AcDbEntity
 67
     1
  8
0
  6
Continuous
100
AcDbViewport
 10
204.0250326548794
 20
127.013595567614
 30
0.0
 40
539.7472273353923
 41
306.3122450489885
 68
     1
 69
     1
 12
204.0250326548794
 22
127.013595567614
 13
0.0
 23
0.0
 14
10.0
 24
10.0
 15
10.0
 25
10.0
 16
0.0
 26
0.0
 36
1.0
 17
0.0
 27
0.0
 37
0.0
 42
50.0
 43
0.0
 44
0.0
 45
306.3122450489885
 50
0.0
 51
0.0
 72
   100
 90
    32800
  1

281
     0
 71
     1
 74
     0
110
0.0
120
0.0
130
0.0
111
1.0
121
0.0
131
0.0
112
0.0
122
1.0
132
0.0
 79
     0
146
0.0
  0
VIEWPORT
  5
960
330
1A
100
AcDbEntity
 67
     1
  8
Defpoints
  6
Continuous
100
AcDbViewport
 10
210.8575480504919
 20
134.0292277925885
 30
0.0
 40
393.2430335516913
 41
267.6145022277531
 68
     2
 69
     2
 12
303.3725244033255
 22
204.7128307747708
 13
0.0
 23
0.0
 14
1.0
 24
1.0
 15
0.0
 25
0.0
 16
0.0
 26
0.0
 36
1.0
 17
0.0
 27
0.0
 37
0.0
 42
50.0
 43
0.0
 44
0.0
 45
410.5692196061526
 50
0.0
 51
0.0
 72
   100
 90
    32800
  1

281
     0
 71
     1
 74
     0
110
0.0
120
0.0
130
0.0
111
1.0
121
0.0
131
0.0
112
0.0
122
1.0
132
0.0
 79
     0
146
0.0
  0
LINE
  5
A79
330
1A
100
AcDbEntity
 67
     1
  8
RAHMEN07
100
AcDbLine
 10
409.0250332709073
 20
270.5135959172163
 30
0.0
 11
11.82503327090762
 21
270.5135959172163
 31
0.0
  0
LINE
  5
A7A
330
1A
100
AcDbEntity
 67
     1
  8
RAHMEN025
100
AcDbLine
 10
414.0250332709073
 20
275.5135959172163
 30
0.0
 11
-5.97496672909267
 21
275.5135959172163
 31
0.0
  0
LINE
  5
A7B
330
1A
100
AcDbEntity
 67
     1
  8
RAHMEN025
100
AcDbLine
 10
-5.97496672909267
 20
275.5135959172163
 30
0.0
 11
-5.97496672909267
 21
-21.48640408278365
 31
0.0
  0
LINE
  5
A7C
330
1A
100
AcDbEntity
 67
     1
  8
RAHMEN07
100
AcDbLine
 10
11.82503327090762
 20
-16.48640408278365
 30
0.0
 11
11.82503327090762
 21
270.5135959172163
 31
0.0
  0
LINE
  5
A7D
330
1A
100
AcDbEntity
 67
     1
  8
RAHMEN025
100
AcDbLine
 10
-5.97496672909267
 20
-21.48640408278365
 30
0.0
 11
414.0250332709073
 21
-21.48640408278365
 31
0.0
  0
LINE
  5
A7E
330
1A
100
AcDbEntity
 67
     1
  8
RAHMEN07
100
AcDbLine
 10
11.82503327090762
 20
-16.48640408278365
 30
0.0
 11
409.0250332709073
 21
-16.48640408278365
 31
0.0
  0
TEXT
  5
A7F
330
1A
100
AcDbEntity
 67
     1
  8
RAHMEN025
100
AcDbText
 10
321.3905377828886
 20
26.19906625734452
 30
0.0
 40
2.5
  1
Werkstoff:
  7
ISO Proportional
100
AcDbText
  0
TEXT
  5
A80
330
1A
100
AcDbEntity
 67
     1
  8
RAHMEN025
100
AcDbText
 10
322.3017333149002
 20
-15.61140408278365
 30
0.0
 40
2.5
  1
Ersatz für:
  7
ISO Proportional
100
AcDbText
  0
TEXT
  5
A81
330
1A
100
AcDbEntity
 67
     1
  8
RAHMEN025
100
AcDbText
 10
321.4411148291537
 20
17.18941385148858
 30
0.0
 40
2.5
  1
Benennung:
  7
ISO Proportional
100
AcDbText
  0
LINE
  5
A82
330
1A
100
AcDbEntity
 67
     1
  8
RAHMEN025
100
AcDbLine
 10
320.6250332709076
 20
32.38859591721634
 30
0.0
 11
409.0250332709076
 21
32.38859591721634
 31
0.0
  0
LINE
  5
A83
330
1A
100
AcDbEntity
 67
     1
  8
RAHMEN025
100
AcDbLine
 10
221.8250332709076
 20
-12.23640408278365
 30
0.0
 11
409.0250332709073
 21
-12.23640408278365
 31
0.0
  0
LINE
  5
A84
330
1A
100
AcDbEntity
 67
     1
  8
RAHMEN07
100
AcDbLine
 10
221.8250332709076
 20
38.76359591721635
 30
0.0
 11
409.0250332709076
 21
38.76359591721635
 31
0.0
  0
LINE
  5
A85
330
1A
100
AcDbEntity
 67
     1
  8
RAHMEN07
100
AcDbLine
 10
221.8250332709076
 20
0.5135959172163496
 30
0.0
 11
409.0250332709073
 21
0.5135959172163496
 31
0.0
  0
LINE
  5
A86
330
1A
100
AcDbEntity
 67
     1
  8
RAHMEN07
100
AcDbLine
 10
221.8250332709076
 20
21.76359591721632
 30
0.0
 11
409.0250332709076
 21
21.76359591721632
 31
0.0
  0
LINE
  5
A87
330
1A
100
AcDbEntity
 67
     1
  8
RAHMEN07
100
AcDbLine
 10
221.8250332709076
 20
-16.48640408278365
 30
0.0
 11
409.0250332709073
 21
-16.48640408278365
 31
0.0
  0
TEXT
  5
A88
330
1A
100
AcDbEntity
 67
     1
  8
RAHMEN025
100
AcDbText
 10
303.8711314240637
 20
34.32609591721635
 30
0.0
 40
2.5
  1
Oberfl.
  7
ISO Proportional
100
AcDbText
  0
TEXT
  5
A89
330
1A
100
AcDbEntity
 67
     1
  8
RAHMEN025
100
AcDbText
 10
321.7512931733991
 20
34.32609591721635
 30
0.0
 40
2.5
  1
Maßstab:
  7
ISO Proportional
100
AcDbText
  0
TEXT
  5
A8A
330
1A
100
AcDbEntity
 67
     1
  8
RAHMEN025
100
AcDbText
 10
278.0286992260144
 20
34.32609591721635
 30
0.0
 40
2.5
  1
Zul. Abw.
  7
ISO Proportional
100
AcDbText
  0
LINE
  5
A8B
330
1A
100
AcDbEntity
 67
     1
  8
RAHMEN025
100
AcDbLine
 10
302.4250332709077
 20
38.76359591721635
 30
0.0
 11
302.4250332709076
 21
0.5135959172163496
 31
0.0
  0
LINE
  5
A8C
330
1A
100
AcDbEntity
 67
     1
  8
RAHMEN025
100
AcDbLine
 10
320.6250332709076
 20
38.76359591721635
 30
0.0
 11
320.6250332709075
 21
-16.48640408278365
 31
0.0
  0
LINE
  5
A8D
330
1A
100
AcDbEntity
 67
     1
  8
RAHMEN025
100
AcDbLine
 10
276.4250332709075
 20
38.76359591721635
 30
0.0
 11
276.4250332709075
 21
-16.48640408278365
 31
0.0
  0
LINE
  5
A8E
330
1A
100
AcDbEntity
 67
     1
  8
RAHMEN07
100
AcDbLine
 10
221.8250332709076
 20
38.76359591721635
 30
0.0
 11
221.8250332709076
 21
-16.48640408278365
 31
0.0
  0
TEXT
  5
A8F
330
1A
100
AcDbEntity
 67
     1
  8
RAHMEN025
100
AcDbText
 10
223.4286992260144
 20
34.32609591721635
 30
0.0
 40
2.5
  1
Verwendungsbereich
  7
ISO Proportional
100
AcDbText
  0
TEXT
  5
A90
330
1A
100
AcDbEntity
 67
     1
  8
RAHMEN025
100
AcDbText
 10
268.7000651193897
 20
-15.61140408278365
 30
0.0
 40
2.5
  1
Name
  7
ISO Proportional
100
AcDbText
  0
LINE
  5
A91
330
1A
100
AcDbEntity
 67
     1
  8
RAHMEN025
100
AcDbLine
 10
221.8250332709076
 20
17.51359591721635
 30
0.0
 11
320.6250332709075
 21
17.51359591721635
 31
0.0
  0
LINE
  5
A92
330
1A
100
AcDbEntity
 67
     1
  8
RAHMEN025
100
AcDbLine
 10
221.8250332709076
 20
13.26359591721635
 30
0.0
 11
320.6250332709075
 21
13.26359591721635
 31
0.0
  0
LINE
  5
A93
330
1A
100
AcDbEntity
 67
     1
  8
RAHMEN025
100
AcDbLine
 10
221.8250332709076
 20
9.01359591721635
 30
0.0
 11
320.6250332709075
 21
9.01359591721635
 31
0.0
  0
LINE
  5
A94
330
1A
100
AcDbEntity
 67
     1
  8
RAHMEN025
100
AcDbLine
 10
221.8250332709076
 20
4.763595917216349
 30
0.0
 11
320.6250332709075
 21
4.763595917216349
 31
0.0
  0
LINE
  5
A95
330
1A
100
AcDbEntity
 67
     1
  8
RAHMEN025
100
AcDbLine
 10
221.8250332709076
 20
-7.98640408278365
 30
0.0
 11
276.4250332709075
 21
-7.98640408278365
 31
0.0
  0
LINE
  5
A96
330
1A
100
AcDbEntity
 67
     1
  8
RAHMEN025
100
AcDbLine
 10
221.8250332709076
 20
-3.73640408278365
 30
0.0
 11
276.4250332709075
 21
-3.73640408278365
 31
0.0
  0
LINE
  5
A97
330
1A
100
AcDbEntity
 67
     1
  8
RAHMEN025
100
AcDbLine
 10
268.6250332709076
 20
21.76359591721634
 30
0.0
 11
268.6250332709076
 21
-16.48640408278365
 31
0.0
  0
LINE
  5
A98
330
1A
100
AcDbEntity
 67
     1
  8
RAHMEN025
100
AcDbLine
 10
255.6250332709076
 20
21.76359591721634
 30
0.0
 11
255.6250332709076
 21
-16.48640408278365
 31
0.0
  0
LINE
  5
A99
330
1A
100
AcDbEntity
 67
     1
  8
RAHMEN025
100
AcDbLine
 10
229.6250332709075
 20
21.76359591721634
 30
0.0
 11
229.6250332709075
 21
-16.48640408278365
 31
0.0
  0
TEXT
  5
A9A
330
1A
100
AcDbEntity
 67
     1
  8
RAHMEN025
100
AcDbText
 10
235.2104723113234
 20
-15.61140408278365
 30
0.0
 40
2.5
  1
Änderung
  7
ISO Proportional
100
AcDbText
  0
TEXT
  5
A9B
330
1A
100
AcDbEntity
 67
     1
  8
RAHMEN025
100
AcDbText
 10
222.1397632483335
 20
-15.61140408278365
 30
0.0
 40
2.5
  1
Zust.
  7
ISO Proportional
100
AcDbText
  0
TEXT
  5
A9C
330
1A
100
AcDbEntity
 67
     1
  8
RAHMEN025
100
AcDbText
 10
257.4366618516319
 20
-15.61140408278365
 30
0.0
 40
2.5
  1
Datum
  7
ISO Proportional
100
AcDbText
  0
LWPOLYLINE
  5
A9D
330
1A
100
AcDbEntity
 67
     1
  8
RAHMEN025
100
AcDbPolyline
 90
        4
 70
     1
 43
0.0
 10
276.4250332709075
 20
-12.23640408278365
 10
320.6250332709075
 20
-12.23640408278365
 10
320.6250332709075
 20
0.5135959172163496
 10
276.4250332709075
 20
0.5135959172163496
  0
TEXT
  5
A9E
330
1A
100
AcDbEntity
 67
     1
  8
RAHMEN025
 48
1.5
100
AcDbText
 10
272.7539541604711
 20
-20.32009737047917
 30
0.0
 40
2.5
  1
"Schutzvermerk DIN 34 beachten"
 41
0.8
  7
Stil1
100
AcDbText
  0
TEXT
  5
A9F
330
1A
100
AcDbEntity
 67
     1
  8
RAHMEN025
100
AcDbText
 10
277.6773457983012
 20
-15.61140408278365
 30
0.0
 40
2.5
  1
Ursprung
  7
ISO Proportional
100
AcDbText
  0
LWPOLYLINE
  5
AA0
102
{ACAD_REACTORS
330
AA1
102
}
330
1A
100
AcDbEntity
 67
     1
  8
RAHMEN025
370
     9
100
AcDbPolyline
 90
        4
 70
     1
 43
0.0
 10
295.8633082857033
 20
-9.027736565871692
 10
295.2677589495453
 20
-11.2503569468266
 10
318.318764867648
 20
-11.2503569468266
 10
318.914314203806
 20
-9.027736565871692
  0
HATCH
  5
AA1
330
1A
100
AcDbEntity
 67
     1
  8
RAHMEN025
 62
   154
370
     9
100
AcDbHatch
 10
0.0
 20
0.0
 30
0.0
210
0.0
220
0.0
230
1.0
  2
SOLID
 70
     1
 71
     1
 91
        1
 92
        7
 72
     0
 73
     1
 93
        4
 10
318.3187648676479
 20
-11.2503569468266
 10
318.914314203806
 20
-9.027736565871692
 10
295.8633082857033
 20
-9.027736565871692
 10
295.2677589495453
 20
-11.2503569468266
 97
        1
330
AA0
 75
     0
 76
     1
 47
0.0579061006172788
 98
        1
 10
305.0797531396937
 20
-10.20194823484527
  0
LINE
  5
AA2
102
{ACAD_REACTORS
330
AA8
102
}
330
1A
100
AcDbEntity
 67
     1
  8
RAHMEN025
370
     9
100
AcDbLine
 10
301.7636658420701
 20
-2.584185564017531
 30
0.0
 11
304.2564439421081
 21
-2.584185564017531
 31
0.0
  0
LINE
  5
AA3
102
{ACAD_REACTORS
330
AA8
102
}
330
1A
100
AcDbEntity
 67
     1
  8
RAHMEN025
370
     9
100
AcDbLine
 10
301.6393542184504
 20
-3.048122859337979
 30
0.0
 11
304.1424082858546
 21
-3.048122859337979
 31
0.0
  0
LINE
  5
AA4
102
{ACAD_REACTORS
330
AA8
102
}
330
1A
100
AcDbEntity
 67
     1
  8
RAHMEN025
370
     9
100
AcDbLine
 10
300.0640500764366
 20
-4.066010981435994
 30
0.0
 11
303.8593900181866
 21
-4.066010981435994
 31
0.0
  0
LINE
  5
AA5
102
{ACAD_REACTORS
330
AA8
102
}
330
1A
100
AcDbEntity
 67
     1
  8
RAHMEN025
370
     9
100
AcDbLine
 10
304.8519722451167
 20
-0.3616436798445761
 30
0.0
 11
301.0566323033662
 21
-0.3616436798445761
 31
0.0
  0
LINE
  5
AA6
102
{ACAD_REACTORS
330
AA8
102
}
330
1A
100
AcDbEntity
 67
     1
  8
RAHMEN025
370
     9
100
AcDbLine
 10
304.5788850717677
 20
-1.380818885676802
 30
0.0
 11
302.0758310043637
 21
-1.380818885676802
 31
0.0
  0
LINE
  5
AA7
102
{ACAD_REACTORS
330
AA8
102
}
330
1A
100
AcDbEntity
 67
     1
  8
RAHMEN025
370
     9
100
AcDbLine
 10
304.4548379970186
 20
-1.8437688711725
 30
0.0
 11
301.9620598969807
 21
-1.8437688711725
 31
0.0
  0
HATCH
  5
AA8
330
1A
100
AcDbEntity
 67
     1
  8
RAHMEN025
370
     9
100
AcDbHatch
 10
0.0
 20
0.0
 30
0.0
210
0.0
220
0.0
230
1.0
  2
SOLID
 70
     1
 71
     1
 91
        8
 92
        7
 72
     0
 73
     1
 93
       11
 10
285.1379407892536
 20
-4.066010981435994
 10
286.5376578578272
 20
-4.066010981435994
 10
285.8712420658769
 20
-2.261942860025939
 10
287.5302400847571
 20
-0.3616436798445761
 10
285.9357537749122
 20
-0.3616436798445761
 10
284.6396625834681
 20
-1.846251256533719
 10
285.0374619847193
 20
-0.3616436798445761
 10
283.6951968539296
 20
-0.3616436798445761
 10
282.7026146269997
 20
-4.066010981435994
 10
284.0448797577892
 20
-4.066010981435994
 10
284.5044184221429
 20
-2.350989338026995
 97
       11
330
AB3
330
AB2
330
ABE
330
ABD
330
AD0
330
AC4
330
AC3
330
AC2
330
ACF
330
ABC
330
ABB
 92
        7
 72
     0
 73
     1
 93
       10
 10
289.1775717594359
 20
-0.3616436798445761
 10
287.9163859121693
 20
-0.3616436798445761
 10
286.9238036852397
 20
-4.066010981435994
 10
288.2263655269521
 20
-4.066010981435994
 10
288.6982602911574
 20
-2.304875745594756
 10
289.4053955976073
 20
-4.066010981435994
 10
290.6794403379127
 20
-4.066010981435994
 10
291.6720225648422
 20
-0.3616436798445761
 10
290.3566514252844
 20
-0.3616436798445761
 10
289.8871617741848
 20
-2.113802911375788
 97
       10
330
AED
330
AEC
330
AEB
330
AEA
330
AE9
330
AE8
330
AE7
330
AE6
330
AE5
330
AE4
 92
        7
 72
     0
 73
     1
 93
        8
 10
290.9861955246556
 20
-4.066010981435994
 10
292.5841920400962
 20
-4.066010981435994
 10
292.8727241718923
 20
-3.53762563865871
 10
294.3761127793383
 20
-3.53762563865871
 10
294.4028188687052
 20
-4.066010981435994
 10
295.7066846138561
 20
-4.066010981435994
 10
295.5194554153991
 20
-0.3616436798445761
 10
293.0090165757968
 20
-0.3616436798445761
 97
        8
330
ADC
330
AE3
330
AE2
330
AE1
330
AFB
330
ADF
330
ADA
330
B18
 92
       22
 72
     0
 73
     1
 93
        3
 10
294.2487499539944
 20
-1.017726554906335
 10
294.3354731924831
 20
-2.733563249147579
 10
293.3117935717424
 20
-2.733563249147579
 97
        3
330
ADE
330
AFA
330
AF9
 92
        7
 72
     1
 73
     1
 93
       12
 10
298.0730664390939
 20
-0.3616436798445761
 42
0.0
 10
296.6388707047224
 20
-0.3616436798445761
 42
0.0
 10
295.9862183465867
 20
-2.797375440087733
 42
0.4488320008137725
 10
296.773712983794
 20
-3.994211202219211
 42
0.0735650496629369
 10
298.8573461794738
 20
-3.990463575564032
 42
0.2985033964043282
 10
299.7041557254271
 20
-3.234420429567375
 42
0.0
 10
300.47391393555
 20
-0.3616436798445761
 42
0.0
 10
299.0088975363944
 20
-0.3616436798445761
 42
0.0
 10
298.2775736761538
 20
-3.090981483049993
 42
-0.3394542588632696
 10
297.9441806190105
 20
-3.346802973400627
 42
0.0
 10
297.7230087250997
 20
-3.346802973400627
 42
-0.4931454260315976
 10
297.3896156679563
 20
-2.912316682202408
 42
0.0
 97
       12
330
B17
330
B16
330
B15
330
B14
330
B13
330
B12
330
B11
330
B10
330
B0F
330
B0E
330
B0D
330
B0C
 92
        7
 72
     0
 73
     1
 93
       12
 10
300.0640500764367
 20
-4.066010981435994
 10
303.8593900181866
 20
-4.066010981435994
 10
304.1321323184882
 20
-3.048122859337979
 10
301.6393542184504
 20
-3.048122859337979
 10
301.7636658420701
 20
-2.584185564017531
 10
304.2564439421081
 20
-2.584185564017531
 10
304.4548379970186
 20
-1.8437688711725
 10
301.9620598969808
 20
-1.8437688711725
 10
302.0861069717298
 20
-1.380818885676802
 10
304.5788850717677
 20
-1.380818885676802
 10
304.8519722451166
 20
-0.3616436798445761
 10
301.0566323033662
 20
-0.3616436798445761
 97
       12
330
AA7
330
B0B
330
AA6
330
B49
330
AA5
330
B0A
330
AA4
330
B48
330
AA3
330
B09
330
AA2
330
B47
 92
        7
 72
     1
 73
     1
 93
       11
 10
304.3950029146745
 20
-4.066010981435994
 42
0.0
 10
305.697564756387
 20
-4.066010981435994
 42
0.0
 10
306.1218556900904
 20
-2.482535659662964
 42
0.0
 10
307.125383985363
 20
-4.066010981435994
 42
0.0
 10
308.8343884722686
 20
-4.066010981435994
 42
0.0
 10
307.8308601769959
 20
-2.482535659663
 42
0.0
 10
308.6112783283345
 20
-2.482535659663
 42
0.3394542588635565
 10
309.4262391346848
 20
-1.857194238805071
 42
0.0
 10
309.5423878637896
 20
-1.423721280550761
 42
0.4931454260311626
 10
308.7274270574393
 20
-0.3616436798445761
 42
0.0
 10
305.3875851416039
 20
-0.3616436798445761
 42
0.0
 97
       11
330
B32
330
B46
330
B45
330
B44
330
B43
330
B42
330
B41
330
B40
330
B3F
330
B3E
330
B3D
 92
       22
 72
     1
 73
     1
 93
        6
 10
306.4552679855363
 20
-1.238224033192523
 42
0.0
 10
307.5700108519307
 20
-1.238224033192523
 42
-0.4622189808356573
 10
307.9528700236886
 20
-1.685217304502888
 42
-0.2421880062385626
 10
307.6560867830584
 20
-2.089797594590436
 42
-0.0940682372810069
 10
307.3744171034816
 20
-2.142320262334592
 42
0.0
 10
306.2130161310573
 20
-2.142320262334592
 42
0.0
 97
        6
330
B3C
330
B3B
330
B3A
330
B39
330
B38
330
B37
 75
     0
 76
     1
 47
0.0617673955459683
 98
        8
 10
285.1187372380219
 20
-2.537214566399114
 10
289.1986591810552
 20
-1.919540436747155
 10
293.0313132655236
 20
-1.857773109919179
 10
293.0313132655236
 20
-1.857773109919179
 10
297.0494178644632
 20
-1.919540436747155
 10
301.2529744956836
 20
-1.981307763575017
 10
305.7037974676592
 20
-1.610702941234734
 10
305.7037974676592
 20
-1.610702941234734
  0
LINE
  5
AA9
102
{ACAD_REACTORS
330
AAF
102
}
330
1A
100
AcDbEntity
 67
     1
  8
Defpoints
370
    13
100
AcDbLine
 10
301.9220641075016
 20
-6.957427221365463
 30
0.0
 11
304.4148422075394
 21
-6.957427221365463
 31
0.0
  0
LINE
  5
AAA
102
{ACAD_REACTORS
330
AAF
102
}
330
1A
100
AcDbEntity
 67
     1
  8
Defpoints
370
    13
100
AcDbLine
 10
301.797752483882
 20
-7.421364516685684
 30
0.0
 11
304.3008065512864
 21
-7.421364516685684
 31
0.0
  0
LINE
  5
AAB
102
{ACAD_REACTORS
330
AAF
102
}
330
1A
100
AcDbEntity
 67
     1
  8
Defpoints
370
    13
100
AcDbLine
 10
300.222448341868
 20
-8.439252638783586
 30
0.0
 11
304.0177882836185
 21
-8.439252638783586
 31
0.0
  0
LINE
  5
AAC
102
{ACAD_REACTORS
330
AAF
102
}
330
1A
100
AcDbEntity
 67
     1
  8
Defpoints
370
    13
100
AcDbLine
 10
305.0103705105481
 20
-4.734885337192224
 30
0.0
 11
301.2150305687981
 21
-4.734885337192224
 31
0.0
  0
LINE
  5
AAD
102
{ACAD_REACTORS
330
AAF
102
}
330
1A
100
AcDbEntity
 67
     1
  8
Defpoints
370
    13
100
AcDbLine
 10
304.7372833371996
 20
-5.754060543024507
 30
0.0
 11
302.2342292697954
 21
-5.754060543024507
 31
0.0
  0
LINE
  5
AAE
102
{ACAD_REACTORS
330
AAF
102
}
330
1A
100
AcDbEntity
 67
     1
  8
Defpoints
370
    13
100
AcDbLine
 10
304.6132362624502
 20
-6.217010528520162
 30
0.0
 11
302.1204581624121
 21
-6.217010528520162
 31
0.0
  0
HATCH
  5
AAF
330
1A
100
AcDbEntity
 67
     1
  8
RAHMEN025
370
    13
100
AcDbHatch
 10
0.0
 20
0.0
 30
0.0
210
0.0
220
0.0
230
1.0
  2
ANSI31
 70
     0
 71
     1
 91
       12
 92
        7
 72
     0
 73
     1
 93
       12
 10
278.9455281703317
 20
-6.957427221365463
 10
281.4383062703696
 20
-6.957427221365463
 10
281.6367003252796
 20
-6.217010528520162
 10
279.1439222252417
 20
-6.217010528520162
 10
279.2679692999914
 20
-5.754060543024507
 10
281.7607474000292
 20
-5.754060543024506
 10
282.0338345733777
 20
-4.734885337192224
 10
278.2384946316276
 20
-4.734885337192224
 10
277.2459124046975
 20
-8.439252638783584
 10
281.0412523464481
 20
-8.439252638783586
 10
281.3139946467498
 20
-7.421364516685684
 10
278.8212165467118
 20
-7.421364516685684
 97
       12
330
ACE
330
ACD
330
ACC
330
ACB
330
AB8
330
ABA
330
AB9
330
AD8
330
ACA
330
AC9
330
AC8
330
AC7
 92
        7
 72
     0
 73
     1
 93
       10
 10
283.8260262908937
 20
-4.734885337192224
 10
282.5648404436271
 20
-4.734885337192224
 10
281.5722582166972
 20
-8.439252638783586
 10
282.8748200584099
 20
-8.439252638783586
 10
283.3467148226157
 20
-6.678117402942428
 10
284.0538501290649
 20
-8.439252638783586
 10
285.3278948693703
 20
-8.439252638783586
 10
286.3204770962999
 20
-4.734885337192224
 10
285.0051059567419
 20
-4.734885337192224
 10
284.5356163056424
 20
-6.487044568723364
 97
       10
330
AC6
330
AD7
330
AD2
330
AD6
330
AD5
330
AD3
330
AD4
330
AC1
330
AC0
330
AD1
 92
        7
 72
     1
 73
     1
 93
       16
 10
287.846799415324
 20
-5.986061120259584
 42
-0.2918088509345686
 10
288.2494904806399
 20
-5.698170980784649
 42
-0.0567825308446797
 10
290.2511786304348
 20
-5.819676340248902
 42
0.0
 10
290.5151323526985
 20
-4.826410611025274
 42
0.0541842923752296
 10
287.3885787138987
 20
-4.811150237596589
 42
0.2748078422990356
 10
286.6024639718341
 20
-5.396150211487423
 42
0.0595537418813009
 10
286.0709875771108
 20
-7.274812249396832
 42
0.4195581459998819
 10
286.8856161140271
 20
-8.374042286866159
 42
0.0274034260658982
 10
287.662666803249
 20
-8.439252638783586
 42
0.0
 10
289.4895486005172
 20
-8.439252638783586
 42
0.0
 10
289.9951359104989
 20
-6.552375110269338
 42
0.0
 10
288.4304137315018
 20
-6.552375110269338
 42
-0.1650444911529426
 10
288.318497413561
 20
-7.459944378136642
 42
-0.2878146020947726
 10
287.9040739227464
 20
-7.720044630748546
 42
0.0
 10
287.8623837009112
 20
-7.720044630748546
 42
-0.4686158958349675
 10
287.4852211083026
 20
-7.267085685357963
 42
-0.0536408936041017
 97
       16
330
AF8
330
AF7
330
AF6
330
AF5
330
AB4
330
ABF
330
AB5
330
B01
330
B00
330
B07
330
AF4
330
AF3
330
AF2
330
AF1
330
AF0
330
AEF
 92
        7
 72
     0
 73
     1
 93
        4
 10
289.9485739909944
 20
-8.439252638783586
 10
291.290839121784
 20
-8.439252638783586
 10
292.2834213487135
 20
-4.734885337192224
 10
290.9411562179241
 20
-4.734885337192224
 97
        4
330
AEE
330
B06
330
AFF
330
B05
 92
        7
 72
     0
 73
     1
 93
       10
 10
293.527172294799
 20
-6.678117402942381
 10
294.2343076012486
 20
-8.439252638783586
 10
295.5083523415538
 20
-8.439252638783586
 10
296.5009345684837
 20
-4.734885337192224
 10
295.1855634289257
 20
-4.734885337192224
 10
294.7160737778263
 20
-6.487044568723415
 10
294.0064837630774
 20
-4.734885337192224
 10
292.7452979158107
 20
-4.734885337192224
 10
291.7527156888808
 20
-8.439252638783586
 10
293.0552775305932
 20
-8.439252638783586
 97
       10
330
AFC
330
B04
330
AFE
330
B03
330
B02
330
ADD
330
B2B
330
B26
330
ADB
330
AE0
 92
        7
 72
     0
 73
     1
 93
       12
 10
297.8847227888583
 20
-6.217010528520162
 10
298.0087698636075
 20
-5.754060543024507
 10
300.5015479636453
 20
-5.754060543024506
 10
300.774635136994
 20
-4.734885337192224
 10
296.9792951952438
 20
-4.734885337192224
 10
295.986712968314
 20
-8.439252638783586
 10
299.7820529100641
 20
-8.439252638783586
 10
300.0547952103658
 20
-7.421364516685684
 10
297.5620171103278
 20
-7.421364516685684
 10
297.6863287339476
 20
-6.957427221365463
 10
300.1791068339854
 20
-6.957427221365463
 10
300.377500888896
 20
-6.217010528520162
 97
       12
330
B25
330
B24
330
B23
330
B2A
330
B27
330
B29
330
B22
330
B21
330
B20
330
B1F
330
B1E
330
B1D
 92
        7
 72
     0
 73
     1
 93
       12
 10
302.1204581624122
 20
-6.217010528520162
 10
302.2445052371618
 20
-5.754060543024507
 10
304.7372833371996
 20
-5.754060543024507
 10
305.0103705105482
 20
-4.734885337192224
 10
301.2150305687981
 20
-4.734885337192224
 10
300.222448341868
 20
-8.439252638783584
 10
304.0177882836185
 20
-8.439252638783586
 10
304.2905305839198
 20
-7.421364516685684
 10
301.797752483882
 20
-7.421364516685684
 10
301.9220641075016
 20
-6.957427221365463
 10
304.4148422075394
 20
-6.957427221365463
 10
304.6132362624502
 20
-6.217010528520162
 97
       12
330
AAE
330
B1C
330
AAD
330
B56
330
AAC
330
B28
330
AAB
330
B5F
330
AAA
330
B1B
330
AA9
330
B55
 92
        7
 72
     1
 73
     1
 93
       11
 10
306.2589579658723
 20
-6.845851494741465
 42
0.0
 10
307.2624862611449
 20
-8.429326816514262
 42
0.0
 10
308.9714907480503
 20
-8.42932681651426
 42
0.0
 10
307.9679624527776
 20
-6.845851494741523
 42
0.0
 10
308.7483806041162
 20
-6.845851494741523
 42
0.3394542588634887
 10
309.5633414104664
 20
-6.220510073883787
 42
0.0
 10
309.6794901395714
 20
-5.787037115629285
 42
0.4931454260311745
 10
308.8645293332211
 20
-4.724959514923071
 42
0.0
 10
305.5246874173858
 20
-4.724959514923071
 42
0.0
 10
304.5321051904561
 20
-8.429326816514262
 42
0.0
 10
305.8346670321686
 20
-8.429326816514262
 42
0.0
 97
       11
330
B54
330
B53
330
B52
330
B5E
330
B59
330
B5D
330
B5C
330
B58
330
B5B
330
B51
330
B50
 92
       22
 72
     1
 73
     1
 93
        6
 10
306.350118406839
 20
-6.505636097412907
 42
0.0
 10
306.5923702613176
 20
-5.601539868271061
 42
0.0
 10
307.7071131276292
 20
-5.601539868271061
 42
-0.462218980900382
 10
308.0899722994699
 20
-6.048533139580795
 42
-0.2421880062400708
 10
307.7931890588374
 20
-6.453113429670082
 42
-0.0940682372986285
 10
307.5115193792067
 20
-6.505636097412917
 42
0.0
 97
        6
330
B4F
330
B4E
330
B4D
330
B4C
330
B4B
330
B4A
 92
        7
 72
     0
 73
     1
 93
        4
 10
311.7761469188456
 20
-4.734885337192224
 10
310.4338817880559
 20
-4.734885337192224
 10
309.4412995611266
 20
-8.439252638783586
 10
310.783564691916
 20
-8.439252638783586
 97
        4
330
B33
330
B5A
330
B57
330
B36
 92
        7
 72
     0
 73
     1
 93
       10
 10
313.0198978649303
 20
-6.678117402941971
 10
313.7270331713802
 20
-8.439252638783586
 10
315.001077911686
 20
-8.439252638783586
 10
315.9936601386156
 20
-4.734885337192224
 10
314.6782889990573
 20
-4.734885337192224
 10
314.2087993479577
 20
-6.487044568723415
 10
313.4992093332089
 20
-4.734885337192224
 10
312.2380234859427
 20
-4.734885337192224
 10
311.2454412590127
 20
-8.439252638783586
 10
312.5480031007252
 20
-8.439252638783586
 97
       10
330
B6C
330
B35
330
B34
330
B75
330
B74
330
B70
330
B73
330
B6B
330
B6A
330
B69
 92
        7
 72
     1
 73
     1
 93
       16
 10
317.4673994301424
 20
-5.986061120259527
 42
-0.2918088509345139
 10
317.8700904954582
 20
-5.698170980784649
 42
-0.0567825308446765
 10
319.871778645253
 20
-5.819676340248872
 42
0.0
 10
320.1357323675167
 20
-4.826410611025238
 42
0.0541842923752316
 10
317.0091787287168
 20
-4.811150237596638
 42
0.2748078422989353
 10
316.2230639866527
 20
-5.396150211487722
 42
0.0595537418812928
 10
315.6915875919295
 20
-7.274812249396859
 42
0.4195581459999278
 10
316.5062161288459
 20
-8.374042286866231
 42
0.0274034260658874
 10
317.2832668180675
 20
-8.439252638783586
 42
0.0
 10
319.1101486153352
 20
-8.439252638783586
 42
0.0
 10
319.6157359253169
 20
-6.552375110269338
 42
0.0
 10
318.0510137463202
 20
-6.552375110269338
 42
-0.1650444911529743
 10
317.9390974283795
 20
-7.459944378136816
 42
-0.287814602094675
 10
317.524673937565
 20
-7.720044630748546
 42
0.0
 10
317.4829837157293
 20
-7.720044630748546
 42
-0.4686158958349675
 10
317.1058211231207
 20
-7.267085685357963
 42
-0.0536408936041064
 97
       16
330
B68
330
B31
330
B76
330
B30
330
B67
330
B66
330
B72
330
B6F
330
B6E
330
B71
330
B65
330
B64
330
B63
330
B62
330
B61
330
B60
 75
     0
 76
     1
 52
0.0
 41
0.1
 77
     0
 78
     1
 53
45.0
 43
-0.3267299255882108
 44
-90.98483074064985
 45
-0.2245064030267288
 46
0.2245064030267288
 79
     0
 47
0.0661482101908399
 98
       12
 10
278.7471703982543
 20
-6.532835680744909
 10
283.8446727908214
 20
-6.334390872783927
 10
287.3533428548741
 20
-6.598983950065274
 10
291.1268190659174
 20
-6.202094334143197
 10
293.9734767981128
 20
-6.334390872783927
 10
297.2835430108275
 20
-6.202094334143197
 10
301.5866284802327
 20
-6.268242603463562
 10
306.0883193187855
 20
-6.268242603463562
 10
306.0883193187855
 20
-6.268242603463562
 10
310.7886140086763
 20
-6.268242603463562
 10
312.8408548177098
 20
-6.268242603463562
 10
317.210144100577
 20
-6.003649526182215
  0
TEXT
  5
AB0
330
1A
100
AcDbEntity
 67
     1
  8
RAHMEN025
100
AcDbText
 10
276.9239668347917
 20
9.88859591721635
 30
0.0
 40
2.5
  1
Gepr.
  7
ISO Proportional
100
AcDbText
  0
LINE
  5
AB1
330
1A
100
AcDbEntity
 67
     1
  8
RAHMEN025
100
AcDbLine
 10
286.8250332709076
 20
21.76359591721632
 30
0.0
 11
286.8250332709075
 21
0.513595917216378
 31
0.0
  0
LINE
  5
AB2
102
{ACAD_REACTORS
330
AA8
102
}
330
1A
100
AcDbEntity
 67
     1
  8
RAHMEN025
370
     9
100
AcDbLine
 10
287.5302400847571
 20
-0.3616436798445761
 30
0.0
 11
285.9357537749122
 21
-0.3616436798445761
 31
0.0
  0
LINE
  5
AB3
102
{ACAD_REACTORS
330
AA8
102
}
330
1A
100
AcDbEntity
 67
     1
  8
RAHMEN025
370
     9
100
AcDbLine
 10
287.5302400847571
 20
-0.3616436798445761
 30
0.0
 11
285.8712420658769
 21
-2.261942860025911
 31
0.0
  0
ARC
  5
AB4
102
{ACAD_REACTORS
330
AAF
102
}
330
1A
100
AcDbEntity
 67
     1
  8
Defpoints
370
    13
100
AcDbCircle
 10
287.4875207263974
 20
-5.764792080511341
 30
0.0
 40
0.9587608077068694
100
AcDbArc
 50
95.92334440423654
 51
157.3874044007997
  0
ARC
  5
AB5
102
{ACAD_REACTORS
330
AAF
102
}
330
1A
100
AcDbEntity
 67
     1
  8
Defpoints
370
    13
100
AcDbCircle
 10
287.0179967842836
 20
-7.42446467311494
 30
0.0
 40
0.9587608077068694
100
AcDbArc
 50
171.0200151799534
 51
262.0635437036931
  0
LWPOLYLINE
  5
AB6
102
{ACAD_REACTORS
330
AB7
102
}
330
1A
100
AcDbEntity
 67
     1
  8
RAHMEN025
 62
   154
370
     9
100
AcDbPolyline
 90
        4
 70
     1
 43
0.0
 10
279.0911514140546
 20
-1.783641299175698
 10
278.4956020778964
 20
-4.006261680130663
 10
281.9471409856412
 20
-4.006261680130663
 10
282.5426903217993
 20
-1.783641299175698
  0
HATCH
  5
AB7
330
1A
100
AcDbEntity
 67
     1
  8
RAHMEN025
 62
   154
370
     9
100
AcDbHatch
 10
0.0
 20
0.0
 30
0.0
210
0.0
220
0.0
230
1.0
  2
SOLID
 70
     1
 71
     1
 91
        1
 92
        7
 72
     0
 73
     1
 93
        4
 10
281.9471409856412
 20
-4.006261680130663
 10
282.5426903217994
 20
-1.783641299175698
 10
279.0911514140546
 20
-1.783641299175698
 10
278.4956020778964
 20
-4.006261680130663
 97
        1
330
AB6
 75
     0
 76
     1
 47
0.0587514446152511
 98
        1
 10
280.2990941538871
 20
-3.200276156100329
  0
LINE
  5
AB8
102
{ACAD_REACTORS
330
AAF
102
}
330
1A
100
AcDbEntity
 67
     1
  8
Defpoints
370
    13
100
AcDbLine
 10
282.0338345733777
 20
-4.734885337192224
 30
0.0
 11
278.2384946316276
 21
-4.734885337192224
 31
0.0
  0
LINE
  5
AB9
102
{ACAD_REACTORS
330
AAF
102
}
330
1A
100
AcDbEntity
 67
     1
  8
Defpoints
370
    13
100
AcDbLine
 10
277.245912404698
 20
-8.439252638783586
 30
0.0
 11
281.041252346448
 21
-8.439252638783586
 31
0.0
  0
LINE
  5
ABA
102
{ACAD_REACTORS
330
AAF
102
}
330
1A
100
AcDbEntity
 67
     1
  8
Defpoints
370
    13
100
AcDbLine
 10
278.2384946316276
 20
-4.734885337192224
 30
0.0
 11
277.2459124046976
 21
-8.439252638783586
 31
0.0
  0
LINE
  5
ABB
102
{ACAD_REACTORS
330
AA8
102
}
330
1A
100
AcDbEntity
 67
     1
  8
RAHMEN025
370
     9
100
AcDbLine
 10
285.8712420658769
 20
-2.261942860025911
 30
0.0
 11
286.5376578578271
 21
-4.066010981435994
 31
0.0
  0
LINE
  5
ABC
102
{ACAD_REACTORS
330
AA8
102
}
330
1A
100
AcDbEntity
 67
     1
  8
RAHMEN025
370
     9
100
AcDbLine
 10
285.0970574745333
 20
-4.066010981435994
 30
0.0
 11
286.5376578578271
 21
-4.066010981435994
 31
0.0
  0
LINE
  5
ABD
102
{ACAD_REACTORS
330
AA8
102
}
330
1A
100
AcDbEntity
 67
     1
  8
RAHMEN025
370
     9
100
AcDbLine
 10
285.0374619847193
 20
-0.3616436798445761
 30
0.0
 11
284.6396625834683
 21
-1.846251256533776
 31
0.0
  0
LINE
  5
ABE
102
{ACAD_REACTORS
330
AA8
102
}
330
1A
100
AcDbEntity
 67
     1
  8
RAHMEN025
370
     9
100
AcDbLine
 10
285.9357537749122
 20
-0.3616436798445761
 30
0.0
 11
284.6396625834683
 21
-1.846251256533776
 31
0.0
  0
ARC
  5
ABF
102
{ACAD_REACTORS
330
AAF
102
}
330
1A
100
AcDbEntity
 67
     1
  8
Defpoints
370
    13
100
AcDbCircle
 10
294.1951702042024
 20
-8.558647307878031
 30
0.0
 40
8.224997010073714
100
AcDbArc
 50
157.3874044007955
 51
171.0200151799534
  0
LINE
  5
AC0
102
{ACAD_REACTORS
330
AAF
102
}
330
1A
100
AcDbEntity
 67
     1
  8
Defpoints
370
    13
100
AcDbLine
 10
284.5356163056424
 20
-6.487044568723405
 30
0.0
 11
285.0051059567419
 21
-4.734885337192224
 31
0.0
  0
LINE
  5
AC1
102
{ACAD_REACTORS
330
AAF
102
}
330
1A
100
AcDbEntity
 67
     1
  8
Defpoints
370
    13
100
AcDbLine
 10
286.3204770963004
 20
-4.734885337192224
 30
0.0
 11
285.0051059567419
 21
-4.734885337192224
 31
0.0
  0
LINE
  5
AC2
102
{ACAD_REACTORS
330
AA8
102
}
330
1A
100
AcDbEntity
 67
     1
  8
RAHMEN025
370
     9
100
AcDbLine
 10
284.5044184221429
 20
-2.350989338027062
 30
0.0
 11
284.0448797577892
 21
-4.066010981435994
 31
0.0
  0
LINE
  5
AC3
102
{ACAD_REACTORS
330
AA8
102
}
330
1A
100
AcDbEntity
 67
     1
  8
RAHMEN025
370
     9
100
AcDbLine
 10
282.7026146269997
 20
-4.066010981435994
 30
0.0
 11
284.0448797577892
 21
-4.066010981435994
 31
0.0
  0
LINE
  5
AC4
102
{ACAD_REACTORS
330
AA8
102
}
330
1A
100
AcDbEntity
 67
     1
  8
RAHMEN025
370
     9
100
AcDbLine
 10
283.6951968539297
 20
-0.3616436798445761
 30
0.0
 11
282.7026146269997
 21
-4.066010981435994
 31
0.0
  0
LINE
  5
AC5
330
1A
100
AcDbEntity
 67
     1
  8
Defpoints
100
AcDbLine
 10
278.9455281703317
 20
-6.957427221365463
 30
0.0
 11
278.8314925140781
 21
-7.383014084377464
 31
0.0
  0
LINE
  5
AC6
102
{ACAD_REACTORS
330
AAF
102
}
330
1A
100
AcDbEntity
 67
     1
  8
Defpoints
370
    13
100
AcDbLine
 10
283.8260262908937
 20
-4.734885337192224
 30
0.0
 11
282.564840443627
 21
-4.734885337192224
 31
0.0
  0
LINE
  5
AC7
102
{ACAD_REACTORS
330
AAF
102
}
330
1A
100
AcDbEntity
 67
     1
  8
Defpoints
370
    13
100
AcDbLine
 10
281.4383062703695
 20
-6.957427221365463
 30
0.0
 11
281.6367003252796
 21
-6.217010528520162
 31
0.0
  0
LINE
  5
AC8
102
{ACAD_REACTORS
330
AAF
102
}
330
1A
100
AcDbEntity
 67
     1
  8
Defpoints
370
    13
100
AcDbLine
 10
278.9455281703317
 20
-6.957427221365463
 30
0.0
 11
281.4383062703695
 21
-6.957427221365463
 31
0.0
  0
LINE
  5
AC9
102
{ACAD_REACTORS
330
AAF
102
}
330
1A
100
AcDbEntity
 67
     1
  8
Defpoints
370
    13
100
AcDbLine
 10
278.9455281703317
 20
-6.957427221365463
 30
0.0
 11
278.8212165467118
 21
-7.421364516685684
 31
0.0
  0
LINE
  5
ACA
102
{ACAD_REACTORS
330
AAF
102
}
330
1A
100
AcDbEntity
 67
     1
  8
Defpoints
370
    13
100
AcDbLine
 10
278.8212165467118
 20
-7.421364516685684
 30
0.0
 11
281.324270614116
 21
-7.421364516685684
 31
0.0
  0
LINE
  5
ACB
102
{ACAD_REACTORS
330
AAF
102
}
330
1A
100
AcDbEntity
 67
     1
  8
Defpoints
370
    13
100
AcDbLine
 10
281.7607474000292
 20
-5.754060543024507
 30
0.0
 11
282.0338345733777
 21
-4.734885337192224
 31
0.0
  0
LINE
  5
ACC
102
{ACAD_REACTORS
330
AAF
102
}
330
1A
100
AcDbEntity
 67
     1
  8
Defpoints
370
    13
100
AcDbLine
 10
281.7607474000292
 20
-5.754060543024507
 30
0.0
 11
279.2576933326251
 21
-5.754060543024507
 31
0.0
  0
LINE
  5
ACD
102
{ACAD_REACTORS
330
AAF
102
}
330
1A
100
AcDbEntity
 67
     1
  8
Defpoints
370
    13
100
AcDbLine
 10
279.2679692999914
 20
-5.754060543024507
 30
0.0
 11
279.1439222252417
 21
-6.217010528520162
 31
0.0
  0
LINE
  5
ACE
102
{ACAD_REACTORS
330
AAF
102
}
330
1A
100
AcDbEntity
 67
     1
  8
Defpoints
370
    13
100
AcDbLine
 10
281.6367003252796
 20
-6.217010528520162
 30
0.0
 11
279.1439222252417
 21
-6.217010528520162
 31
0.0
  0
LINE
  5
ACF
102
{ACAD_REACTORS
330
AA8
102
}
330
1A
100
AcDbEntity
 67
     1
  8
RAHMEN025
370
     9
100
AcDbLine
 10
284.5044184221429
 20
-2.350989338027062
 30
0.0
 11
285.1330319464736
 21
-4.052722150530001
 31
0.0
  0
LINE
  5
AD0
102
{ACAD_REACTORS
330
AA8
102
}
330
1A
100
AcDbEntity
 67
     1
  8
RAHMEN025
370
     9
100
AcDbLine
 10
285.0374619847193
 20
-0.3616436798445761
 30
0.0
 11
283.6951968539297
 21
-0.3616436798445761
 31
0.0
  0
LINE
  5
AD1
102
{ACAD_REACTORS
330
AAF
102
}
330
1A
100
AcDbEntity
 67
     1
  8
Defpoints
370
    13
100
AcDbLine
 10
283.8260262908937
 20
-4.734885337192224
 30
0.0
 11
284.5356163056424
 21
-6.487044568723405
 31
0.0
  0
LINE
  5
AD2
102
{ACAD_REACTORS
330
AAF
102
}
330
1A
100
AcDbEntity
 67
     1
  8
Defpoints
370
    13
100
AcDbLine
 10
281.5722582166973
 20
-8.439252638783586
 30
0.0
 11
282.8748200584099
 21
-8.439252638783586
 31
0.0
  0
LINE
  5
AD3
102
{ACAD_REACTORS
330
AAF
102
}
330
1A
100
AcDbEntity
 67
     1
  8
Defpoints
370
    13
100
AcDbLine
 10
284.0538501290649
 20
-8.439252638783586
 30
0.0
 11
285.3278948693703
 21
-8.439252638783586
 31
0.0
  0
LINE
  5
AD4
102
{ACAD_REACTORS
330
AAF
102
}
330
1A
100
AcDbEntity
 67
     1
  8
Defpoints
370
    13
100
AcDbLine
 10
285.3278948693703
 20
-8.439252638783586
 30
0.0
 11
286.3204770962999
 21
-4.734885337192224
 31
0.0
  0
LINE
  5
AD5
102
{ACAD_REACTORS
330
AAF
102
}
330
1A
100
AcDbEntity
 67
     1
  8
Defpoints
370
    13
100
AcDbLine
 10
284.0538501290649
 20
-8.439252638783586
 30
0.0
 11
283.3467148226157
 21
-6.678117402942405
 31
0.0
  0
LINE
  5
AD6
102
{ACAD_REACTORS
330
AAF
102
}
330
1A
100
AcDbEntity
 67
     1
  8
Defpoints
370
    13
100
AcDbLine
 10
283.3467148226157
 20
-6.678117402942405
 30
0.0
 11
282.8748200584099
 21
-8.439252638783586
 31
0.0
  0
LINE
  5
AD7
102
{ACAD_REACTORS
330
AAF
102
}
330
1A
100
AcDbEntity
 67
     1
  8
Defpoints
370
    13
100
AcDbLine
 10
282.564840443627
 20
-4.734885337192224
 30
0.0
 11
281.5722582166973
 21
-8.439252638783586
 31
0.0
  0
LINE
  5
AD8
102
{ACAD_REACTORS
330
AAF
102
}
330
1A
100
AcDbEntity
 67
     1
  8
Defpoints
370
    13
100
AcDbLine
 10
281.041252346448
 20
-8.439252638783586
 30
0.0
 11
281.3139946467497
 21
-7.421364516685684
 31
0.0
  0
TEXT
  5
AD9
330
1A
100
AcDbEntity
 67
     1
  8
RAHMEN025
100
AcDbText
 10
276.9239668347917
 20
5.638595917216349
 30
0.0
 40
2.5
  1
Norm
  7
ISO Proportional
100
AcDbText
  0
LINE
  5
ADA
102
{ACAD_REACTORS
330
AA8
102
}
330
1A
100
AcDbEntity
 67
     1
  8
RAHMEN025
370
     9
100
AcDbLine
 10
294.4028188687052
 20
-4.066010981435994
 30
0.0
 11
295.706684613856
 21
-4.066010981435994
 31
0.0
  0
LINE
  5
ADB
102
{ACAD_REACTORS
330
AAF
102
}
330
1A
100
AcDbEntity
 67
     1
  8
Defpoints
370
    13
100
AcDbLine
 10
294.7160737778262
 20
-6.487044568723405
 30
0.0
 11
295.1855634289258
 21
-4.734885337192224
 31
0.0
  0
LINE
  5
ADC
102
{ACAD_REACTORS
330
AA8
102
}
330
1A
100
AcDbEntity
 67
     1
  8
RAHMEN025
370
     9
100
AcDbLine
 10
295.5194554153991
 20
-0.3616436798445761
 30
0.0
 11
293.0090165757968
 21
-0.3616436798445761
 31
0.0
  0
LINE
  5
ADD
102
{ACAD_REACTORS
330
AAF
102
}
330
1A
100
AcDbEntity
 67
     1
  8
Defpoints
370
    13
100
AcDbLine
 10
294.2343076012486
 20
-8.439252638783586
 30
0.0
 11
295.5083523415538
 21
-8.439252638783586
 31
0.0
  0
LINE
  5
ADE
102
{ACAD_REACTORS
330
AA8
102
}
330
1A
100
AcDbEntity
 67
     1
  8
RAHMEN025
370
     9
100
AcDbLine
 10
294.3354731924831
 20
-2.733563249147579
 30
0.0
 11
294.2487499539944
 21
-1.017726554906275
 31
0.0
  0
LINE
  5
ADF
102
{ACAD_REACTORS
330
AA8
102
}
330
1A
100
AcDbEntity
 67
     1
  8
RAHMEN025
370
     9
100
AcDbLine
 10
294.4028188687052
 20
-4.066010981435994
 30
0.0
 11
294.3761127793384
 21
-3.53762563865871
 31
0.0
  0
LINE
  5
AE0
102
{ACAD_REACTORS
330
AAF
102
}
330
1A
100
AcDbEntity
 67
     1
  8
Defpoints
370
    13
100
AcDbLine
 10
294.0064837630774
 20
-4.734885337192224
 30
0.0
 11
294.7160737778262
 21
-6.487044568723405
 31
0.0
  0
LINE
  5
AE1
102
{ACAD_REACTORS
330
AA8
102
}
330
1A
100
AcDbEntity
 67
     1
  8
RAHMEN025
370
     9
100
AcDbLine
 10
292.5841920400962
 20
-4.066010981435994
 30
0.0
 11
292.8727241718923
 21
-3.53762563865871
 31
0.0
  0
LINE
  5
AE2
102
{ACAD_REACTORS
330
AA8
102
}
330
1A
100
AcDbEntity
 67
     1
  8
RAHMEN025
370
     9
100
AcDbLine
 10
290.9861955246555
 20
-4.066010981435994
 30
0.0
 11
292.5841920400962
 21
-4.066010981435994
 31
0.0
  0
LINE
  5
AE3
102
{ACAD_REACTORS
330
AA8
102
}
330
1A
100
AcDbEntity
 67
     1
  8
RAHMEN025
370
     9
100
AcDbLine
 10
290.9861955246555
 20
-4.066010981435994
 30
0.0
 11
293.0090165757968
 21
-0.3616436798445761
 31
0.0
  0
LINE
  5
AE4
102
{ACAD_REACTORS
330
AA8
102
}
330
1A
100
AcDbEntity
 67
     1
  8
RAHMEN025
370
     9
100
AcDbLine
 10
289.177571759436
 20
-0.3616436798445761
 30
0.0
 11
289.8871617741848
 21
-2.113802911375728
 31
0.0
  0
LINE
  5
AE5
102
{ACAD_REACTORS
330
AA8
102
}
330
1A
100
AcDbEntity
 67
     1
  8
RAHMEN025
370
     9
100
AcDbLine
 10
289.8871617741848
 20
-2.113802911375728
 30
0.0
 11
290.3566514252844
 21
-0.3616436798445761
 31
0.0
  0
LINE
  5
AE6
102
{ACAD_REACTORS
330
AA8
102
}
330
1A
100
AcDbEntity
 67
     1
  8
RAHMEN025
370
     9
100
AcDbLine
 10
291.6720225648423
 20
-0.3616436798445761
 30
0.0
 11
290.3566514252844
 21
-0.3616436798445761
 31
0.0
  0
LINE
  5
AE7
102
{ACAD_REACTORS
330
AA8
102
}
330
1A
100
AcDbEntity
 67
     1
  8
RAHMEN025
370
     9
100
AcDbLine
 10
290.6794403379127
 20
-4.066010981435994
 30
0.0
 11
291.6720225648423
 21
-0.3616436798445761
 31
0.0
  0
LINE
  5
AE8
102
{ACAD_REACTORS
330
AA8
102
}
330
1A
100
AcDbEntity
 67
     1
  8
RAHMEN025
370
     9
100
AcDbLine
 10
289.4053955976073
 20
-4.066010981435994
 30
0.0
 11
290.6794403379127
 21
-4.066010981435994
 31
0.0
  0
LINE
  5
AE9
102
{ACAD_REACTORS
330
AA8
102
}
330
1A
100
AcDbEntity
 67
     1
  8
RAHMEN025
370
     9
100
AcDbLine
 10
289.4053955976073
 20
-4.066010981435994
 30
0.0
 11
288.6982602911574
 21
-2.304875745594756
 31
0.0
  0
LINE
  5
AEA
102
{ACAD_REACTORS
330
AA8
102
}
330
1A
100
AcDbEntity
 67
     1
  8
RAHMEN025
370
     9
100
AcDbLine
 10
288.6982602911574
 20
-2.304875745594756
 30
0.0
 11
288.2263655269521
 21
-4.066010981435994
 31
0.0
  0
LINE
  5
AEB
102
{ACAD_REACTORS
330
AA8
102
}
330
1A
100
AcDbEntity
 67
     1
  8
RAHMEN025
370
     9
100
AcDbLine
 10
286.9238036852397
 20
-4.066010981435994
 30
0.0
 11
288.2263655269521
 21
-4.066010981435994
 31
0.0
  0
LINE
  5
AEC
102
{ACAD_REACTORS
330
AA8
102
}
330
1A
100
AcDbEntity
 67
     1
  8
RAHMEN025
370
     9
100
AcDbLine
 10
287.9163859121693
 20
-0.3616436798445761
 30
0.0
 11
286.9238036852397
 21
-4.066010981435994
 31
0.0
  0
LINE
  5
AED
102
{ACAD_REACTORS
330
AA8
102
}
330
1A
100
AcDbEntity
 67
     1
  8
RAHMEN025
370
     9
100
AcDbLine
 10
289.177571759436
 20
-0.3616436798445761
 30
0.0
 11
287.9163859121693
 21
-0.3616436798445761
 31
0.0
  0
LINE
  5
AEE
102
{ACAD_REACTORS
330
AAF
102
}
330
1A
100
AcDbEntity
 67
     1
  8
Defpoints
370
    13
100
AcDbLine
 10
292.2834213487136
 20
-4.734885337192224
 30
0.0
 11
290.941156217924
 21
-4.734885337192224
 31
0.0
  0
ARC
  5
AEF
102
{ACAD_REACTORS
330
AAF
102
}
330
1A
100
AcDbEntity
 67
     1
  8
Defpoints
370
    13
100
AcDbCircle
 10
293.6192044064745
 20
-8.306904849092687
 30
0.0
 40
6.22149298766157
100
AcDbArc
 50
158.0969939507942
 51
170.4856136403678
  0
ARC
  5
AF0
102
{ACAD_REACTORS
330
AAF
102
}
330
1A
100
AcDbEntity
 67
     1
  8
Defpoints
370
    13
100
AcDbCircle
 10
287.8623837009112
 20
-7.336540307665785
 30
0.0
 40
0.3835043230827479
100
AcDbArc
 50
171.2985646492635
 51
270.0
  0
LINE
  5
AF1
102
{ACAD_REACTORS
330
AAF
102
}
330
1A
100
AcDbEntity
 67
     1
  8
Defpoints
370
    13
100
AcDbLine
 10
287.8623837009112
 20
-7.720044630748546
 30
0.0
 11
287.9040739227468
 21
-7.720044630748546
 31
0.0
  0
ARC
  5
AF2
102
{ACAD_REACTORS
330
AAF
102
}
330
1A
100
AcDbEntity
 67
     1
  8
Defpoints
370
    13
100
AcDbCircle
 10
287.9040739227468
 20
-7.25983944304906
 30
0.0
 40
0.4602051876992975
100
AcDbArc
 50
270.0
 51
334.2263645027491
  0
ARC
  5
AF3
102
{ACAD_REACTORS
330
AAF
102
}
330
1A
100
AcDbEntity
 67
     1
  8
Defpoints
370
    13
100
AcDbCircle
 10
287.0371686361714
 20
-6.841253069587224
 30
0.0
 40
1.422878199650913
100
AcDbArc
 50
334.2263645027383
 51
11.71383119333059
  0
LINE
  5
AF4
102
{ACAD_REACTORS
330
AAF
102
}
330
1A
100
AcDbEntity
 67
     1
  8
Defpoints
370
    13
100
AcDbLine
 10
288.430413731502
 20
-6.552375110269338
 30
0.0
 11
289.9951359104989
 21
-6.552375110269338
 31
0.0
  0
ARC
  5
AF5
102
{ACAD_REACTORS
330
AAF
102
}
330
1A
100
AcDbEntity
 67
     1
  8
Defpoints
370
    13
100
AcDbCircle
 10
288.8816526698004
 20
-19.20198142199204
 30
0.0
 40
14.46807838019826
100
AcDbArc
 50
83.51735091136804
 51
95.92334440423654
  0
LINE
  5
AF6
102
{ACAD_REACTORS
330
AAF
102
}
330
1A
100
AcDbEntity
 67
     1
  8
Defpoints
370
    13
100
AcDbLine
 10
290.2511786304348
 20
-5.819676340248989
 30
0.0
 11
290.5151323526985
 21
-4.826410611025295
 31
0.0
  0
ARC
  5
AF7
102
{ACAD_REACTORS
330
AAF
102
}
330
1A
100
AcDbEntity
 67
     1
  8
Defpoints
370
    13
100
AcDbCircle
 10
288.7171001553551
 20
-14.54346604295968
 30
0.0
 40
8.85764661435673
100
AcDbArc
 50
80.0265067162775
 51
93.02614479233048
  0
ARC
  5
AF8
102
{ACAD_REACTORS
330
AAF
102
}
330
1A
100
AcDbEntity
 67
     1
  8
Defpoints
370
    13
100
AcDbCircle
 10
288.2737854663728
 20
-6.157734435003561
 30
0.0
 40
0.4602051876992975
100
AcDbArc
 50
93.02614479233048
 51
158.0969939507942
  0
LINE
  5
AF9
102
{ACAD_REACTORS
330
AA8
102
}
330
1A
100
AcDbEntity
 67
     1
  8
RAHMEN025
370
     9
100
AcDbLine
 10
293.3117935717423
 20
-2.733563249147579
 30
0.0
 11
294.2487499539944
 21
-1.017726554906275
 31
0.0
  0
LINE
  5
AFA
102
{ACAD_REACTORS
330
AA8
102
}
330
1A
100
AcDbEntity
 67
     1
  8
RAHMEN025
370
     9
100
AcDbLine
 10
293.3117935717423
 20
-2.733563249147579
 30
0.0
 11
294.3354731924831
 21
-2.733563249147579
 31
0.0
  0
LINE
  5
AFB
102
{ACAD_REACTORS
330
AA8
102
}
330
1A
100
AcDbEntity
 67
     1
  8
RAHMEN025
370
     9
100
AcDbLine
 10
292.8727241718923
 20
-3.53762563865871
 30
0.0
 11
294.3761127793384
 21
-3.53762563865871
 31
0.0
  0
LINE
  5
AFC
102
{ACAD_REACTORS
330
AAF
102
}
330
1A
100
AcDbEntity
 67
     1
  8
Defpoints
370
    13
100
AcDbLine
 10
294.0064837630774
 20
-4.734885337192224
 30
0.0
 11
292.7452979158107
 21
-4.734885337192224
 31
0.0
  0
ARC
  5
AFD
330
1A
100
AcDbEntity
 67
     1
  8
Defpoints
100
AcDbCircle
 10
288.6642545976552
 20
-7.288739669535374
 30
0.0
 40
1.150512969248243
100
AcDbArc
 50
270.0
 51
270.0
  0
LINE
  5
AFE
102
{ACAD_REACTORS
330
AAF
102
}
330
1A
100
AcDbEntity
 67
     1
  8
Defpoints
370
    13
100
AcDbLine
 10
291.7527156888809
 20
-8.439252638783586
 30
0.0
 11
293.0552775305932
 21
-8.439252638783586
 31
0.0
  0
LINE
  5
AFF
102
{ACAD_REACTORS
330
AAF
102
}
330
1A
100
AcDbEntity
 67
     1
  8
Defpoints
370
    13
100
AcDbLine
 10
289.9485739909944
 20
-8.439252638783586
 30
0.0
 11
291.290839121784
 21
-8.439252638783586
 31
0.0
  0
LINE
  5
B00
102
{ACAD_REACTORS
330
AAF
102
}
330
1A
100
AcDbEntity
 67
     1
  8
Defpoints
370
    13
100
AcDbLine
 10
289.4895486005172
 20
-8.439252638783586
 30
0.0
 11
287.7605042693777
 21
-8.439252638783586
 31
0.0
  0
ARC
  5
B01
102
{ACAD_REACTORS
330
AAF
102
}
330
1A
100
AcDbEntity
 67
     1
  8
Defpoints
370
    13
100
AcDbCircle
 10
287.8686052876592
 20
-1.322978774098913
 30
0.0
 40
7.119253077153191
100
AcDbArc
 50
262.0635437036931
 51
271.6576250419802
  0
LINE
  5
B02
102
{ACAD_REACTORS
330
AAF
102
}
330
1A
100
AcDbEntity
 67
     1
  8
Defpoints
370
    13
100
AcDbLine
 10
294.2343076012486
 20
-8.439252638783586
 30
0.0
 11
293.5271722947989
 21
-6.678117402942405
 31
0.0
  0
LINE
  5
B03
102
{ACAD_REACTORS
330
AAF
102
}
330
1A
100
AcDbEntity
 67
     1
  8
Defpoints
370
    13
100
AcDbLine
 10
293.5271722947989
 20
-6.678117402942405
 30
0.0
 11
293.0552775305932
 21
-8.439252638783586
 31
0.0
  0
LINE
  5
B04
102
{ACAD_REACTORS
330
AAF
102
}
330
1A
100
AcDbEntity
 67
     1
  8
Defpoints
370
    13
100
AcDbLine
 10
292.7452979158107
 20
-4.734885337192224
 30
0.0
 11
291.7527156888809
 21
-8.439252638783586
 31
0.0
  0
LINE
  5
B05
102
{ACAD_REACTORS
330
AAF
102
}
330
1A
100
AcDbEntity
 67
     1
  8
Defpoints
370
    13
100
AcDbLine
 10
292.2834213487136
 20
-4.734885337192224
 30
0.0
 11
291.290839121784
 21
-8.439252638783586
 31
0.0
  0
LINE
  5
B06
102
{ACAD_REACTORS
330
AAF
102
}
330
1A
100
AcDbEntity
 67
     1
  8
Defpoints
370
    13
100
AcDbLine
 10
290.941156217924
 20
-4.734885337192224
 30
0.0
 11
289.9485739909944
 21
-8.439252638783586
 31
0.0
  0
LINE
  5
B07
102
{ACAD_REACTORS
330
AAF
102
}
330
1A
100
AcDbEntity
 67
     1
  8
Defpoints
370
    13
100
AcDbLine
 10
289.4895486005172
 20
-8.439252638783586
 30
0.0
 11
289.9951359104989
 21
-6.552375110269338
 31
0.0
  0
LINE
  5
B08
330
1A
100
AcDbEntity
 67
     1
  8
RAHMEN025
370
     9
100
AcDbLine
 10
301.7636658420701
 20
-2.584185564017531
 30
0.0
 11
301.6496301858168
 21
-3.00977242702973
 31
0.0
  0
LINE
  5
B09
102
{ACAD_REACTORS
330
AA8
102
}
330
1A
100
AcDbEntity
 67
     1
  8
RAHMEN025
370
     9
100
AcDbLine
 10
301.7636658420701
 20
-2.584185564017531
 30
0.0
 11
301.6393542184504
 21
-3.048122859337979
 31
0.0
  0
LINE
  5
B0A
102
{ACAD_REACTORS
330
AA8
102
}
330
1A
100
AcDbEntity
 67
     1
  8
RAHMEN025
370
     9
100
AcDbLine
 10
301.0566323033662
 20
-0.3616436798445761
 30
0.0
 11
300.0640500764366
 21
-4.066010981435994
 31
0.0
  0
LINE
  5
B0B
102
{ACAD_REACTORS
330
AA8
102
}
330
1A
100
AcDbEntity
 67
     1
  8
RAHMEN025
370
     9
100
AcDbLine
 10
302.0861069717298
 20
-1.380818885676802
 30
0.0
 11
301.9620598969807
 21
-1.8437688711725
 31
0.0
  0
LINE
  5
B0C
102
{ACAD_REACTORS
330
AA8
102
}
330
1A
100
AcDbEntity
 67
     1
  8
RAHMEN025
370
     9
100
AcDbLine
 10
298.0730664390939
 20
-0.3616436798445761
 30
0.0
 11
297.3896156679562
 21
-2.912316682202572
 31
0.0
  0
ARC
  5
B0D
102
{ACAD_REACTORS
330
AA8
102
}
330
1A
100
AcDbEntity
 67
     1
  8
RAHMEN025
370
     9
100
AcDbCircle
 10
297.7230087250997
 20
-3.001649082626272
 30
0.0
 40
0.3451538907744731
100
AcDbArc
 50
164.9999999999992
 51
270.0
  0
LINE
  5
B0E
102
{ACAD_REACTORS
330
AA8
102
}
330
1A
100
AcDbEntity
 67
     1
  8
RAHMEN025
370
     9
100
AcDbLine
 10
297.9441806190104
 20
-3.346802973400627
 30
0.0
 11
297.7230087250997
 21
-3.346802973400627
 31
0.0
  0
ARC
  5
B0F
102
{ACAD_REACTORS
330
AA8
102
}
330
1A
100
AcDbEntity
 67
     1
  8
RAHMEN025
370
     9
100
AcDbCircle
 10
297.9441806190104
 20
-3.001649082626272
 30
0.0
 40
0.3451538907744731
100
AcDbArc
 50
270.0
 51
344.9999999999992
  0
LINE
  5
B10
102
{ACAD_REACTORS
330
AA8
102
}
330
1A
100
AcDbEntity
 67
     1
  8
RAHMEN025
370
     9
100
AcDbLine
 10
298.2775736761538
 20
-3.090981483050043
 30
0.0
 11
299.0088975363944
 21
-0.3616436798445761
 31
0.0
  0
LINE
  5
B11
102
{ACAD_REACTORS
330
AA8
102
}
330
1A
100
AcDbEntity
 67
     1
  8
RAHMEN025
370
     9
100
AcDbLine
 10
300.47391393555
 20
-0.3616436798445761
 30
0.0
 11
299.0088975363944
 21
-0.3616436798445761
 31
0.0
  0
LINE
  5
B12
102
{ACAD_REACTORS
330
AA8
102
}
330
1A
100
AcDbEntity
 67
     1
  8
RAHMEN025
370
     9
100
AcDbLine
 10
299.7041557254271
 20
-3.234420429567293
 30
0.0
 11
300.47391393555
 21
-0.3616436798445761
 31
0.0
  0
ARC
  5
B13
102
{ACAD_REACTORS
330
AA8
102
}
330
1A
100
AcDbEntity
 67
     1
  8
RAHMEN025
370
     9
100
AcDbCircle
 10
298.7039765539972
 20
-2.966423228296406
 30
0.0
 40
1.035461672323419
100
AcDbArc
 50
278.5178280220953
 51
344.9999999999992
  0
ARC
  5
B14
102
{ACAD_REACTORS
330
AA8
102
}
330
1A
100
AcDbEntity
 67
     1
  8
RAHMEN025
370
     9
100
AcDbCircle
 10
297.8028627473003
 20
3.050262883248791
 30
0.0
 40
7.119253077153191
100
AcDbArc
 50
261.6882763531173
 51
278.5178280220953
  0
ARC
  5
B15
102
{ACAD_REACTORS
330
AA8
102
}
330
1A
100
AcDbEntity
 67
     1
  8
RAHMEN025
370
     9
100
AcDbCircle
 10
296.9123101719844
 20
-3.045520996819959
 30
0.0
 40
0.9587608077068694
100
AcDbArc
 50
164.9999999999992
 51
261.6882763531173
  0
LINE
  5
B16
102
{ACAD_REACTORS
330
AA8
102
}
330
1A
100
AcDbEntity
 67
     1
  8
RAHMEN025
370
     9
100
AcDbLine
 10
296.6388707047224
 20
-0.3616436798445761
 30
0.0
 11
295.9862183465868
 21
-2.797375440087563
 31
0.0
  0
LINE
  5
B17
102
{ACAD_REACTORS
330
AA8
102
}
330
1A
100
AcDbEntity
 67
     1
  8
RAHMEN025
370
     9
100
AcDbLine
 10
298.0730664390939
 20
-0.3616436798445761
 30
0.0
 11
296.6388707047224
 21
-0.3616436798445761
 31
0.0
  0
LINE
  5
B18
102
{ACAD_REACTORS
330
AA8
102
}
330
1A
100
AcDbEntity
 67
     1
  8
RAHMEN025
370
     9
100
AcDbLine
 10
295.7067824581095
 20
-4.067946849644769
 30
0.0
 11
295.5194554153991
 21
-0.3616436798445761
 31
0.0
  0
LINE
  5
B19
330
1A
100
AcDbEntity
 67
     1
  8
Defpoints
100
AcDbLine
 10
297.6863287339476
 20
-6.957427221365463
 30
0.0
 11
297.5722930776941
 21
-7.383014084377464
 31
0.0
  0
LINE
  5
B1A
330
1A
100
AcDbEntity
 67
     1
  8
Defpoints
100
AcDbLine
 10
301.9220641075016
 20
-6.957427221365463
 30
0.0
 11
301.8080284512486
 21
-7.383014084377464
 31
0.0
  0
LINE
  5
B1B
102
{ACAD_REACTORS
330
AAF
102
}
330
1A
100
AcDbEntity
 67
     1
  8
Defpoints
370
    13
100
AcDbLine
 10
301.9220641075016
 20
-6.957427221365463
 30
0.0
 11
301.797752483882
 21
-7.421364516685684
 31
0.0
  0
LINE
  5
B1C
102
{ACAD_REACTORS
330
AAF
102
}
330
1A
100
AcDbEntity
 67
     1
  8
Defpoints
370
    13
100
AcDbLine
 10
302.2445052371618
 20
-5.754060543024507
 30
0.0
 11
302.1204581624121
 21
-6.217010528520162
 31
0.0
  0
LINE
  5
B1D
102
{ACAD_REACTORS
330
AAF
102
}
330
1A
100
AcDbEntity
 67
     1
  8
Defpoints
370
    13
100
AcDbLine
 10
298.0087698636075
 20
-5.754060543024507
 30
0.0
 11
297.8847227888582
 21
-6.217010528520162
 31
0.0
  0
LINE
  5
B1E
102
{ACAD_REACTORS
330
AAF
102
}
330
1A
100
AcDbEntity
 67
     1
  8
Defpoints
370
    13
100
AcDbLine
 10
300.3775008888961
 20
-6.217010528520162
 30
0.0
 11
297.8847227888582
 21
-6.217010528520162
 31
0.0
  0
LINE
  5
B1F
102
{ACAD_REACTORS
330
AAF
102
}
330
1A
100
AcDbEntity
 67
     1
  8
Defpoints
370
    13
100
AcDbLine
 10
300.1791068339854
 20
-6.957427221365463
 30
0.0
 11
300.3775008888961
 21
-6.217010528520162
 31
0.0
  0
LINE
  5
B20
102
{ACAD_REACTORS
330
AAF
102
}
330
1A
100
AcDbEntity
 67
     1
  8
Defpoints
370
    13
100
AcDbLine
 10
297.6863287339476
 20
-6.957427221365463
 30
0.0
 11
300.1791068339854
 21
-6.957427221365463
 31
0.0
  0
LINE
  5
B21
102
{ACAD_REACTORS
330
AAF
102
}
330
1A
100
AcDbEntity
 67
     1
  8
Defpoints
370
    13
100
AcDbLine
 10
297.6863287339476
 20
-6.957427221365463
 30
0.0
 11
297.5620171103279
 21
-7.421364516685684
 31
0.0
  0
LINE
  5
B22
102
{ACAD_REACTORS
330
AAF
102
}
330
1A
100
AcDbEntity
 67
     1
  8
Defpoints
370
    13
100
AcDbLine
 10
297.5620171103279
 20
-7.421364516685684
 30
0.0
 11
300.0650711777319
 21
-7.421364516685684
 31
0.0
  0
LINE
  5
B23
102
{ACAD_REACTORS
330
AAF
102
}
330
1A
100
AcDbEntity
 67
     1
  8
Defpoints
370
    13
100
AcDbLine
 10
300.774635136994
 20
-4.734885337192224
 30
0.0
 11
296.9792951952437
 21
-4.734885337192224
 31
0.0
  0
LINE
  5
B24
102
{ACAD_REACTORS
330
AAF
102
}
330
1A
100
AcDbEntity
 67
     1
  8
Defpoints
370
    13
100
AcDbLine
 10
300.5015479636453
 20
-5.754060543024507
 30
0.0
 11
300.774635136994
 21
-4.734885337192224
 31
0.0
  0
LINE
  5
B25
102
{ACAD_REACTORS
330
AAF
102
}
330
1A
100
AcDbEntity
 67
     1
  8
Defpoints
370
    13
100
AcDbLine
 10
300.5015479636453
 20
-5.754060543024507
 30
0.0
 11
297.998493896241
 21
-5.754060543024507
 31
0.0
  0
LINE
  5
B26
102
{ACAD_REACTORS
330
AAF
102
}
330
1A
100
AcDbEntity
 67
     1
  8
Defpoints
370
    13
100
AcDbLine
 10
296.5009345684837
 20
-4.734885337192224
 30
0.0
 11
295.1855634289258
 21
-4.734885337192224
 31
0.0
  0
LINE
  5
B27
102
{ACAD_REACTORS
330
AAF
102
}
330
1A
100
AcDbEntity
 67
     1
  8
Defpoints
370
    13
100
AcDbLine
 10
295.986712968314
 20
-8.439252638783586
 30
0.0
 11
299.7820529100641
 21
-8.439252638783586
 31
0.0
  0
LINE
  5
B28
102
{ACAD_REACTORS
330
AAF
102
}
330
1A
100
AcDbEntity
 67
     1
  8
Defpoints
370
    13
100
AcDbLine
 10
301.2150305687981
 20
-4.734885337192224
 30
0.0
 11
300.222448341868
 21
-8.439252638783586
 31
0.0
  0
LINE
  5
B29
102
{ACAD_REACTORS
330
AAF
102
}
330
1A
100
AcDbEntity
 67
     1
  8
Defpoints
370
    13
100
AcDbLine
 10
299.7820529100641
 20
-8.439252638783586
 30
0.0
 11
300.0547952103658
 21
-7.421364516685684
 31
0.0
  0
LINE
  5
B2A
102
{ACAD_REACTORS
330
AAF
102
}
330
1A
100
AcDbEntity
 67
     1
  8
Defpoints
370
    13
100
AcDbLine
 10
296.9792951952437
 20
-4.734885337192224
 30
0.0
 11
295.986712968314
 21
-8.439252638783586
 31
0.0
  0
LINE
  5
B2B
102
{ACAD_REACTORS
330
AAF
102
}
330
1A
100
AcDbEntity
 67
     1
  8
Defpoints
370
    13
100
AcDbLine
 10
295.5083523415538
 20
-8.439252638783586
 30
0.0
 11
296.5009345684837
 21
-4.734885337192224
 31
0.0
  0
TEXT
  5
B2C
330
1A
100
AcDbEntity
 67
     1
  8
RAHMEN025
 48
1.5
100
AcDbText
 10
278.6754626589089
 20
24.64581158162059
 30
0.0
 40
2.5
  1
DIN ISO 2768-m
 41
0.65
  7
Stil1
100
AcDbText
  0
TEXT
  5
B2D
330
1A
100
AcDbEntity
 67
     1
  8
RAHMEN025
100
AcDbText
 10
276.9239668347917
 20
14.13859591721634
 30
0.0
 40
2.5
  1
Bearb.
  7
ISO Proportional
100
AcDbText
  0
TEXT
  5
B2E
330
1A
100
AcDbEntity
 67
     1
  8
RAHMEN025
 48
1.5
100
AcDbText
 10
287.7854127237974
 20
14.05047341248101
 30
0.0
 40
2.5
  1
10.10.2006
 41
0.65
  7
Stil1
100
AcDbText
  0
TEXT
  5
B2F
330
1A
100
AcDbEntity
 67
     1
  8
RAHMEN025
100
AcDbText
 10
290.652944125825
 20
18.38859591721634
 30
0.0
 40
2.5
  1
Datum
  7
ISO Proportional
100
AcDbText
  0
ARC
  5
B30
102
{ACAD_REACTORS
330
AAF
102
}
330
1A
100
AcDbEntity
 67
     1
  8
Defpoints
370
    13
100
AcDbCircle
 10
318.502252684619
 20
-19.20198142199204
 30
0.0
 40
14.46807838019826
100
AcDbArc
 50
83.51735091136804
 51
95.92334440423654
  0
ARC
  5
B31
102
{ACAD_REACTORS
330
AAF
102
}
330
1A
100
AcDbEntity
 67
     1
  8
Defpoints
370
    13
100
AcDbCircle
 10
318.3377001701734
 20
-14.54346604295968
 30
0.0
 40
8.85764661435673
100
AcDbArc
 50
80.0265067162775
 51
93.02614479233048
  0
ARC
  5
B32
102
{ACAD_REACTORS
330
AA8
102
}
330
1A
100
AcDbEntity
 67
     1
  8
RAHMEN025
370
     9
100
AcDbCircle
 10
308.7274270574397
 20
-1.205353190626766
 30
0.0
 40
0.8437095107820451
100
AcDbArc
 50
344.9999529879285
 51
90.0
  0
LINE
  5
B33
102
{ACAD_REACTORS
330
AAF
102
}
330
1A
100
AcDbEntity
 67
     1
  8
Defpoints
370
    13
100
AcDbLine
 10
311.7761469188455
 20
-4.734885337192224
 30
0.0
 11
310.433881788056
 21
-4.734885337192224
 31
0.0
  0
LINE
  5
B34
102
{ACAD_REACTORS
330
AAF
102
}
330
1A
100
AcDbEntity
 67
     1
  8
Defpoints
370
    13
100
AcDbLine
 10
311.2454412590127
 20
-8.439252638783586
 30
0.0
 11
312.5480031007252
 21
-8.439252638783586
 31
0.0
  0
LINE
  5
B35
102
{ACAD_REACTORS
330
AAF
102
}
330
1A
100
AcDbEntity
 67
     1
  8
Defpoints
370
    13
100
AcDbLine
 10
312.2380234859428
 20
-4.734885337192224
 30
0.0
 11
311.2454412590127
 21
-8.439252638783586
 31
0.0
  0
LINE
  5
B36
102
{ACAD_REACTORS
330
AAF
102
}
330
1A
100
AcDbEntity
 67
     1
  8
Defpoints
370
    13
100
AcDbLine
 10
311.7761469188455
 20
-4.734885337192224
 30
0.0
 11
310.783564691916
 21
-8.439252638783586
 31
0.0
  0
LINE
  5
B37
102
{ACAD_REACTORS
330
AA8
102
}
330
1A
100
AcDbEntity
 67
     1
  8
RAHMEN025
370
     9
100
AcDbLine
 10
306.2130161310572
 20
-2.142320262334592
 30
0.0
 11
306.4552679855363
 21
-1.238224033192523
 31
0.0
  0
LINE
  5
B38
102
{ACAD_REACTORS
330
AA8
102
}
330
1A
100
AcDbEntity
 67
     1
  8
RAHMEN025
370
     9
100
AcDbLine
 10
307.3793839052267
 20
-2.142320262334592
 30
0.0
 11
306.2130161310572
 21
-2.142320262334592
 31
0.0
  0
ARC
  5
B39
102
{ACAD_REACTORS
330
AA8
102
}
330
1A
100
AcDbEntity
 67
     1
  8
RAHMEN025
370
     9
100
AcDbCircle
 10
307.3769005057408
 20
-1.37410489696407
 30
0.0
 40
0.7682193793950698
100
AcDbArc
 50
270.1852188608381
 51
291.3103783431897
  0
ARC
  5
B3A
102
{ACAD_REACTORS
330
AA8
102
}
330
1A
100
AcDbEntity
 67
     1
  8
RAHMEN025
370
     9
100
AcDbCircle
 10
307.4113441326036
 20
-1.599120531695234
 30
0.0
 40
0.5483274067590241
100
AcDbArc
 50
296.5093598874432
 51
350.9662004601523
  0
ARC
  5
B3B
102
{ACAD_REACTORS
330
AA8
102
}
330
1A
100
AcDbEntity
 67
     1
  8
RAHMEN025
370
     9
100
AcDbCircle
 10
307.5713277483739
 20
-1.624556200140034
 30
0.0
 40
0.386334411403646
100
AcDbArc
 50
350.9662004601523
 51
90.1953042656462
  0
LINE
  5
B3C
102
{ACAD_REACTORS
330
AA8
102
}
330
1A
100
AcDbEntity
 67
     1
  8
RAHMEN025
370
     9
100
AcDbLine
 10
307.5700108518586
 20
-1.238224033192523
 30
0.0
 11
306.4552679855363
 21
-1.238224033192523
 31
0.0
  0
LINE
  5
B3D
102
{ACAD_REACTORS
330
AA8
102
}
330
1A
100
AcDbEntity
 67
     1
  8
RAHMEN025
370
     9
100
AcDbLine
 10
309.4262391346847
 20
-1.857194238805561
 30
0.0
 11
309.5423878637895
 21
-1.423721280551177
 31
0.0
  0
ARC
  5
B3E
102
{ACAD_REACTORS
330
AA8
102
}
330
1A
100
AcDbEntity
 67
     1
  8
RAHMEN025
370
     9
100
AcDbCircle
 10
308.6112783283345
 20
-1.638826148881037
 30
0.0
 40
0.8437095107820451
100
AcDbArc
 50
270.0
 51
345.0438139040562
  0
LINE
  5
B3F
102
{ACAD_REACTORS
330
AA8
102
}
330
1A
100
AcDbEntity
 67
     1
  8
RAHMEN025
370
     9
100
AcDbLine
 10
308.6112783283345
 20
-2.482535659663
 30
0.0
 11
307.8308601769958
 21
-2.482535659663
 31
0.0
  0
LINE
  5
B40
102
{ACAD_REACTORS
330
AA8
102
}
330
1A
100
AcDbEntity
 67
     1
  8
RAHMEN025
370
     9
100
AcDbLine
 10
307.8308601769958
 20
-2.482535659663
 30
0.0
 11
308.8343884722686
 21
-4.066010981435994
 31
0.0
  0
LINE
  5
B41
102
{ACAD_REACTORS
330
AA8
102
}
330
1A
100
AcDbEntity
 67
     1
  8
RAHMEN025
370
     9
100
AcDbLine
 10
307.125383985363
 20
-4.066010981435994
 30
0.0
 11
308.8343884722686
 21
-4.066010981435994
 31
0.0
  0
LINE
  5
B42
102
{ACAD_REACTORS
330
AA8
102
}
330
1A
100
AcDbEntity
 67
     1
  8
RAHMEN025
370
     9
100
AcDbLine
 10
306.1218556900905
 20
-2.482535659663
 30
0.0
 11
307.125383985363
 21
-4.066010981435994
 31
0.0
  0
LINE
  5
B43
102
{ACAD_REACTORS
330
AA8
102
}
330
1A
100
AcDbEntity
 67
     1
  8
RAHMEN025
370
     9
100
AcDbLine
 10
306.1218556900905
 20
-2.482535659663
 30
0.0
 11
305.6975647563869
 21
-4.066010981435994
 31
0.0
  0
LINE
  5
B44
102
{ACAD_REACTORS
330
AA8
102
}
330
1A
100
AcDbEntity
 67
     1
  8
RAHMEN025
370
     9
100
AcDbLine
 10
304.3950029146744
 20
-4.066010981435994
 30
0.0
 11
305.6975647563869
 21
-4.066010981435994
 31
0.0
  0
LINE
  5
B45
102
{ACAD_REACTORS
330
AA8
102
}
330
1A
100
AcDbEntity
 67
     1
  8
RAHMEN025
370
     9
100
AcDbLine
 10
305.3875851416039
 20
-0.3616436798445761
 30
0.0
 11
304.3950029146744
 21
-4.066010981435994
 31
0.0
  0
LINE
  5
B46
102
{ACAD_REACTORS
330
AA8
102
}
330
1A
100
AcDbEntity
 67
     1
  8
RAHMEN025
370
     9
100
AcDbLine
 10
308.7274270574397
 20
-0.3616436798445761
 30
0.0
 11
305.3875851416039
 21
-0.3616436798445761
 31
0.0
  0
LINE
  5
B47
102
{ACAD_REACTORS
330
AA8
102
}
330
1A
100
AcDbEntity
 67
     1
  8
RAHMEN025
370
     9
100
AcDbLine
 10
304.2564439421081
 20
-2.584185564017531
 30
0.0
 11
304.4548379970186
 21
-1.8437688711725
 31
0.0
  0
LINE
  5
B48
102
{ACAD_REACTORS
330
AA8
102
}
330
1A
100
AcDbEntity
 67
     1
  8
RAHMEN025
370
     9
100
AcDbLine
 10
303.8593900181866
 20
-4.066010981435994
 30
0.0
 11
304.1321323184882
 21
-3.048122859337979
 31
0.0
  0
LINE
  5
B49
102
{ACAD_REACTORS
330
AA8
102
}
330
1A
100
AcDbEntity
 67
     1
  8
RAHMEN025
370
     9
100
AcDbLine
 10
304.5788850717677
 20
-1.380818885676802
 30
0.0
 11
304.8519722451167
 21
-0.3616436798445761
 31
0.0
  0
LINE
  5
B4A
102
{ACAD_REACTORS
330
AAF
102
}
330
1A
100
AcDbEntity
 67
     1
  8
Defpoints
370
    13
100
AcDbLine
 10
306.3501184068389
 20
-6.505636097412917
 30
0.0
 11
306.5923702613175
 21
-5.601539868271061
 31
0.0
  0
LINE
  5
B4B
102
{ACAD_REACTORS
330
AAF
102
}
330
1A
100
AcDbEntity
 67
     1
  8
Defpoints
370
    13
100
AcDbLine
 10
307.5164861810084
 20
-6.505636097412917
 30
0.0
 11
306.3501184068389
 21
-6.505636097412917
 31
0.0
  0
ARC
  5
B4C
102
{ACAD_REACTORS
330
AAF
102
}
330
1A
100
AcDbEntity
 67
     1
  8
Defpoints
370
    13
100
AcDbCircle
 10
307.5140027815227
 20
-5.737420732042579
 30
0.0
 40
0.7682193793950698
100
AcDbArc
 50
270.1852188608381
 51
291.3103783431897
  0
ARC
  5
B4D
102
{ACAD_REACTORS
330
AAF
102
}
330
1A
100
AcDbEntity
 67
     1
  8
Defpoints
370
    13
100
AcDbCircle
 10
307.5484464083853
 20
-5.962436366773573
 30
0.0
 40
0.5483274067590241
100
AcDbArc
 50
296.5093598874432
 51
350.9662004601523
  0
ARC
  5
B4E
102
{ACAD_REACTORS
330
AAF
102
}
330
1A
100
AcDbEntity
 67
     1
  8
Defpoints
370
    13
100
AcDbCircle
 10
307.7084300241558
 20
-5.987872035218288
 30
0.0
 40
0.386334411403646
100
AcDbArc
 50
350.9662004601523
 51
90.1953042656462
  0
LINE
  5
B4F
102
{ACAD_REACTORS
330
AAF
102
}
330
1A
100
AcDbEntity
 67
     1
  8
Defpoints
370
    13
100
AcDbLine
 10
307.7071131276404
 20
-5.601539868271061
 30
0.0
 11
306.5923702613175
 21
-5.601539868271061
 31
0.0
  0
ARC
  5
B50
102
{ACAD_REACTORS
330
AAF
102
}
330
1A
100
AcDbEntity
 67
     1
  8
Defpoints
370
    13
100
AcDbCircle
 10
308.7483806041162
 20
-6.002141983959447
 30
0.0
 40
0.8437095107820451
100
AcDbArc
 50
270.0
 51
345.0438139040562
  0
LINE
  5
B51
102
{ACAD_REACTORS
330
AAF
102
}
330
1A
100
AcDbEntity
 67
     1
  8
Defpoints
370
    13
100
AcDbLine
 10
308.7483806041162
 20
-6.845851494741523
 30
0.0
 11
307.9679624527776
 21
-6.845851494741523
 31
0.0
  0
LINE
  5
B52
102
{ACAD_REACTORS
330
AAF
102
}
330
1A
100
AcDbEntity
 67
     1
  8
Defpoints
370
    13
100
AcDbLine
 10
308.8645293332214
 20
-4.724959514923071
 30
0.0
 11
305.5246874173857
 21
-4.724959514923071
 31
0.0
  0
ARC
  5
B53
102
{ACAD_REACTORS
330
AAF
102
}
330
1A
100
AcDbEntity
 67
     1
  8
Defpoints
370
    13
100
AcDbCircle
 10
308.8645293332214
 20
-5.568669025705034
 30
0.0
 40
0.8437095107820451
100
AcDbArc
 50
344.9999529879285
 51
90.0
  0
LINE
  5
B54
102
{ACAD_REACTORS
330
AAF
102
}
330
1A
100
AcDbEntity
 67
     1
  8
Defpoints
370
    13
100
AcDbLine
 10
309.5633414104664
 20
-6.220510073884099
 30
0.0
 11
309.6794901395713
 21
-5.787037115629487
 31
0.0
  0
LINE
  5
B55
102
{ACAD_REACTORS
330
AAF
102
}
330
1A
100
AcDbEntity
 67
     1
  8
Defpoints
370
    13
100
AcDbLine
 10
304.4148422075394
 20
-6.957427221365463
 30
0.0
 11
304.6132362624502
 21
-6.217010528520162
 31
0.0
  0
LINE
  5
B56
102
{ACAD_REACTORS
330
AAF
102
}
330
1A
100
AcDbEntity
 67
     1
  8
Defpoints
370
    13
100
AcDbLine
 10
304.7372833371996
 20
-5.754060543024507
 30
0.0
 11
305.0103705105481
 21
-4.734885337192224
 31
0.0
  0
LINE
  5
B57
102
{ACAD_REACTORS
330
AAF
102
}
330
1A
100
AcDbEntity
 67
     1
  8
Defpoints
370
    13
100
AcDbLine
 10
309.4412995611265
 20
-8.439252638783586
 30
0.0
 11
310.783564691916
 21
-8.439252638783586
 31
0.0
  0
LINE
  5
B58
102
{ACAD_REACTORS
330
AAF
102
}
330
1A
100
AcDbEntity
 67
     1
  8
Defpoints
370
    13
100
AcDbLine
 10
307.2624862611449
 20
-8.429326816514262
 30
0.0
 11
308.9714907480503
 21
-8.429326816514262
 31
0.0
  0
LINE
  5
B59
102
{ACAD_REACTORS
330
AAF
102
}
330
1A
100
AcDbEntity
 67
     1
  8
Defpoints
370
    13
100
AcDbLine
 10
304.5321051904561
 20
-8.429326816514262
 30
0.0
 11
305.8346670321686
 21
-8.429326816514262
 31
0.0
  0
LINE
  5
B5A
102
{ACAD_REACTORS
330
AAF
102
}
330
1A
100
AcDbEntity
 67
     1
  8
Defpoints
370
    13
100
AcDbLine
 10
310.433881788056
 20
-4.734885337192224
 30
0.0
 11
309.4412995611265
 21
-8.439252638783586
 31
0.0
  0
LINE
  5
B5B
102
{ACAD_REACTORS
330
AAF
102
}
330
1A
100
AcDbEntity
 67
     1
  8
Defpoints
370
    13
100
AcDbLine
 10
307.9679624527776
 20
-6.845851494741523
 30
0.0
 11
308.9714907480503
 21
-8.429326816514262
 31
0.0
  0
LINE
  5
B5C
102
{ACAD_REACTORS
330
AAF
102
}
330
1A
100
AcDbEntity
 67
     1
  8
Defpoints
370
    13
100
AcDbLine
 10
306.2589579658724
 20
-6.845851494741523
 30
0.0
 11
307.2624862611449
 21
-8.429326816514262
 31
0.0
  0
LINE
  5
B5D
102
{ACAD_REACTORS
330
AAF
102
}
330
1A
100
AcDbEntity
 67
     1
  8
Defpoints
370
    13
100
AcDbLine
 10
306.2589579658724
 20
-6.845851494741523
 30
0.0
 11
305.8346670321686
 21
-8.429326816514262
 31
0.0
  0
LINE
  5
B5E
102
{ACAD_REACTORS
330
AAF
102
}
330
1A
100
AcDbEntity
 67
     1
  8
Defpoints
370
    13
100
AcDbLine
 10
305.5246874173857
 20
-4.724959514923071
 30
0.0
 11
304.5294455743949
 21
-8.439252638783586
 31
0.0
  0
LINE
  5
B5F
102
{ACAD_REACTORS
330
AAF
102
}
330
1A
100
AcDbEntity
 67
     1
  8
Defpoints
370
    13
100
AcDbLine
 10
304.0177882836185
 20
-8.439252638783586
 30
0.0
 11
304.2905305839198
 21
-7.421364516685684
 31
0.0
  0
ARC
  5
B60
102
{ACAD_REACTORS
330
AAF
102
}
330
1A
100
AcDbEntity
 67
     1
  8
Defpoints
370
    13
100
AcDbCircle
 10
323.2398044212926
 20
-8.306904849092687
 30
0.0
 40
6.22149298766157
100
AcDbArc
 50
158.0969939507942
 51
170.4856136403678
  0
ARC
  5
B61
102
{ACAD_REACTORS
330
AAF
102
}
330
1A
100
AcDbEntity
 67
     1
  8
Defpoints
370
    13
100
AcDbCircle
 10
317.4829837157293
 20
-7.336540307665785
 30
0.0
 40
0.3835043230827479
100
AcDbArc
 50
171.2985646492635
 51
270.0
  0
LINE
  5
B62
102
{ACAD_REACTORS
330
AAF
102
}
330
1A
100
AcDbEntity
 67
     1
  8
Defpoints
370
    13
100
AcDbLine
 10
317.4829837157293
 20
-7.720044630748546
 30
0.0
 11
317.5246739375651
 21
-7.720044630748546
 31
0.0
  0
ARC
  5
B63
102
{ACAD_REACTORS
330
AAF
102
}
330
1A
100
AcDbEntity
 67
     1
  8
Defpoints
370
    13
100
AcDbCircle
 10
317.5246739375651
 20
-7.25983944304906
 30
0.0
 40
0.4602051876992975
100
AcDbArc
 50
270.0
 51
334.2263645027491
  0
ARC
  5
B64
102
{ACAD_REACTORS
330
AAF
102
}
330
1A
100
AcDbEntity
 67
     1
  8
Defpoints
370
    13
100
AcDbCircle
 10
316.6577686509899
 20
-6.841253069587224
 30
0.0
 40
1.422878199650913
100
AcDbArc
 50
334.2263645027383
 51
11.71383119333059
  0
LINE
  5
B65
102
{ACAD_REACTORS
330
AAF
102
}
330
1A
100
AcDbEntity
 67
     1
  8
Defpoints
370
    13
100
AcDbLine
 10
318.0510137463201
 20
-6.552375110269338
 30
0.0
 11
319.6157359253169
 21
-6.552375110269338
 31
0.0
  0
ARC
  5
B66
102
{ACAD_REACTORS
330
AAF
102
}
330
1A
100
AcDbEntity
 67
     1
  8
Defpoints
370
    13
100
AcDbCircle
 10
323.815770219021
 20
-8.558647307878031
 30
0.0
 40
8.224997010073714
100
AcDbArc
 50
157.3874044007955
 51
171.0200151799534
  0
ARC
  5
B67
102
{ACAD_REACTORS
330
AAF
102
}
330
1A
100
AcDbEntity
 67
     1
  8
Defpoints
370
    13
100
AcDbCircle
 10
317.1081207412155
 20
-5.764792080511341
 30
0.0
 40
0.9587608077068694
100
AcDbArc
 50
95.92334440423654
 51
157.3874044007997
  0
ARC
  5
B68
102
{ACAD_REACTORS
330
AAF
102
}
330
1A
100
AcDbEntity
 67
     1
  8
Defpoints
370
    13
100
AcDbCircle
 10
317.894385481191
 20
-6.157734435003561
 30
0.0
 40
0.4602051876992975
100
AcDbArc
 50
93.02614479233048
 51
158.0969939507942
  0
LINE
  5
B69
102
{ACAD_REACTORS
330
AAF
102
}
330
1A
100
AcDbEntity
 67
     1
  8
Defpoints
370
    13
100
AcDbLine
 10
313.4992093332089
 20
-4.734885337192224
 30
0.0
 11
314.2087993479577
 21
-6.487044568723405
 31
0.0
  0
LINE
  5
B6A
102
{ACAD_REACTORS
330
AAF
102
}
330
1A
100
AcDbEntity
 67
     1
  8
Defpoints
370
    13
100
AcDbLine
 10
314.2087993479577
 20
-6.487044568723405
 30
0.0
 11
314.6782889990573
 21
-4.734885337192224
 31
0.0
  0
LINE
  5
B6B
102
{ACAD_REACTORS
330
AAF
102
}
330
1A
100
AcDbEntity
 67
     1
  8
Defpoints
370
    13
100
AcDbLine
 10
315.9936601386156
 20
-4.734885337192224
 30
0.0
 11
314.6782889990573
 21
-4.734885337192224
 31
0.0
  0
LINE
  5
B6C
102
{ACAD_REACTORS
330
AAF
102
}
330
1A
100
AcDbEntity
 67
     1
  8
Defpoints
370
    13
100
AcDbLine
 10
313.4992093332089
 20
-4.734885337192224
 30
0.0
 11
312.2380234859428
 21
-4.734885337192224
 31
0.0
  0
ARC
  5
B6D
330
1A
100
AcDbEntity
 67
     1
  8
Defpoints
100
AcDbCircle
 10
318.2848546124736
 20
-7.288739669535374
 30
0.0
 40
1.150512969248243
100
AcDbArc
 50
270.0
 51
270.0
  0
LINE
  5
B6E
102
{ACAD_REACTORS
330
AAF
102
}
330
1A
100
AcDbEntity
 67
     1
  8
Defpoints
370
    13
100
AcDbLine
 10
319.1101486153352
 20
-8.439252638783586
 30
0.0
 11
317.2832668180468
 21
-8.439252638783586
 31
0.0
  0
ARC
  5
B6F
102
{ACAD_REACTORS
330
AAF
102
}
330
1A
100
AcDbEntity
 67
     1
  8
Defpoints
370
    13
100
AcDbCircle
 10
317.4892053024775
 20
-1.322978774098913
 30
0.0
 40
7.119253077153191
100
AcDbArc
 50
262.0635437036931
 51
268.3423749580197
  0
LINE
  5
B70
102
{ACAD_REACTORS
330
AAF
102
}
330
1A
100
AcDbEntity
 67
     1
  8
Defpoints
370
    13
100
AcDbLine
 10
313.7270331713801
 20
-8.439252638783586
 30
0.0
 11
315.0010779116859
 21
-8.439252638783586
 31
0.0
  0
LINE
  5
B71
102
{ACAD_REACTORS
330
AAF
102
}
330
1A
100
AcDbEntity
 67
     1
  8
Defpoints
370
    13
100
AcDbLine
 10
319.1101486153352
 20
-8.439252638783586
 30
0.0
 11
319.6157359253169
 21
-6.552375110269338
 31
0.0
  0
ARC
  5
B72
102
{ACAD_REACTORS
330
AAF
102
}
330
1A
100
AcDbEntity
 67
     1
  8
Defpoints
370
    13
100
AcDbCircle
 10
316.6385967991018
 20
-7.42446467311494
 30
0.0
 40
0.9587608077068694
100
AcDbArc
 50
171.0200151799534
 51
262.0635437036931
  0
LINE
  5
B73
102
{ACAD_REACTORS
330
AAF
102
}
330
1A
100
AcDbEntity
 67
     1
  8
Defpoints
370
    13
100
AcDbLine
 10
315.0010779116859
 20
-8.439252638783586
 30
0.0
 11
315.9936601386156
 21
-4.734885337192224
 31
0.0
  0
LINE
  5
B74
102
{ACAD_REACTORS
330
AAF
102
}
330
1A
100
AcDbEntity
 67
     1
  8
Defpoints
370
    13
100
AcDbLine
 10
313.7270331713801
 20
-8.439252638783586
 30
0.0
 11
313.0198978649309
 21
-6.678117402942405
 31
0.0
  0
LINE
  5
B75
102
{ACAD_REACTORS
330
AAF
102
}
330
1A
100
AcDbEntity
 67
     1
  8
Defpoints
370
    13
100
AcDbLine
 10
313.0198978649309
 20
-6.678117402942405
 30
0.0
 11
312.5480031007252
 21
-8.439252638783586
 31
0.0
  0
LINE
  5
B76
102
{ACAD_REACTORS
330
AAF
102
}
330
1A
100
AcDbEntity
 67
     1
  8
Defpoints
370
    13
100
AcDbLine
 10
319.8717786452529
 20
-5.819676340248989
 30
0.0
 11
320.1357323675167
 21
-4.826410611025295
 31
0.0
  0
TEXT
  5
B77
330
1A
100
AcDbEntity
 67
     1
  8
RAHMEN025
 48
1.5
100
AcDbText
 10
304.3113096685852
 20
14.05047341248101
 30
0.0
 40
2.5
  1
Hornung
 41
0.8
  7
Stil1
100
AcDbText
  0
TEXT
  5
B78
330
1A
100
AcDbEntity
 67
     1
  8
RAHMEN025
100
AcDbText
 10
307.198355422296
 20
18.38859591721634
 30
0.0
 40
2.5
  1
Name
  7
ISO Proportional
100
AcDbText
  0
TEXT
  5
B79
330
1A
100
AcDbEntity
 67
     1
  8
RAHMEN025
 62
     6
 48
1.5
370
    35
100
AcDbText
 10
389.4474810979918
 20
34.30935755983003
 30
0.0
 40
2.5
  1
ca. 6,5 kg
 41
0.8
  7
Stil1
100
AcDbText
  0
LINE
  5
B7A
330
1A
100
AcDbEntity
 67
     1
  8
RAHMEN025
100
AcDbLine
 10
372.6250332709076
 20
38.76359591721629
 30
0.0
 11
372.6250332709076
 21
32.38859591721634
 31
0.0
  0
TEXT
  5
B7B
330
1A
100
AcDbEntity
 67
     1
  8
RAHMEN025
 62
     6
 48
1.5
370
    35
100
AcDbText
 10
343.4774550204497
 20
34.30935755983003
 30
0.0
 40
2.5
  1
%
 41
0.8
  7
Stil1
100
AcDbText
  0
TEXT
  5
B7C
330
1A
100
AcDbEntity
 67
     1
  8
RAHMEN025
100
AcDbText
 10
373.7512931733991
 20
34.32609591721635
 30
0.0
 40
2.5
  1
Gewicht:
  7
ISO Proportional
100
AcDbText
  0
TEXT
  5
B7D
330
1A
100
AcDbEntity
 67
     1
  8
RAHMEN025
100
AcDbText
 10
396.9334927620299
 20
-2.854209632689929
 30
0.0
 40
2.5
  1
Blatt
  7
ISO Proportional
100
AcDbText
  0
LINE
  5
B7E
330
1A
100
AcDbEntity
 67
     1
  8
RAHMEN025
100
AcDbLine
 10
396.0250332709073
 20
-7.98640408278365
 30
0.0
 11
409.0250332709073
 21
-7.98640408278365
 31
0.0
  0
TEXT
  5
B7F
330
1A
100
AcDbEntity
 67
     1
  8
RAHMEN025
100
AcDbText
 10
396.9372927542294
 20
-11.23061324722971
 30
0.0
 40
2.5
  1
Blätter
  7
ISO Proportional
100
AcDbText
  0
LINE
  5
B80
330
1A
100
AcDbEntity
 67
     1
  8
RAHMEN025
100
AcDbLine
 10
396.0250332709075
 20
0.5135959172163213
 30
0.0
 11
396.0250332709075
 21
-12.23640408278365
 31
0.0
  0
TEXT
  5
B81
330
1A
100
AcDbEntity
 67
     1
  8
RAHMEN025
100
AcDbText
 10
366.5017333149001
 20
-15.61140408278365
 30
0.0
 40
2.5
  1
Ersatz durch:
  7
ISO Proportional
100
AcDbText
  0
LINE
  5
B82
330
1A
100
AcDbEntity
 67
     1
  8
RAHMEN025
100
AcDbLine
 10
364.8250332709074
 20
-12.23640408278365
 30
0.0
 11
364.8250332709074
 21
-16.48640408278373
 31
0.0
  0
TEXT
  5
B83
330
1A
100
AcDbEntity
 67
     1
  8
RAHMEN05
 48
1.5
100
AcDbText
 10
338.3114685021594
 20
7.354021045260907
 30
0.0
 40
5.0
  1
Rüttler RZ 30
 41
0.7
  7
Stil1
100
AcDbText
  0
TEXT
  5
B84
330
1A
100
AcDbEntity
 67
     1
  8
RAHMEN05
 48
1.5
100
AcDbText
 10
346.6958109969546
 20
-8.445537432930763
 30
0.0
 40
5.0
  1
514009
 41
0.8
  7
Stil1
100
AcDbText
  0
TEXT
  5
B85
330
1A
100
AcDbEntity
 67
     1
  8
RAHMEN025
 62
     6
 48
1.5
370
    35
100
AcDbText
 10
343.4774550204497
 20
25.57269440789085
 30
0.0
 40
3.5
  1
%
 41
0.8
  7
Stil1
100
AcDbText
  0
LINE
  5
B86
330
1A
100
AcDbEntity
 67
     1
  8
RAHMEN07
100
AcDbLine
 10
409.0250332709073
 20
-16.48640408278365
 30
0.0
 11
409.0250332709073
 21
270.5135959172163
 31
0.0
  0
LINE
  5
B87
330
1A
100
AcDbEntity
 67
     1
  8
RAHMEN025
100
AcDbLine
 10
414.0250332709073
 20
-21.48640408278365
 30
0.0
 11
414.0250332709073
 21
275.5135959172163
 31
0.0
  0
ENDSEC
  0
SECTION
  2
OBJECTS
  0
DICTIONARY
  5
C
330
0
100
AcDbDictionary
281
     1
  3
ACAD_GROUP
350
D
  3
ACAD_IMAGE_VARS
350
C01
  3
ACAD_LAYOUT
350
19
  3
ACAD_MLINESTYLE
350
16
  3
ACAD_PLOTSETTINGS
350
18
  3
ACAD_PLOTSTYLENAME
350
E
  3
ACAD_SCALELIST
350
BBC
  3
AcDbVariableDictionary
350
2A8
  3
APPDATA
350
BFF
  3
DWGPROPS
350
C4B
  0
DICTIONARY
  5
45F
330
2
100
AcDbDictionary
280
     1
281
     1
  3
ACAD_LAYERFILTERS
360
460
  3
ACAD_LAYERSTATES
360
46F
  0
DICTIONARY
  5
D
102
{ACAD_REACTORS
330
C
102
}
330
C
100
AcDbDictionary
281
     1
  0
RASTERVARIABLES
  5
C01
102
{ACAD_REACTORS
330
C
102
}
330
C
100
AcDbRasterVariables
 90
        0
 70
     1
 71
     1
 72
     0
  0
DICTIONARY
  5
19
102
{ACAD_REACTORS
330
C
102
}
330
C
100
AcDbDictionary
281
     1
  3
Layout1
350
1D
  3
Model
350
21
  0
DICTIONARY
  5
16
102
{ACAD_REACTORS
330
C
102
}
330
C
100
AcDbDictionary
281
     1
  3
Standard
350
17
  0
DICTIONARY
  5
18
102
{ACAD_REACTORS
330
C
102
}
330
C
100
AcDbDictionary
281
     1
  0
ACDBDICTIONARYWDFLT
  5
E
102
{ACAD_REACTORS
330
C
102
}
330
C
100
AcDbDictionary
281
     1
  3
Normal
350
F
100
AcDbDictionaryWithDefault
340
F
  0
DICTIONARY
  5
BBC
102
{ACAD_REACTORS
330
C
102
}
330
C
100
AcDbDictionary
281
     1
  3
A0
350
BBD
  3
A1
350
BBE
  3
A2
350
BBF
  3
A3
350
BC0
  3
A4
350
BC1
  3
A5
350
BC2
  3
A6
350
BC3
  3
A7
350
BC4
  3
A8
350
BC5
  3
A9
350
BC6
  3
B0
350
BC7
  3
B1
350
BC8
  3
B2
350
BC9
  3
B3
350
BCA
  3
B4
350
BCB
  3
B5
350
BCC
  3
B6
350
BCD
  3
B7
350
BCE
  3
B8
350
BCF
  3
B9
350
BD0
  3
C0
350
BD1
  3
C1
350
BD2
  3
C2
350
BD3
  3
C3
350
BD4
  3
C4
350
BD5
  3
C5
350
BD6
  3
C6
350
BD7
  3
C7
350
BD8
  3
C8
350
BD9
  3
C9
350
BDA
  3
D0
350
BDB
  3
D1
350
BDC
  3
D2
350
BDD
  0
DICTIONARY
  5
2A8
102
{ACAD_REACTORS
330
C
102
}
330
C
100
AcDbDictionary
281
     1
  3
DIMASSOC
350
2A9
  0
DICTIONARY
  5
BFF
102
{ACAD_REACTORS
330
C
102
}
330
C
100
AcDbDictionary
281
     1
  0
XRECORD
  5
C4B
102
{ACAD_REACTORS
330
C
102
}
330
C
100
AcDbXrecord
280
     1
  1
DWGPROPS COOKIE
  2

  3

  4

  6

  7

  8
theodor.kuschma
  9

300
=
301
=
302
=
303
=
304
=
305
=
306
=
307
=
308
=
309
=
 40
0.0
 41
2453936.262184792
 42
2456966.633513924
  1

 90
        0
  0
DICTIONARY
  5
460
102
{ACAD_REACTORS
330
45F
102
}
330
45F
100
AcDbDictionary
280
     1
281
     1
  3
025
360
461
  3
035
360
462
  3
050
360
463
  3
070
360
464
  3
mmMC
360
465
  3
mmRS
360
466
  3
mmTxt
360
467
  3
XREF UIT
360
468
  3
XREFOUT
360
469
  0
DICTIONARY
  5
46F
102
{ACAD_REACTORS
330
45F
102
}
330
45F
100
AcDbDictionary
281
     1
  0
LAYOUT
  5
1D
102
{ACAD_REACTORS
330
19
102
}
330
19
100
AcDbPlotSettings
  1

  2
DesignJet 600 C2847A.pc3
  4
ISO_A3_(420.00_x_297.00_MM)
  6

 40
5.793749809265136
 41
17.79375076293945
 42
5.79376220703125
 43
17.79376220703125
 44
420.0
 45
297.0
 46
0.0
 47
0.0
 48
0.0
 49
0.0
140
0.0
141
0.0
142
1.0
143
1.0
 70
   688
 72
     1
 73
     0
 74
     5
  7

 75
     0
147
1.0
148
0.0
149
0.0
100
AcDbLayout
  1
Layout1
 70
     0
 71
     1
 10
-5.793749809265136
 20
-17.79375076293945
 11
414.2062501907349
 21
279.2062492370605
 12
0.0
 22
0.0
 32
0.0
 14
-5.97496672909267
 24
-21.48640408278365
 34
0.0
 15
414.0250332709073
 25
275.5135959172163
 35
0.0
146
0.0
 13
0.0
 23
0.0
 33
0.0
 16
1.0
 26
0.0
 36
0.0
 17
0.0
 27
1.0
 37
0.0
 76
     0
330
1A
331
95E
  0
LAYOUT
  5
21
102
{ACAD_REACTORS
330
19
102
}
330
19
100
AcDbPlotSettings
  1

  2
none_device
  4
Letter_(8.50_x_11.00_Inches)
  6

 40
6.35
 41
6.35
 42
6.35
 43
6.35
 44
215.9
 45
279.4
 46
0.0
 47
0.0
 48
0.0
 49
0.0
140
0.0
141
0.0
142
1.0
143
68.64056499860529
 70
  1712
 72
     0
 73
     1
 74
     0
  7

 75
     0
147
0.0145686446494186
148
2096.882828512352
149
-5.15736641233459
100
AcDbLayout
  1
Model
 70
     1
 71
     0
 10
0.0
 20
0.0
 11
12.0
 21
9.0
 12
0.0
 22
0.0
 32
0.0
 14
0.0
 24
0.0
 34
0.0
 15
0.0
 25
0.0
 35
0.0
146
0.0
 13
0.0
 23
0.0
 33
0.0
 16
1.0
 26
0.0
 36
0.0
 17
0.0
 27
1.0
 37
0.0
 76
     0
330
1E
331
B89
  0
MLINESTYLE
  5
17
102
{ACAD_REACTORS
330
16
102
}
330
16
100
AcDbMlineStyle
  2
STANDARD
 70
     0
  3

 62
   256
 51
90.0
 52
90.0
 71
     2
 49
0.5
 62
   256
  6
BYLAYER
 49
-0.5
 62
   256
  6
BYLAYER
  0
ACDBPLACEHOLDER
  5
F
102
{ACAD_REACTORS
330
E
102
}
330
E
  0
SCALE
  5
BBD
102
{ACAD_REACTORS
330
BBC
102
}
330
BBC
100
AcDbScale
 70
     0
300
1:1
140
1.0
141
1.0
290
     1
  0
SCALE
  5
BBE
102
{ACAD_REACTORS
330
BBC
102
}
330
BBC
100
AcDbScale
 70
     0
300
1:2
140
1.0
141
2.0
290
     0
  0
SCALE
  5
BBF
102
{ACAD_REACTORS
330
BBC
102
}
330
BBC
100
AcDbScale
 70
     0
300
1:4
140
1.0
141
4.0
290
     0
  0
SCALE
  5
BC0
102
{ACAD_REACTORS
330
BBC
102
}
330
BBC
100
AcDbScale
 70
     0
300
1:5
140
1.0
141
5.0
290
     0
  0
SCALE
  5
BC1
102
{ACAD_REACTORS
330
BBC
102
}
330
BBC
100
AcDbScale
 70
     0
300
1:8
140
1.0
141
8.0
290
     0
  0
SCALE
  5
BC2
102
{ACAD_REACTORS
330
BBC
102
}
330
BBC
100
AcDbScale
 70
     0
300
1:10
140
1.0
141
10.0
290
     0
  0
SCALE
  5
BC3
102
{ACAD_REACTORS
330
BBC
102
}
330
BBC
100
AcDbScale
 70
     0
300
1:16
140
1.0
141
16.0
290
     0
  0
SCALE
  5
BC4
102
{ACAD_REACTORS
330
BBC
102
}
330
BBC
100
AcDbScale
 70
     0
300
1:20
140
1.0
141
20.0
290
     0
  0
SCALE
  5
BC5
102
{ACAD_REACTORS
330
BBC
102
}
330
BBC
100
AcDbScale
 70
     0
300
1:30
140
1.0
141
30.0
290
     0
  0
SCALE
  5
BC6
102
{ACAD_REACTORS
330
BBC
102
}
330
BBC
100
AcDbScale
 70
     0
300
1:40
140
1.0
141
40.0
290
     0
  0
SCALE
  5
BC7
102
{ACAD_REACTORS
330
BBC
102
}
330
BBC
100
AcDbScale
 70
     0
300
1:50
140
1.0
141
50.0
290
     0
  0
SCALE
  5
BC8
102
{ACAD_REACTORS
330
BBC
102
}
330
BBC
100
AcDbScale
 70
     0
300
1:100
140
1.0
141
100.0
290
     0
  0
SCALE
  5
BC9
102
{ACAD_REACTORS
330
BBC
102
}
330
BBC
100
AcDbScale
 70
     0
300
2:1
140
2.0
141
1.0
290
     0
  0
SCALE
  5
BCA
102
{ACAD_REACTORS
330
BBC
102
}
330
BBC
100
AcDbScale
 70
     0
300
4:1
140
4.0
141
1.0
290
     0
  0
SCALE
  5
BCB
102
{ACAD_REACTORS
330
BBC
102
}
330
BBC
100
AcDbScale
 70
     0
300
8:1
140
8.0
141
1.0
290
     0
  0
SCALE
  5
BCC
102
{ACAD_REACTORS
330
BBC
102
}
330
BBC
100
AcDbScale
 70
     0
300
10:1
140
10.0
141
1.0
290
     0
  0
SCALE
  5
BCD
102
{ACAD_REACTORS
330
BBC
102
}
330
BBC
100
AcDbScale
 70
     0
300
100:1
140
100.0
141
1.0
290
     0
  0
SCALE
  5
BCE
102
{ACAD_REACTORS
330
BBC
102
}
330
BBC
100
AcDbScale
 70
     0
300
1/128" = 1'-0"
140
0.0078125
141
12.0
290
     0
  0
SCALE
  5
BCF
102
{ACAD_REACTORS
330
BBC
102
}
330
BBC
100
AcDbScale
 70
     0
300
1/64" = 1'-0"
140
0.015625
141
12.0
290
     0
  0
SCALE
  5
BD0
102
{ACAD_REACTORS
330
BBC
102
}
330
BBC
100
AcDbScale
 70
     0
300
1/32" = 1'-0"
140
0.03125
141
12.0
290
     0
  0
SCALE
  5
BD1
102
{ACAD_REACTORS
330
BBC
102
}
330
BBC
100
AcDbScale
 70
     0
300
1/16" = 1'-0"
140
0.0625
141
12.0
290
     0
  0
SCALE
  5
BD2
102
{ACAD_REACTORS
330
BBC
102
}
330
BBC
100
AcDbScale
 70
     0
300
3/32" = 1'-0"
140
0.09375
141
12.0
290
     0
  0
SCALE
  5
BD3
102
{ACAD_REACTORS
330
BBC
102
}
330
BBC
100
AcDbScale
 70
     0
300
1/8" = 1'-0"
140
0.125
141
12.0
290
     0
  0
SCALE
  5
BD4
102
{ACAD_REACTORS
330
BBC
102
}
330
BBC
100
AcDbScale
 70
     0
300
3/16" = 1'-0"
140
0.1875
141
12.0
290
     0
  0
SCALE
  5
BD5
102
{ACAD_REACTORS
330
BBC
102
}
330
BBC
100
AcDbScale
 70
     0
300
1/4" = 1'-0"
140
0.25
141
12.0
290
     0
  0
SCALE
  5
BD6
102
{ACAD_REACTORS
330
BBC
102
}
330
BBC
100
AcDbScale
 70
     0
300
3/8" = 1'-0"
140
0.375
141
12.0
290
     0
  0
SCALE
  5
BD7
102
{ACAD_REACTORS
330
BBC
102
}
330
BBC
100
AcDbScale
 70
     0
300
1/2" = 1'-0"
140
0.5
141
12.0
290
     0
  0
SCALE
  5
BD8
102
{ACAD_REACTORS
330
BBC
102
}
330
BBC
100
AcDbScale
 70
     0
300
3/4" = 1'-0"
140
0.75
141
12.0
290
     0
  0
SCALE
  5
BD9
102
{ACAD_REACTORS
330
BBC
102
}
330
BBC
100
AcDbScale
 70
     0
300
1" = 1'-0"
140
1.0
141
12.0
290
     0
  0
SCALE
  5
BDA
102
{ACAD_REACTORS
330
BBC
102
}
330
BBC
100
AcDbScale
 70
     0
300
1-1/2" = 1'-0"
140
1.5
141
12.0
290
     0
  0
SCALE
  5
BDB
102
{ACAD_REACTORS
330
BBC
102
}
330
BBC
100
AcDbScale
 70
     0
300
3" = 1'-0"
140
3.0
141
12.0
290
     0
  0
SCALE
  5
BDC
102
{ACAD_REACTORS
330
BBC
102
}
330
BBC
100
AcDbScale
 70
     0
300
6" = 1'-0"
140
6.0
141
12.0
290
     0
  0
SCALE
  5
BDD
102
{ACAD_REACTORS
330
BBC
102
}
330
BBC
100
AcDbScale
 70
     0
300
1'-0" = 1'-0"
140
12.0
141
12.0
290
     0
  0
DICTIONARYVAR
  5
2A9
102
{ACAD_REACTORS
330
2A8
102
}
330
2A8
100
DictionaryVariables
280
     0
  1
1
  0
XRECORD
  5
461
102
{ACAD_REACTORS
330
460
102
}
330
460
100
AcDbXrecord
280
     1
  1
025
  1
*_025
  1
*
  1
*
 70
     0
  1
*
  1
*
  0
XRECORD
  5
462
102
{ACAD_REACTORS
330
460
102
}
330
460
100
AcDbXrecord
280
     1
  1
035
  1
*_035
  1
*
  1
*
 70
     0
  1
*
  1
*
  0
XRECORD
  5
463
102
{ACAD_REACTORS
330
460
102
}
330
460
100
AcDbXrecord
280
     1
  1
050
  1
*_050
  1
*
  1
*
 70
     0
  1
*
  1
*
  0
XRECORD
  5
464
102
{ACAD_REACTORS
330
460
102
}
330
460
100
AcDbXrecord
280
     1
  1
070
  1
*_070
  1
*
  1
*
 70
     0
  1
*
  1
*
  0
XRECORD
  5
465
102
{ACAD_REACTORS
330
460
102
}
330
460
100
AcDbXrecord
280
     1
  1
mmMC
  1
MC_*
  1
*
  1
*
 70
     0
  1
*
  1
*
  0
XRECORD
  5
466
102
{ACAD_REACTORS
330
460
102
}
330
460
100
AcDbXrecord
280
     1
  1
mmRS
  1
MM_4*
  1
*
  1
*
 70
     0
  1
*
  1
*
  0
XRECORD
  5
467
102
{ACAD_REACTORS
330
460
102
}
330
460
100
AcDbXrecord
280
     1
  1
mmTxt
  1
MM_8*
  1
*
  1
*
 70
     0
  1
*
  1
*
  0
XRECORD
  5
468
102
{ACAD_REACTORS
330
460
102
}
330
460
100
AcDbXrecord
280
     1
  1
XREF UIT
  1
~*|*
  1
*
  1
*
 70
     0
  1
*
  1
*
  0
XRECORD
  5
469
102
{ACAD_REACTORS
330
460
102
}
330
460
100
AcDbXrecord
280
     1
  1
XREFOUT
  1
~*|*
  1
*
  1
*
 70
     0
  1
*
  1
*
  0
ENDSEC
  0
EOF
