  0
SECTION
  2
HEADER
  9
$ACADVER
  1
AC1015
  9
$ACADMAINTVER
 70
     6
  9
$DWGCODEPAGE
  3
ANSI_1252
  9
$INSBASE
 10
0.0
 20
0.0
 30
0.0
  9
$EXTMIN
 10
5.086510194898494
 20
71.62529844053938
 30
0.0
  9
$EXTMAX
 10
1182.226547427261
 20
861.8830628592945
 30
0.0
  9
$LIMMIN
 10
0.0
 20
0.0
  9
$LIMMAX
 10
420.0
 20
297.0
  9
$ORTHOMODE
 70
     1
  9
$REGENMODE
 70
     1
  9
$FILLMODE
 70
     1
  9
$QTEXTMODE
 70
     0
  9
$MIRRTEXT
 70
     1
  9
$LTSCALE
 40
10.0
  9
$ATTMODE
 70
     1
  9
$TEXTSIZE
 40
2.5
  9
$TRACEWID
 40
1.0
  9
$TEXTSTYLE
  7
Standard
  9
$CLAYER
  8
Rüttler
  9
$CELTYPE
  6
ByLayer
  9
$CECOLOR
 62
   256
  9
$CELTSCALE
 40
1.0
  9
$DISPSILH
 70
     0
  9
$DIMSCALE
 40
1.0
  9
$DIMASZ
 40
2.5
  9
$DIMEXO
 40
0.625
  9
$DIMDLI
 40
3.75
  9
$DIMRND
 40
0.0
  9
$DIMDLE
 40
0.0
  9
$DIMEXE
 40
1.25
  9
$DIMTP
 40
0.0
  9
$DIMTM
 40
0.0
  9
$DIMTXT
 40
2.5
  9
$DIMCEN
 40
2.5
  9
$DIMTSZ
 40
0.0
  9
$DIMTOL
 70
     0
  9
$DIMLIM
 70
     0
  9
$DIMTIH
 70
     0
  9
$DIMTOH
 70
     0
  9
$DIMSE1
 70
     0
  9
$DIMSE2
 70
     0
  9
$DIMTAD
 70
     1
  9
$DIMZIN
 70
     8
  9
$DIMBLK
  1

  9
$DIMASO
 70
     1
  9
$DIMSHO
 70
     1
  9
$DIMPOST
  1

  9
$DIMAPOST
  1

  9
$DIMALT
 70
     0
  9
$DIMALTD
 70
     3
  9
$DIMALTF
 40
0.03937007874016
  9
$DIMLFAC
 40
1.0
  9
$DIMTOFL
 70
     1
  9
$DIMTVP
 40
0.0
  9
$DIMTIX
 70
     0
  9
$DIMSOXD
 70
     0
  9
$DIMSAH
 70
     0
  9
$DIMBLK1
  1

  9
$DIMBLK2
  1

  9
$DIMSTYLE
  2
ISO-25
  9
$DIMCLRD
 70
     0
  9
$DIMCLRE
 70
     0
  9
$DIMCLRT
 70
     0
  9
$DIMTFAC
 40
1.0
  9
$DIMGAP
 40
0.625
  9
$DIMJUST
 70
     0
  9
$DIMSD1
 70
     0
  9
$DIMSD2
 70
     0
  9
$DIMTOLJ
 70
     0
  9
$DIMTZIN
 70
     8
  9
$DIMALTZ
 70
     0
  9
$DIMALTTZ
 70
     0
  9
$DIMUPT
 70
     0
  9
$DIMDEC
 70
     2
  9
$DIMTDEC
 70
     2
  9
$DIMALTU
 70
     2
  9
$DIMALTTD
 70
     3
  9
$DIMTXSTY
  7
Standard
  9
$DIMAUNIT
 70
     0
  9
$DIMADEC
 70
     0
  9
$DIMALTRND
 40
0.0
  9
$DIMAZIN
 70
     0
  9
$DIMDSEP
 70
    44
  9
$DIMATFIT
 70
     3
  9
$DIMFRAC
 70
     0
  9
$DIMLDRBLK
  1

  9
$DIMLUNIT
 70
     2
  9
$DIMLWD
 70
    -2
  9
$DIMLWE
 70
    -2
  9
$DIMTMOVE
 70
     0
  9
$LUNITS
 70
     2
  9
$LUPREC
 70
     4
  9
$SKETCHINC
 40
1.0
  9
$FILLETRAD
 40
10.0
  9
$AUNITS
 70
     0
  9
$AUPREC
 70
     0
  9
$MENU
  1
.
  9
$ELEVATION
 40
0.0
  9
$PELEVATION
 40
0.0
  9
$THICKNESS
 40
0.0
  9
$LIMCHECK
 70
     0
  9
$CHAMFERA
 40
10.0
  9
$CHAMFERB
 40
10.0
  9
$CHAMFERC
 40
20.0
  9
$CHAMFERD
 40
0.0
  9
$SKPOLY
 70
     0
  9
$TDCREATE
 40
2453957.654468901
  9
$TDUCREATE
 40
2453957.612802234
  9
$TDUPDATE
 40
2456967.375418877
  9
$TDUUPDATE
 40
2456967.333752211
  9
$TDINDWG
 40
0.3027043403
  9
$TDUSRTIMER
 40
2456967.333450208
  9
$USRTIMER
 70
     1
  9
$ANGBASE
 50
0.0
  9
$ANGDIR
 70
     0
  9
$PDMODE
 70
     0
  9
$PDSIZE
 40
0.0
  9
$PLINEWID
 40
0.0
  9
$SPLFRAME
 70
     0
  9
$SPLINETYPE
 70
     6
  9
$SPLINESEGS
 70
     8
  9
$HANDSEED
  5
D12
  9
$SURFTAB1
 70
     6
  9
$SURFTAB2
 70
     6
  9
$SURFTYPE
 70
     6
  9
$SURFU
 70
     6
  9
$SURFV
 70
     6
  9
$UCSBASE
  2

  9
$UCSNAME
  2

  9
$UCSORG
 10
0.0
 20
0.0
 30
0.0
  9
$UCSXDIR
 10
1.0
 20
0.0
 30
0.0
  9
$UCSYDIR
 10
0.0
 20
1.0
 30
0.0
  9
$UCSORTHOREF
  2

  9
$UCSORTHOVIEW
 70
     0
  9
$UCSORGTOP
 10
0.0
 20
0.0
 30
0.0
  9
$UCSORGBOTTOM
 10
0.0
 20
0.0
 30
0.0
  9
$UCSORGLEFT
 10
0.0
 20
0.0
 30
0.0
  9
$UCSORGRIGHT
 10
0.0
 20
0.0
 30
0.0
  9
$UCSORGFRONT
 10
0.0
 20
0.0
 30
0.0
  9
$UCSORGBACK
 10
0.0
 20
0.0
 30
0.0
  9
$PUCSBASE
  2

  9
$PUCSNAME
  2

  9
$PUCSORG
 10
0.0
 20
0.0
 30
0.0
  9
$PUCSXDIR
 10
1.0
 20
0.0
 30
0.0
  9
$PUCSYDIR
 10
0.0
 20
1.0
 30
0.0
  9
$PUCSORTHOREF
  2

  9
$PUCSORTHOVIEW
 70
     0
  9
$PUCSORGTOP
 10
0.0
 20
0.0
 30
0.0
  9
$PUCSORGBOTTOM
 10
0.0
 20
0.0
 30
0.0
  9
$PUCSORGLEFT
 10
0.0
 20
0.0
 30
0.0
  9
$PUCSORGRIGHT
 10
0.0
 20
0.0
 30
0.0
  9
$PUCSORGFRONT
 10
0.0
 20
0.0
 30
0.0
  9
$PUCSORGBACK
 10
0.0
 20
0.0
 30
0.0
  9
$USERI1
 70
     0
  9
$USERI2
 70
     0
  9
$USERI3
 70
     0
  9
$USERI4
 70
     0
  9
$USERI5
 70
     0
  9
$USERR1
 40
0.0
  9
$USERR2
 40
0.0
  9
$USERR3
 40
0.0
  9
$USERR4
 40
0.0
  9
$USERR5
 40
0.0
  9
$WORLDVIEW
 70
     1
  9
$SHADEDGE
 70
     3
  9
$SHADEDIF
 70
    70
  9
$TILEMODE
 70
     0
  9
$MAXACTVP
 70
    64
  9
$PINSBASE
 10
0.0
 20
0.0
 30
0.0
  9
$PLIMCHECK
 70
     0
  9
$PEXTMIN
 10
-6.404187766674681
 20
-21.25344511179946
 30
0.0
  9
$PEXTMAX
 10
413.5958122333254
 20
275.7465548882005
 30
0.0
  9
$PLIMMIN
 10
-5.793749809265136
 20
-17.79375076293945
  9
$PLIMMAX
 10
414.2062501907349
 20
279.2062492370605
  9
$UNITMODE
 70
     0
  9
$VISRETAIN
 70
     1
  9
$PLINEGEN
 70
     0
  9
$PSLTSCALE
 70
     0
  9
$TREEDEPTH
 70
  3020
  9
$CMLSTYLE
  2
Standard
  9
$CMLJUST
 70
     0
  9
$CMLSCALE
 40
20.0
  9
$PROXYGRAPHICS
 70
     1
  9
$MEASUREMENT
 70
     1
  9
$CELWEIGHT
370
    -1
  9
$ENDCAPS
280
     0
  9
$JOINSTYLE
280
     0
  9
$LWDISPLAY
290
     0
  9
$INSUNITS
 70
     4
  9
$HYPERLINKBASE
  1

  9
$STYLESHEET
  1

  9
$XEDIT
290
     1
  9
$CEPSNTYPE
380
     0
  9
$PSTYLEMODE
290
     1
  9
$FINGERPRINTGUID
  2
{347ED4B7-8E8C-4DC2-803A-1EA234486158}
  9
$VERSIONGUID
  2
{400468A2-FEB6-4DC3-9D6D-64029D617514}
  9
$EXTNAMES
290
     1
  9
$PSVPSCALE
 40
0.0
  9
$OLESTARTUP
290
     0
  0
ENDSEC
  0
SECTION
  2
CLASSES
  0
CLASS
  1
ACDBDICTIONARYWDFLT
  2
AcDbDictionaryWithDefault
  3
ObjectDBX Classes
 90
        0
280
     0
281
     0
  0
CLASS
  1
ACDBPLACEHOLDER
  2
AcDbPlaceHolder
  3
ObjectDBX Classes
 90
        0
280
     0
281
     0
  0
CLASS
  1
LAYOUT
  2
AcDbLayout
  3
ObjectDBX Classes
 90
        0
280
     0
281
     0
  0
CLASS
  1
DICTIONARYVAR
  2
AcDbDictionaryVar
  3
ObjectDBX Classes
 90
        0
280
     0
281
     0
  0
CLASS
  1
SCALE
  2
AcDbScale
  3
ObjectDBX Classes
 90
     1153
280
     0
281
     0
  0
CLASS
  1
VISUALSTYLE
  2
AcDbVisualStyle
  3
ObjectDBX Classes
 90
     4095
280
     0
281
     0
  0
CLASS
  1
MATERIAL
  2
AcDbMaterial
  3
ObjectDBX Classes
 90
     1153
280
     0
281
     0
  0
CLASS
  1
TABLESTYLE
  2
AcDbTableStyle
  3
ObjectDBX Classes
 90
     4095
280
     0
281
     0
  0
CLASS
  1
MLEADERSTYLE
  2
AcDbMLeaderStyle
  3
ACDB_MLEADERSTYLE_CLASS
 90
     4095
280
     0
281
     0
  0
CLASS
  1
SUN
  2
AcDbSun
  3
SCENEOE
 90
     1153
280
     0
281
     0
  0
CLASS
  1
RASTERVARIABLES
  2
AcDbRasterVariables
  3
ISM
 90
        0
280
     0
281
     0
  0
ENDSEC
  0
SECTION
  2
TABLES
  0
TABLE
  2
VPORT
  5
8
330
0
100
AcDbSymbolTable
 70
     1
  0
VPORT
  5
CA2
330
8
100
AcDbSymbolTableRecord
100
AcDbViewportTableRecord
  2
*Active
 70
     0
 10
0.0
 20
0.0
 11
1.0
 21
1.0
 12
629.6723775414667
 22
466.7459255470641
 13
0.0
 23
0.0
 14
10.0
 24
10.0
 15
10.0
 25
10.0
 16
0.0
 26
0.0
 36
1.0
 17
0.0
 27
0.0
 37
0.0
 40
799.1245856659323
 41
1.762081784386617
 42
50.0
 43
0.0
 44
0.0
 50
0.0
 51
0.0
 71
     0
 72
   100
 73
     1
 74
     3
 75
     0
 76
     0
 77
     0
 78
     0
281
     0
 65
     1
110
0.0
120
0.0
130
0.0
111
1.0
121
0.0
131
0.0
112
0.0
122
1.0
132
0.0
 79
     0
146
0.0
  0
ENDTAB
  0
TABLE
  2
LTYPE
  5
5
330
0
100
AcDbSymbolTable
 70
     3
  0
LTYPE
  5
14
330
5
100
AcDbSymbolTableRecord
100
AcDbLinetypeTableRecord
  2
ByBlock
 70
     0
  3

 72
    65
 73
     0
 40
0.0
  0
LTYPE
  5
15
330
5
100
AcDbSymbolTableRecord
100
AcDbLinetypeTableRecord
  2
ByLayer
 70
     0
  3

 72
    65
 73
     0
 40
0.0
  0
LTYPE
  5
16
330
5
100
AcDbSymbolTableRecord
100
AcDbLinetypeTableRecord
  2
Continuous
 70
     0
  3
Solid line
 72
    65
 73
     0
 40
0.0
  0
LTYPE
  5
63
330
5
100
AcDbSymbolTableRecord
100
AcDbLinetypeTableRecord
  2
STRICHPUNKT
 70
     0
  3
__ . __ . __ . __ . __ . __ . __ . __ . __ . __
 72
    65
 73
     4
 40
1.0
 49
0.5
 74
     0
 49
-0.25
 74
     0
 49
0.0
 74
     0
 49
-0.25
 74
     0
  0
LTYPE
  5
64
330
5
100
AcDbSymbolTableRecord
100
AcDbLinetypeTableRecord
  2
GESTRICHELT
 70
     0
  3
__ __ __ __ __ __ __ __ __ __ __ __ __ __ __ __
 72
    65
 73
     2
 40
0.75
 49
0.5
 74
     0
 49
-0.25
 74
     0
  0
ENDTAB
  0
TABLE
  2
LAYER
  5
2
102
{ACAD_XDICTIONARY
360
6C
102
}
330
0
100
AcDbSymbolTable
 70
     9
  0
LAYER
  5
10
330
2
100
AcDbSymbolTableRecord
100
AcDbLayerTableRecord
  2
0
 70
     0
 62
     7
  6
Continuous
370
    -3
390
F
  0
LAYER
  5
66
330
2
100
AcDbSymbolTableRecord
100
AcDbLayerTableRecord
  2
ACHSEN
 70
     0
 62
   152
  6
STRICHPUNKT
370
    18
390
F
  0
LAYER
  5
68
330
2
100
AcDbSymbolTableRecord
100
AcDbLayerTableRecord
  2
4
 70
     0
 62
     3
  6
Continuous
370
    -3
390
F
  0
LAYER
  5
69
330
2
100
AcDbSymbolTableRecord
100
AcDbLayerTableRecord
  2
Schwunggewicht
 70
     0
 62
    11
  6
Continuous
370
    25
390
F
  0
LAYER
  5
6A
330
2
100
AcDbSymbolTableRecord
100
AcDbLayerTableRecord
  2
Rüttler
 70
     0
 62
    62
  6
Continuous
370
    35
390
F
  0
LAYER
  5
83F
330
2
100
AcDbSymbolTableRecord
100
AcDbLayerTableRecord
  2
DEFPOINTS
 70
     0
 62
     7
  6
Continuous
290
     0
370
    -3
390
F
  0
LAYER
  5
840
330
2
100
AcDbSymbolTableRecord
100
AcDbLayerTableRecord
  2
RAHMEN07
 70
     0
 62
     5
  6
Continuous
370
    50
390
F
  0
LAYER
  5
841
330
2
100
AcDbSymbolTableRecord
100
AcDbLayerTableRecord
  2
RAHMEN025
 70
     0
 62
     7
  6
Continuous
370
    25
390
F
  0
LAYER
  5
842
330
2
100
AcDbSymbolTableRecord
100
AcDbLayerTableRecord
  2
RAHMEN05
 70
     0
 62
     6
  6
Continuous
370
    50
390
F
  0
ENDTAB
  0
TABLE
  2
STYLE
  5
3
330
0
100
AcDbSymbolTable
 70
     3
  0
STYLE
  5
11
330
3
100
AcDbSymbolTableRecord
100
AcDbTextStyleTableRecord
  2
Standard
 70
     0
 40
0.0
 41
1.0
 50
0.0
 71
     0
 42
2.5
  3
txt
  4

  0
STYLE
  5
843
330
3
100
AcDbSymbolTableRecord
100
AcDbTextStyleTableRecord
  2
Stil1
 70
     0
 40
0.0
 41
1.0
 50
0.0
 71
     0
 42
2.5
  3
romans.shx
  4
bigfont.shx
  0
STYLE
  5
844
330
3
100
AcDbSymbolTableRecord
100
AcDbTextStyleTableRecord
  2
ISO Proportional
 70
     0
 40
0.0
 41
1.0
 50
0.0
 71
     0
 42
2.5
  3
isocp.shx
  4

  0
ENDTAB
  0
TABLE
  2
VIEW
  5
6
330
0
100
AcDbSymbolTable
 70
     0
  0
ENDTAB
  0
TABLE
  2
UCS
  5
7
330
0
100
AcDbSymbolTable
 70
     0
  0
ENDTAB
  0
TABLE
  2
APPID
  5
9
330
0
100
AcDbSymbolTable
 70
     1
  0
APPID
  5
12
330
9
100
AcDbSymbolTableRecord
100
AcDbRegAppTableRecord
  2
ACAD
 70
     0
  0
ENDTAB
  0
TABLE
  2
DIMSTYLE
  5
A
330
0
100
AcDbSymbolTable
 70
     2
100
AcDbDimStyleTable
  0
DIMSTYLE
105
27
330
A
100
AcDbSymbolTableRecord
100
AcDbDimStyleTableRecord
  2
ISO-25
 70
     0
 41
2.5
 42
0.625
 43
3.75
 44
1.25
 73
     0
 74
     0
 77
     1
 78
     8
140
2.5
141
2.5
143
0.03937007874016
147
0.625
171
     3
172
     1
178
     0
271
     2
272
     2
274
     3
278
    44
283
     0
284
     8
340
11
  0
DIMSTYLE
105
AD6
330
A
100
AcDbSymbolTableRecord
100
AcDbDimStyleTableRecord
  2
Stil 4
 70
     0
 41
10.0
 42
0.0
 43
0.0
 44
5.0
 73
     0
 74
     0
 77
     1
 78
     8
 79
     2
140
10.0
141
2.5
143
0.03937007874016
147
5.0
171
     3
172
     1
174
     1
176
     7
177
     7
271
     2
178
   256
179
     1
271
     2
272
     2
274
     3
278
    44
283
     0
284
     8
288
     1
340
843
371
    25
372
    25
  0
ENDTAB
  0
TABLE
  2
BLOCK_RECORD
  5
1
330
0
100
AcDbSymbolTable
 70
     1
  0
BLOCK_RECORD
  5
1F
330
1
100
AcDbSymbolTableRecord
100
AcDbBlockTableRecord
  2
*Model_Space
340
22
  0
BLOCK_RECORD
  5
1B
330
1
100
AcDbSymbolTableRecord
100
AcDbBlockTableRecord
  2
*Paper_Space
340
1E
  0
ENDTAB
  0
ENDSEC
  0
SECTION
  2
BLOCKS
  0
BLOCK
  5
20
330
1F
100
AcDbEntity
  8
0
100
AcDbBlockBegin
  2
*Model_Space
 70
     0
 10
0.0
 20
0.0
 30
0.0
  3
*Model_Space
  1
*Model_Space
  0
ENDBLK
  5
21
330
1F
100
AcDbEntity
  8
0
100
AcDbBlockEnd
  0
BLOCK
  5
1C
330
1B
100
AcDbEntity
 67
     1
  8
0
100
AcDbBlockBegin
  2
*Paper_Space
 70
     0
 10
0.0
 20
0.0
 30
0.0
  3
*Paper_Space
  1
*Paper_Space
  0
ENDBLK
  5
1D
330
1B
100
AcDbEntity
 67
     1
  8
0
100
AcDbBlockEnd
  0
ENDSEC
  0
SECTION
  2
ENTITIES
  0
LINE
  5
454
330
1F
100
AcDbEntity
  8
Rüttler
100
AcDbLine
 10
441.4042990016916
 20
386.3260245650415
 30
0.0
 11
489.9558370928982
 21
386.3260245650415
 31
0.0
  0
LINE
  5
455
330
1F
100
AcDbEntity
  8
Rüttler
100
AcDbLine
 10
441.4042990016916
 20
386.3260245650415
 30
0.0
 11
621.9558370928978
 21
386.3260245650415
 31
0.0
  0
LINE
  5
456
330
1F
100
AcDbEntity
  8
Rüttler
100
AcDbLine
 10
441.4042990016916
 20
121.3260245650415
 30
0.0
 11
621.9558370928978
 21
121.3260245650415
 31
0.0
  0
LINE
  5
457
330
1F
100
AcDbEntity
  8
Rüttler
100
AcDbLine
 10
441.4042990016916
 20
580.3720394273364
 30
0.0
 11
621.9558370928987
 21
580.3720394273364
 31
0.0
  0
LINE
  5
458
330
1F
100
AcDbEntity
  8
Rüttler
100
AcDbLine
 10
441.4042990016916
 20
845.3720394273361
 30
0.0
 11
621.9558370928987
 21
845.3720394273361
 31
0.0
  0
LINE
  5
459
330
1F
100
AcDbEntity
  8
ACHSEN
 48
3.0
100
AcDbLine
 10
5.086510194898494
 20
253.8260245650415
 30
0.0
 11
664.3235039105416
 21
253.8260245650415
 31
0.0
  0
LINE
  5
45A
330
1F
100
AcDbEntity
  8
Rüttler
  6
GESTRICHELT
 62
     7
 48
2.0
370
    18
100
AcDbLine
 10
444.4042990016908
 20
842.8720394273362
 30
0.0
 11
444.4042990016916
 21
582.8720394273363
 31
0.0
  0
LINE
  5
45B
330
1F
100
AcDbEntity
  8
Rüttler
  6
GESTRICHELT
 62
     7
 48
2.0
370
    18
100
AcDbLine
 10
226.4042990016912
 20
842.8720394273362
 30
0.0
 11
226.4042990016917
 21
582.8720394273363
 31
0.0
  0
LINE
  5
45C
330
1F
100
AcDbEntity
  8
Rüttler
  6
GESTRICHELT
 62
     7
 48
2.0
370
    18
100
AcDbLine
 10
214.4042990016917
 20
842.8720394273364
 30
0.0
 11
214.4042990016917
 21
582.8720394273363
 31
0.0
  0
LINE
  5
45D
330
1F
100
AcDbEntity
  8
Rüttler
  6
GESTRICHELT
 62
     7
 48
2.0
370
    18
100
AcDbLine
 10
456.4042990016912
 20
842.8720394273364
 30
0.0
 11
456.4042990016917
 21
582.8720394273363
 31
0.0
  0
LINE
  5
45E
330
1F
100
AcDbEntity
  8
Rüttler
100
AcDbLine
 10
414.4042990016917
 20
819.9728288904157
 30
0.0
 11
413.035715179066
 21
795.3844063047154
 31
0.0
  0
LINE
  5
45F
330
1F
100
AcDbEntity
  8
Rüttler
100
AcDbLine
 10
418.4042990016917
 20
819.9728288904157
 30
0.0
 11
419.7728828243168
 21
795.3844063047145
 31
0.0
  0
LINE
  5
460
330
1F
100
AcDbEntity
  8
Rüttler
100
AcDbLine
 10
422.4042990016912
 20
840.8720394273364
 30
0.0
 11
423.5935101446095
 21
795.4578981004465
 31
0.0
  0
LINE
  5
461
330
1F
100
AcDbEntity
  8
Rüttler
100
AcDbLine
 10
333.4042990016917
 20
819.9728288904151
 30
0.0
 11
332.035715179066
 21
795.3844063047148
 31
0.0
  0
LINE
  5
462
330
1F
100
AcDbEntity
  8
Rüttler
100
AcDbLine
 10
337.4042990016917
 20
819.9728288904151
 30
0.0
 11
338.7728828243173
 21
795.3844063047145
 31
0.0
  0
LINE
  5
463
330
1F
100
AcDbEntity
  8
ACHSEN
 48
3.0
100
AcDbLine
 10
376.4042990016917
 20
855.4268610284324
 30
0.0
 11
376.4042990016917
 21
788.6202976475997
 31
0.0
  0
CIRCLE
  5
464
330
1F
100
AcDbEntity
  8
Rüttler
100
AcDbCircle
 10
376.4042990016912
 20
820.8720394273363
 30
0.0
 40
8.75
  0
CIRCLE
  5
465
330
1F
100
AcDbEntity
  8
Rüttler
100
AcDbCircle
 10
376.4042990016912
 20
820.8720394273363
 30
0.0
 40
13.0
  0
ARC
  5
466
330
1F
100
AcDbEntity
  8
Rüttler
100
AcDbCircle
 10
376.4042990016912
 20
820.8720394273363
 30
0.0
 40
22.0
100
AcDbArc
 50
114.6199773286477
 51
65.3800226713523
  0
LINE
  5
467
330
1F
100
AcDbEntity
  8
Rüttler
100
AcDbLine
 10
272.3558481389893
 20
831.0217756291212
 30
0.0
 11
271.8261523246235
 21
810.7935085824129
 31
0.0
  0
LINE
  5
468
330
1F
100
AcDbEntity
  8
Rüttler
100
AcDbLine
 10
276.452749864394
 20
831.0217756291212
 30
0.0
 11
276.9824456787594
 21
810.7935085824129
 31
0.0
  0
LINE
  5
469
330
1F
100
AcDbEntity
  8
Rüttler
100
AcDbLine
 10
252.3558481389893
 20
831.0217756291212
 30
0.0
 11
251.8261523246235
 21
810.7935085824129
 31
0.0
  0
LINE
  5
46A
330
1F
100
AcDbEntity
  8
Rüttler
100
AcDbLine
 10
256.452749864394
 20
831.0217756291212
 30
0.0
 11
256.9824456787594
 21
810.7935085824129
 31
0.0
  0
LINE
  5
46B
330
1F
100
AcDbEntity
  8
Rüttler
100
AcDbLine
 10
316.4042990016917
 20
831.4011971965987
 30
0.0
 11
316.4042990016917
 21
796.1815778344353
 31
0.0
  0
LINE
  5
46C
330
1F
100
AcDbEntity
  8
Rüttler
100
AcDbLine
 10
322.4042990016917
 20
840.8720394273364
 30
0.0
 11
321.2150878587747
 21
795.4578981004465
 31
0.0
  0
LINE
  5
46D
330
1F
100
AcDbEntity
  8
Rüttler
100
AcDbLine
 10
312.4042990016917
 20
831.4011971966229
 30
0.0
 11
312.4042990016917
 21
797.524718018517
 31
0.0
  0
LINE
  5
46E
330
1F
100
AcDbEntity
  8
Rüttler
100
AcDbLine
 10
296.4042990016917
 20
831.4011971965692
 30
0.0
 11
296.4042990016917
 21
797.524718018517
 31
0.0
  0
LINE
  5
46F
330
1F
100
AcDbEntity
  8
Rüttler
100
AcDbLine
 10
292.4042990016916
 20
831.4011971966206
 30
0.0
 11
292.4042990016916
 21
796.1815778344408
 31
0.0
  0
LINE
  5
470
330
1F
100
AcDbEntity
  8
Rüttler
100
AcDbLine
 10
292.3558481389893
 20
831.0217756291217
 30
0.0
 11
291.8261523246235
 21
810.7935085824129
 31
0.0
  0
LINE
  5
471
330
1F
100
AcDbEntity
  8
Rüttler
100
AcDbLine
 10
296.452749864394
 20
831.0217756291217
 30
0.0
 11
296.9824456787593
 21
810.7935085824129
 31
0.0
  0
LINE
  5
472
330
1F
100
AcDbEntity
  8
Rüttler
100
AcDbLine
 10
312.3558481389893
 20
831.0217756291217
 30
0.0
 11
311.8261523246235
 21
810.7935085824129
 31
0.0
  0
LINE
  5
473
330
1F
100
AcDbEntity
  8
Rüttler
100
AcDbLine
 10
234.4552999097993
 20
843.4243933239522
 30
0.0
 11
235.233268336213
 21
813.7149777374894
 31
0.0
  0
LINE
  5
474
330
1F
100
AcDbEntity
  8
ACHSEN
 48
3.0
100
AcDbLine
 10
335.4042990016917
 20
855.2070213464494
 30
0.0
 11
335.4042990016917
 21
618.2798645384669
 31
0.0
  0
LINE
  5
475
330
1F
100
AcDbEntity
  8
Rüttler
100
AcDbLine
 10
234.4042990016916
 20
843.8237844476661
 30
0.0
 11
234.4042990016916
 21
582.655034603968
 31
0.0
  0
LINE
  5
476
330
1F
100
AcDbEntity
  8
Rüttler
100
AcDbLine
 10
229.4042990016917
 20
838.3720394273364
 30
0.0
 11
229.4042990016917
 21
580.3720394273364
 31
0.0
  0
LINE
  5
477
330
1F
100
AcDbEntity
  8
Rüttler
100
AcDbLine
 10
441.4042990016912
 20
838.3720394273364
 30
0.0
 11
441.4042990016916
 21
580.3720394273364
 31
0.0
  0
LINE
  5
478
330
1F
100
AcDbEntity
  8
Rüttler
100
AcDbLine
 10
436.4042990016912
 20
843.4367207026738
 30
0.0
 11
436.4042990016916
 21
582.8720394273363
 31
0.0
  0
LINE
  5
479
330
1F
100
AcDbEntity
  8
Rüttler
100
AcDbLine
 10
276.4042990016917
 20
831.4011971966564
 30
0.0
 11
276.4042990016917
 21
647.8720394273364
 31
0.0
  0
LINE
  5
47A
330
1F
100
AcDbEntity
  8
Rüttler
100
AcDbLine
 10
272.4042990016917
 20
831.4011971965314
 30
0.0
 11
272.4042990016917
 21
647.8720394273364
 31
0.0
  0
LINE
  5
47B
330
1F
100
AcDbEntity
  8
Rüttler
100
AcDbLine
 10
256.4042990016917
 20
831.40119719663
 30
0.0
 11
256.4042990016917
 21
647.8720394273364
 31
0.0
  0
LINE
  5
47C
330
1F
100
AcDbEntity
  8
Rüttler
100
AcDbLine
 10
252.4042990016917
 20
831.4011971966625
 30
0.0
 11
252.4042990016917
 21
647.8720394273364
 31
0.0
  0
LINE
  5
47D
330
1F
100
AcDbEntity
  8
Rüttler
100
AcDbLine
 10
337.4042990016917
 20
819.9728288904151
 30
0.0
 11
337.4042990016917
 21
647.8720394273364
 31
0.0
  0
LINE
  5
47E
330
1F
100
AcDbEntity
  8
Rüttler
100
AcDbLine
 10
333.4042990016917
 20
819.9728288904151
 30
0.0
 11
333.4042990016917
 21
647.8720394273364
 31
0.0
  0
LINE
  5
47F
330
1F
100
AcDbEntity
  8
Rüttler
100
AcDbLine
 10
418.4042990016917
 20
819.9728288904157
 30
0.0
 11
418.4042990016917
 21
647.8720394273367
 31
0.0
  0
LINE
  5
480
330
1F
100
AcDbEntity
  8
Rüttler
100
AcDbLine
 10
414.4042990016917
 20
819.9728288904157
 30
0.0
 11
414.4042990016917
 21
647.8720394273364
 31
0.0
  0
ARC
  5
481
330
1F
100
AcDbEntity
  8
Rüttler
100
AcDbCircle
 10
519.4042990016916
 20
712.8720394273364
 30
0.0
 40
500.0
100
AcDbArc
 50
165.9795592558995
 51
194.0204407441004
  0
LINE
  5
483
330
1F
100
AcDbEntity
  8
ACHSEN
100
AcDbLine
 10
400.4042990016917
 20
441.6924044852282
 30
0.0
 11
400.4042990016917
 21
373.7865394087027
 31
0.0
  0
LINE
  5
484
330
1F
100
AcDbEntity
  8
Rüttler
100
AcDbLine
 10
229.4042990016917
 20
386.3260245650415
 30
0.0
 11
48.85276091048564
 21
386.3260245650415
 31
0.0
  0
LINE
  5
485
330
1F
100
AcDbEntity
  8
Rüttler
100
AcDbLine
 10
229.4042990016917
 20
121.3260245650415
 30
0.0
 11
48.85276091048564
 21
121.3260245650415
 31
0.0
  0
ARC
  5
486
330
1F
100
AcDbEntity
  8
Rüttler
100
AcDbCircle
 10
519.4042990016916
 20
253.8260245650415
 30
0.0
 40
500.0
100
AcDbArc
 50
165.9795592558995
 51
194.0204407441004
  0
ARC
  5
487
330
1F
100
AcDbEntity
  8
Rüttler
100
AcDbCircle
 10
48.85276091048564
 20
136.3260245650415
 30
0.0
 40
15.0
100
AcDbArc
 50
194.0204407441004
 51
270.0
  0
ARC
  5
488
330
1F
100
AcDbEntity
  8
Rüttler
100
AcDbCircle
 10
48.85276091048564
 20
371.3260245650415
 30
0.0
 40
15.0
100
AcDbArc
 50
90.0
 51
165.9795592558995
  0
CIRCLE
  5
489
330
1F
100
AcDbEntity
  8
Rüttler
100
AcDbCircle
 10
448.9042990016916
 20
253.8260245650415
 30
0.0
 40
7.4
  0
CIRCLE
  5
48A
330
1F
100
AcDbEntity
  8
Rüttler
100
AcDbCircle
 10
448.9042990016916
 20
253.8260245650415
 30
0.0
 40
3.629778764442789
  0
LINE
  5
48B
330
1F
100
AcDbEntity
  8
Rüttler
100
AcDbLine
 10
446.0542990016917
 20
252.007371217094
 30
0.0
 11
448.7542989990872
 21
250.4485254902817
 31
0.0
  0
LINE
  5
48C
330
1F
100
AcDbEntity
  8
Rüttler
100
AcDbLine
 10
449.054298999087
 20
250.4485254902817
 30
0.0
 11
451.754299001672
 21
252.0073712183172
 31
0.0
  0
CIRCLE
  5
48D
330
1F
100
AcDbEntity
  8
Rüttler
100
AcDbCircle
 10
448.9042990016916
 20
253.8260245650415
 30
0.0
 40
6.5
  0
LINE
  5
48E
330
1F
100
AcDbEntity
  8
Rüttler
100
AcDbLine
 10
441.4042990016916
 20
386.3260245650415
 30
0.0
 11
441.4042990016916
 21
121.3260245650415
 31
0.0
  0
LINE
  5
48F
330
1F
100
AcDbEntity
  8
Rüttler
100
AcDbLine
 10
436.4042990016916
 20
384.8454288014952
 30
0.0
 11
436.4042990016916
 21
122.8066203285873
 31
0.0
  0
LINE
  5
490
330
1F
100
AcDbEntity
  8
Rüttler
100
AcDbLine
 10
422.4042990016917
 20
253.8260245650415
 30
0.0
 11
419.8196917657171
 21
215.2441144321389
 31
0.0
  0
LINE
  5
491
330
1F
100
AcDbEntity
  8
Rüttler
100
AcDbLine
 10
221.7542990042968
 20
250.4485254902817
 30
0.0
 11
219.0542990017113
 21
252.0073712183172
 31
0.0
  0
CIRCLE
  5
492
330
1F
100
AcDbEntity
  8
Rüttler
100
AcDbCircle
 10
221.9042990016916
 20
253.8260245650415
 30
0.0
 40
6.5
  0
LINE
  5
493
330
1F
100
AcDbEntity
  8
Rüttler
100
AcDbLine
 10
224.754299001692
 20
252.007371217094
 30
0.0
 11
222.0542990042965
 21
250.4485254902817
 31
0.0
  0
CIRCLE
  5
494
330
1F
100
AcDbEntity
  8
Rüttler
100
AcDbCircle
 10
221.9042990016916
 20
253.8260245650415
 30
0.0
 40
3.629778764442789
  0
CIRCLE
  5
495
330
1F
100
AcDbEntity
  8
Rüttler
100
AcDbCircle
 10
221.9042990016916
 20
253.8260245650415
 30
0.0
 40
7.4
  0
LINE
  5
496
330
1F
100
AcDbEntity
  8
Rüttler
100
AcDbLine
 10
322.4042990016917
 20
253.8260245650415
 30
0.0
 11
324.9889062376666
 21
215.2441144321389
 31
0.0
  0
LINE
  5
497
330
1F
100
AcDbEntity
  8
Rüttler
100
AcDbLine
 10
229.4042990016917
 20
386.3260245650415
 30
0.0
 11
229.4042990016917
 21
121.3260245650415
 31
0.0
  0
LINE
  5
498
330
1F
100
AcDbEntity
  8
Rüttler
100
AcDbLine
 10
234.4042990016916
 20
384.8454288014952
 30
0.0
 11
234.4042990016916
 21
122.8066203285873
 31
0.0
  0
LINE
  5
499
330
1F
100
AcDbEntity
  8
Rüttler
100
AcDbLine
 10
252.4042990016917
 20
372.3022437526335
 30
0.0
 11
252.4042990016917
 21
135.349805377449
 31
0.0
  0
LINE
  5
49A
330
1F
100
AcDbEntity
  8
Rüttler
100
AcDbLine
 10
256.4042990016917
 20
372.3022437526335
 30
0.0
 11
256.4042990016917
 21
135.349805377449
 31
0.0
  0
LINE
  5
49B
330
1F
100
AcDbEntity
  8
Rüttler
100
AcDbLine
 10
272.4042990016917
 20
372.3022437526335
 30
0.0
 11
272.4042990016917
 21
135.349805377449
 31
0.0
  0
LINE
  5
49C
330
1F
100
AcDbEntity
  8
Rüttler
100
AcDbLine
 10
276.4042990016917
 20
372.302243752633
 30
0.0
 11
276.4042990016917
 21
135.3498053774494
 31
0.0
  0
LINE
  5
49D
330
1F
100
AcDbEntity
  8
Rüttler
100
AcDbLine
 10
251.9042990016917
 20
348.8260245650415
 30
0.0
 11
251.9042990016917
 21
158.8260245650415
 31
0.0
  0
LINE
  5
49E
330
1F
100
AcDbEntity
  8
Rüttler
100
AcDbLine
 10
256.9042990016916
 20
348.8260245650415
 30
0.0
 11
256.9042990016916
 21
158.8260245650415
 31
0.0
  0
LINE
  5
49F
330
1F
100
AcDbEntity
  8
Rüttler
100
AcDbLine
 10
271.9042990016916
 20
348.8260245650415
 30
0.0
 11
271.9042990016916
 21
158.8260245650415
 31
0.0
  0
LINE
  5
4A0
330
1F
100
AcDbEntity
  8
Rüttler
100
AcDbLine
 10
276.9042990016917
 20
348.8260245650415
 30
0.0
 11
276.9042990016917
 21
158.8260245650415
 31
0.0
  0
LINE
  5
4A1
330
1F
100
AcDbEntity
  8
Rüttler
100
AcDbLine
 10
292.4042990016916
 20
372.3022437526335
 30
0.0
 11
292.4042990016916
 21
194.3470379411881
 31
0.0
  0
LINE
  5
4A2
330
1F
100
AcDbEntity
  8
Rüttler
100
AcDbLine
 10
296.4042990016917
 20
372.3022437526335
 30
0.0
 11
296.4042990016917
 21
194.3470379411881
 31
0.0
  0
LINE
  5
4A3
330
1F
100
AcDbEntity
  8
Rüttler
100
AcDbLine
 10
312.4042990016917
 20
372.3022437526335
 30
0.0
 11
312.4042990016917
 21
194.3470379411881
 31
0.0
  0
LINE
  5
4A4
330
1F
100
AcDbEntity
  8
Rüttler
100
AcDbLine
 10
316.4042990016917
 20
372.3022437526335
 30
0.0
 11
316.4042990016917
 21
194.3470379411881
 31
0.0
  0
LINE
  5
4A5
330
1F
100
AcDbEntity
  8
Rüttler
100
AcDbLine
 10
291.9042990016917
 20
348.8260245650415
 30
0.0
 11
291.9042990016917
 21
194.447037941188
 31
0.0
  0
LINE
  5
4A6
330
1F
100
AcDbEntity
  8
Rüttler
100
AcDbLine
 10
296.9042990016916
 20
343.8260245650415
 30
0.0
 11
296.9042990016916
 21
194.447037941188
 31
0.0
  0
LINE
  5
4A7
330
1F
100
AcDbEntity
  8
Rüttler
100
AcDbLine
 10
311.9042990016917
 20
343.8260245650415
 30
0.0
 11
311.9042990016917
 21
194.4470379411884
 31
0.0
  0
LINE
  5
4A8
330
1F
100
AcDbEntity
  8
Rüttler
100
AcDbLine
 10
316.9042990016917
 20
348.8260245650415
 30
0.0
 11
316.9042990016917
 21
194.4470379411884
 31
0.0
  0
LINE
  5
4A9
330
1F
100
AcDbEntity
  8
ACHSEN
100
AcDbLine
 10
448.9042990016916
 20
266.4869895944218
 30
0.0
 11
448.9042990016916
 21
242.6360132216425
 31
0.0
  0
LINE
  5
4AA
330
1F
100
AcDbEntity
  8
ACHSEN
100
AcDbLine
 10
221.9042990016916
 20
266.4869895944218
 30
0.0
 11
221.9042990016916
 21
242.6360132216425
 31
0.0
  0
LINE
  5
4AB
330
1F
100
AcDbEntity
  8
Rüttler
100
AcDbLine
 10
319.844898941704
 20
158.8260245650415
 30
0.0
 11
329.9636990616797
 21
158.8260245650415
 31
0.0
  0
LINE
  5
4AC
330
1F
100
AcDbEntity
  8
Rüttler
100
AcDbLine
 10
307.4042990016916
 20
82.8260245650415
 30
0.0
 11
363.4042990016916
 21
82.8260245650415
 31
0.0
  0
ARC
  5
4AD
330
1F
100
AcDbEntity
  8
Rüttler
100
AcDbCircle
 10
319.844898941704
 20
155.8260245650415
 30
0.0
 40
3.0
100
AcDbArc
 50
90.0
 51
178.854237161824
  0
LINE
  5
4AE
330
1F
100
AcDbEntity
  8
Rüttler
100
AcDbLine
 10
298.9042990016916
 20
176.9731193542086
 30
0.0
 11
298.9042990016916
 21
141.7212028269557
 31
0.0
  0
LINE
  5
4AF
330
1F
100
AcDbEntity
  8
Rüttler
100
AcDbLine
 10
309.9042990016917
 20
176.9731193542086
 30
0.0
 11
309.9042990016917
 21
141.7212028269557
 31
0.0
  0
LINE
  5
4B0
330
1F
100
AcDbEntity
  8
Rüttler
100
AcDbLine
 10
311.9630992416198
 20
160.8860125686403
 30
0.0
 11
312.3670588497373
 21
135.688032162762
 31
0.0
  0
LINE
  5
4B1
330
1F
100
AcDbEntity
  8
Rüttler
100
AcDbLine
 10
296.8454987617635
 20
160.8860125686403
 30
0.0
 11
296.441539153646
 21
135.688032162762
 31
0.0
  0
LINE
  5
4B2
330
1F
100
AcDbEntity
  8
Rüttler
100
AcDbLine
 10
312.4042990016917
 20
169.4412318675865
 30
0.0
 11
312.4042990016917
 21
135.349805377449
 31
0.0
  0
LINE
  5
4B3
330
1F
100
AcDbEntity
  8
Rüttler
100
AcDbLine
 10
316.4042990016917
 20
172.3740009323457
 30
0.0
 11
316.4042990016917
 21
135.349805377449
 31
0.0
  0
LINE
  5
4B4
330
1F
100
AcDbEntity
  8
Rüttler
100
AcDbLine
 10
296.4042990016917
 20
169.4412318675865
 30
0.0
 11
296.4042990016917
 21
135.349805377449
 31
0.0
  0
ARC
  5
4B5
330
1F
100
AcDbEntity
  8
Rüttler
100
AcDbCircle
 10
288.9636990616797
 20
155.8260245650415
 30
0.0
 40
3.0
100
AcDbArc
 50
1.145762838175982
 51
90.0
  0
ARC
  5
4B6
330
1F
100
AcDbEntity
  8
Rüttler
100
AcDbCircle
 10
279.844898941704
 20
155.8260245650415
 30
0.0
 40
3.0
100
AcDbArc
 50
90.0
 51
178.854237161824
  0
ARC
  5
4B7
330
1F
100
AcDbEntity
  8
Rüttler
100
AcDbCircle
 10
259.844898941704
 20
155.8260245650415
 30
0.0
 40
3.0
100
AcDbArc
 50
90.0
 51
178.854237161824
  0
ARC
  5
4B8
330
1F
100
AcDbEntity
  8
Rüttler
100
AcDbCircle
 10
248.9636990616797
 20
155.8260245650415
 30
0.0
 40
3.0
100
AcDbArc
 50
1.145762838175982
 51
90.0
  0
ARC
  5
4B9
330
1F
100
AcDbEntity
  8
Rüttler
100
AcDbCircle
 10
268.9636990616798
 20
155.8260245650415
 30
0.0
 40
3.0
100
AcDbArc
 50
1.145762838175982
 51
90.0
  0
ARC
  5
4BA
330
1F
100
AcDbEntity
  8
Rüttler
100
AcDbCircle
 10
241.5079605064745
 20
152.8260245650415
 30
0.0
 40
6.0
100
AcDbArc
 50
90.0
 51
177.9999999999963
  0
LINE
  5
4BB
330
1F
100
AcDbEntity
  8
Rüttler
100
AcDbLine
 10
292.4042990016916
 20
172.3740009323457
 30
0.0
 11
292.4042990016916
 21
135.349805377449
 31
0.0
  0
LINE
  5
4BC
330
1F
100
AcDbEntity
  8
ACHSEN
100
AcDbLine
 10
304.4042990016917
 20
227.1708548448598
 30
0.0
 11
304.4042990016917
 21
123.8558101666346
 31
0.0
  0
ARC
  5
4BD
330
1F
100
AcDbEntity
  8
Rüttler
100
AcDbCircle
 10
267.9042990016916
 20
103.8260245650415
 30
0.0
 40
25.0
100
AcDbArc
 50
180.0
 51
270.0
  0
LINE
  5
4BE
330
1F
100
AcDbEntity
  8
ACHSEN
100
AcDbLine
 10
234.0929701852366
 20
103.8260245650415
 30
0.0
 11
298.1386768166905
 21
103.8260245650415
 31
0.0
  0
LINE
  5
4BF
330
1F
100
AcDbEntity
  8
Rüttler
100
AcDbLine
 10
242.9042990016916
 20
132.9260245650414
 30
0.0
 11
242.9042990016916
 21
103.8260245650415
 31
0.0
  0
LINE
  5
4C0
330
1F
100
AcDbEntity
  8
Rüttler
100
AcDbLine
 10
229.4042990016917
 20
121.3260245650415
 30
0.0
 11
232.4729214520778
 21
121.3260245650415
 31
0.0
  0
LINE
  5
4C1
330
1F
100
AcDbEntity
  8
Rüttler
100
AcDbLine
 10
238.7117571505616
 20
136.8260245650415
 30
0.0
 11
239.004299001692
 21
136.8260245650415
 31
0.0
  0
ARC
  5
4C2
330
1F
100
AcDbEntity
  8
Rüttler
100
AcDbCircle
 10
238.7117571505616
 20
132.9260245650414
 30
0.0
 40
3.9
100
AcDbArc
 50
90.0
 51
177.9999999999963
  0
ARC
  5
4C3
330
1F
100
AcDbEntity
  8
Rüttler
100
AcDbCircle
 10
239.004299001692
 20
132.9260245650414
 30
0.0
 40
3.9
100
AcDbArc
 50
0.0
 51
90.0
  0
ARC
  5
4C4
330
1F
100
AcDbEntity
  8
Rüttler
100
AcDbCircle
 10
232.4729214520778
 20
123.3260245650415
 30
0.0
 40
2.0
100
AcDbArc
 50
270.0
 51
357.9999999999963
  0
LINE
  5
4C5
330
1F
100
AcDbEntity
  8
Rüttler
100
AcDbLine
 10
234.4717031061156
 20
123.2562255716363
 30
0.0
 11
235.5116155443599
 21
153.0354215452564
 31
0.0
  0
LINE
  5
4C6
330
1F
100
AcDbEntity
  8
Rüttler
100
AcDbLine
 10
311.4042990016916
 20
87.3315643287799
 30
0.0
 11
311.4042990016916
 21
131.8260245650415
 31
0.0
  0
LINE
  5
4C7
330
1F
100
AcDbEntity
  8
Rüttler
100
AcDbLine
 10
301.4042990016917
 20
83.8260245650415
 30
0.0
 11
301.4042990016917
 21
129.8260245650415
 31
0.0
  0
LINE
  5
4C8
330
1F
100
AcDbEntity
  8
Rüttler
100
AcDbLine
 10
311.4888825051487
 20
86.62421247030647
 30
0.0
 11
312.4494017450345
 21
131.8654254594655
 31
0.0
  0
LINE
  5
4C9
330
1F
100
AcDbEntity
  8
Rüttler
100
AcDbLine
 10
301.3197154982346
 20
83.11867270656808
 30
0.0
 11
300.3785123466652
 21
130.885125906678
 31
0.0
  0
CIRCLE
  5
4CA
330
1F
100
AcDbEntity
  8
Rüttler
100
AcDbCircle
 10
270.4042990016917
 20
103.8260245650415
 30
0.0
 40
22.5
  0
CIRCLE
  5
4CB
330
1F
100
AcDbEntity
  8
Rüttler
100
AcDbCircle
 10
270.4042990016917
 20
103.8260245650415
 30
0.0
 40
13.0
  0
LINE
  5
4CC
330
1F
100
AcDbEntity
  8
ACHSEN
100
AcDbLine
 10
270.4042990016917
 20
134.0462702048623
 30
0.0
 11
270.4042990016917
 21
71.62529844053938
 31
0.0
  0
LINE
  5
4CD
330
1F
100
AcDbEntity
  8
Rüttler
100
AcDbLine
 10
267.9042990016916
 20
78.82602456504151
 30
0.0
 11
303.4042990016917
 21
78.82602456504151
 31
0.0
  0
LINE
  5
4CE
330
1F
100
AcDbEntity
  8
Rüttler
100
AcDbLine
 10
305.4042990016917
 20
80.82602456504151
 30
0.0
 11
305.4042990016917
 21
80.82602456504151
 31
0.0
  0
ARC
  5
4CF
330
1F
100
AcDbEntity
  8
Rüttler
100
AcDbCircle
 10
307.4042990016916
 20
80.82602456504151
 30
0.0
 40
2.0
100
AcDbArc
 50
90.0
 51
180.0
  0
ARC
  5
4D0
330
1F
100
AcDbEntity
  8
Rüttler
100
AcDbCircle
 10
303.4042990016917
 20
80.82602456504151
 30
0.0
 40
2.0
100
AcDbArc
 50
270.0
 51
0.0
  0
ARC
  5
4D1
330
1F
100
AcDbEntity
  8
Rüttler
100
AcDbCircle
 10
314.4042990016917
 20
87.3315643287799
 30
0.0
 40
3.0
100
AcDbArc
 50
180.0
 51
248.3817779092723
  0
ARC
  5
4D2
330
1F
100
AcDbEntity
  8
Rüttler
100
AcDbCircle
 10
298.4042990016916
 20
83.8260245650415
 30
0.0
 40
3.0
100
AcDbArc
 50
290.3292022696049
 51
0.0
  0
ARC
  5
4D3
330
1F
100
AcDbEntity
  8
Rüttler
100
AcDbCircle
 10
274.5419190396844
 20
135.7260245650415
 30
0.0
 40
1.9
100
AcDbArc
 50
270.0
 51
358.854237161824
  0
ARC
  5
4D4
330
1F
100
AcDbEntity
  8
Rüttler
100
AcDbCircle
 10
274.2666789636994
 20
135.7260245650411
 30
0.0
 40
1.9
100
AcDbArc
 50
181.1457628381759
 51
270.0
  0
LINE
  5
4D5
330
1F
100
AcDbEntity
  8
Rüttler
100
AcDbLine
 10
274.2666789636994
 20
133.8260245650415
 30
0.0
 11
274.5419190396844
 21
133.8260245650415
 31
0.0
  0
ARC
  5
4D6
330
1F
100
AcDbEntity
  8
Rüttler
100
AcDbCircle
 10
254.5419190396844
 20
135.7260245650411
 30
0.0
 40
1.9
100
AcDbArc
 50
270.0
 51
358.854237161824
  0
ARC
  5
4D7
330
1F
100
AcDbEntity
  8
Rüttler
100
AcDbCircle
 10
254.2666789636994
 20
135.7260245650411
 30
0.0
 40
1.9
100
AcDbArc
 50
181.1457628381759
 51
270.0
  0
LINE
  5
4D8
330
1F
100
AcDbEntity
  8
Rüttler
100
AcDbLine
 10
254.2666789636994
 20
133.8260245650415
 30
0.0
 11
254.5419190396844
 21
133.8260245650415
 31
0.0
  0
LINE
  5
4D9
330
1F
100
AcDbEntity
  8
Rüttler
100
AcDbLine
 10
276.8454987617635
 20
155.8860125686403
 30
0.0
 11
276.4415391536461
 21
135.688032162762
 31
0.0
  0
LINE
  5
4DA
330
1F
100
AcDbEntity
  8
Rüttler
100
AcDbLine
 10
271.9630992416198
 20
155.8860125686403
 30
0.0
 11
272.3670588497373
 21
135.688032162762
 31
0.0
  0
LINE
  5
4DB
330
1F
100
AcDbEntity
  8
Rüttler
100
AcDbLine
 10
256.8454987617635
 20
155.8860125686403
 30
0.0
 11
256.441539153646
 21
135.688032162762
 31
0.0
  0
LINE
  5
4DC
330
1F
100
AcDbEntity
  8
Rüttler
100
AcDbLine
 10
251.9630992416198
 20
155.8860125686403
 30
0.0
 11
252.3670588497373
 21
135.688032162762
 31
0.0
  0
ARC
  5
4DD
330
1F
100
AcDbEntity
  8
Rüttler
100
AcDbCircle
 10
314.5419190396844
 20
135.7260245650411
 30
0.0
 40
1.9
100
AcDbArc
 50
270.0
 51
358.854237161824
  0
ARC
  5
4DE
330
1F
100
AcDbEntity
  8
Rüttler
100
AcDbCircle
 10
314.2666789636994
 20
135.7260245650411
 30
0.0
 40
1.9
100
AcDbArc
 50
181.1457628381759
 51
270.0
  0
LINE
  5
4DF
330
1F
100
AcDbEntity
  8
Rüttler
100
AcDbLine
 10
314.2666789636994
 20
133.8260245650415
 30
0.0
 11
314.5419190396844
 21
133.8260245650415
 31
0.0
  0
LINE
  5
4E0
330
1F
100
AcDbEntity
  8
Rüttler
100
AcDbLine
 10
314.541919039684
 20
133.8260245650415
 30
0.0
 11
313.4042990016916
 21
133.8260245650415
 31
0.0
  0
ARC
  5
4E1
330
1F
100
AcDbEntity
  8
Rüttler
100
AcDbCircle
 10
297.4042990016917
 20
129.8260245650415
 30
0.0
 40
4.0
100
AcDbArc
 50
0.0
 51
90.0
  0
ARC
  5
4E2
330
1F
100
AcDbEntity
  8
Rüttler
100
AcDbCircle
 10
313.4042990016916
 20
131.8260245650415
 30
0.0
 40
2.0
100
AcDbArc
 50
90.0
 51
180.0
  0
ARC
  5
4E3
330
1F
100
AcDbEntity
  8
Rüttler
100
AcDbCircle
 10
314.4490135997496
 20
131.8260245650415
 30
0.0
 40
2.0
100
AcDbArc
 50
90.0
 51
178.871174494557
  0
ARC
  5
4E4
330
1F
100
AcDbEntity
  8
Rüttler
100
AcDbCircle
 10
297.3790945645926
 20
130.8260245650415
 30
0.0
 40
3.0
100
AcDbArc
 50
1.128825505442889
 51
90.0
  0
ARC
  5
4E5
330
1F
100
AcDbEntity
  8
Rüttler
100
AcDbCircle
 10
314.5419190396844
 20
135.7260245650411
 30
0.0
 40
1.9
100
AcDbArc
 50
270.0
 51
358.854237161824
  0
ARC
  5
4E6
330
1F
100
AcDbEntity
  8
Rüttler
100
AcDbCircle
 10
314.2666789636994
 20
135.7260245650411
 30
0.0
 40
1.9
100
AcDbArc
 50
181.1457628381759
 51
270.0
  0
LINE
  5
4E7
330
1F
100
AcDbEntity
  8
Rüttler
100
AcDbLine
 10
314.2666789636994
 20
133.8260245650415
 30
0.0
 11
314.5419190396844
 21
133.8260245650415
 31
0.0
  0
LINE
  5
4E8
330
1F
100
AcDbEntity
  8
Rüttler
100
AcDbLine
 10
304.2042990016919
 20
136.4212028269555
 30
0.0
 11
304.6042990016919
 21
136.4212028269555
 31
0.0
  0
ARC
  5
4E9
330
1F
100
AcDbEntity
  8
Rüttler
100
AcDbCircle
 10
304.2042990016919
 20
141.7212028269557
 30
0.0
 40
5.299999999999999
100
AcDbArc
 50
180.0
 51
270.0
  0
ARC
  5
4EA
330
1F
100
AcDbEntity
  8
Rüttler
100
AcDbCircle
 10
304.6042990016919
 20
141.7212028269557
 30
0.0
 40
5.299999999999999
100
AcDbArc
 50
270.0
 51
0.0
  0
LINE
  5
4EB
330
1F
100
AcDbEntity
  8
Rüttler
100
AcDbLine
 10
316.8454987617635
 20
155.8860125686403
 30
0.0
 11
316.4415391536461
 21
135.688032162762
 31
0.0
  0
ARC
  5
4EC
330
1F
100
AcDbEntity
  8
Rüttler
100
AcDbCircle
 10
294.2666789636994
 20
135.7260245650411
 30
0.0
 40
1.9
100
AcDbArc
 50
181.1457628381759
 51
270.0
  0
LINE
  5
4ED
330
1F
100
AcDbEntity
  8
Rüttler
100
AcDbLine
 10
294.2666789636994
 20
133.8260245650415
 30
0.0
 11
294.5419190396844
 21
133.8260245650415
 31
0.0
  0
ARC
  5
4EE
330
1F
100
AcDbEntity
  8
Rüttler
100
AcDbCircle
 10
294.2666789636994
 20
135.7260245650411
 30
0.0
 40
1.9
100
AcDbArc
 50
181.1457628381759
 51
270.0
  0
LINE
  5
4EF
330
1F
100
AcDbEntity
  8
Rüttler
100
AcDbLine
 10
294.2666789636994
 20
133.8260245650415
 30
0.0
 11
294.5419190396844
 21
133.8260245650415
 31
0.0
  0
LINE
  5
4F0
330
1F
100
AcDbEntity
  8
Rüttler
100
AcDbLine
 10
291.9630992416198
 20
155.8860125686403
 30
0.0
 11
292.3670588497373
 21
135.688032162762
 31
0.0
  0
ARC
  5
4F1
330
1F
100
AcDbEntity
  8
Rüttler
100
AcDbCircle
 10
294.5419190396844
 20
135.7260245650411
 30
0.0
 40
1.9
100
AcDbArc
 50
270.0
 51
358.854237161824
  0
LINE
  5
4F2
330
1F
100
AcDbEntity
  8
Rüttler
100
AcDbLine
 10
297.3790945645926
 20
133.8260245650415
 30
0.0
 11
294.2666789636994
 21
133.8260245650415
 31
0.0
  0
ARC
  5
4F3
330
1F
100
AcDbEntity
  8
Rüttler
100
AcDbCircle
 10
294.5419190396844
 20
135.7260245650411
 30
0.0
 40
1.9
100
AcDbArc
 50
270.0
 51
358.854237161824
  0
LINE
  5
4F4
330
1F
100
AcDbEntity
  8
Rüttler
100
AcDbLine
 10
241.5079605064745
 20
158.8260245650415
 30
0.0
 11
248.9636990616797
 21
158.8260245650415
 31
0.0
  0
ARC
  5
4F5
330
1F
100
AcDbEntity
  8
Rüttler
100
AcDbCircle
 10
221.9042990042964
 20
250.708333111417
 30
0.0
 40
0.3
100
AcDbArc
 50
240.0000000000027
 51
299.9999999999972
  0
LWPOLYLINE
  5
4F6
330
1F
100
AcDbEntity
  8
Rüttler
100
AcDbPolyline
 90
        3
 70
     0
 43
0.0
 10
318.8772262813674
 20
199.8862352243506
 42
0.1302021651151941
 10
317.8600116104969
 20
203.7263028326367
 42
0.0373449984141546
 10
316.9042990016917
 20
205.1458412330946
 42
0.084227620238561
  0
LWPOLYLINE
  5
4F7
330
1F
100
AcDbEntity
  8
Rüttler
100
AcDbPolyline
 90
        3
 70
     0
 43
0.0
 10
291.9042990016917
 20
205.1458412330942
 42
0.0373449984141547
 10
290.9485863928868
 20
203.7263028326367
 42
0.1302021651151904
 10
289.9313717220159
 20
199.8862352243506
 42
0.1302021651151959
  0
LINE
  5
4F8
330
1F
100
AcDbEntity
  8
Rüttler
100
AcDbLine
 10
279.844898941704
 20
158.8260245650415
 30
0.0
 11
288.9636990616797
 21
158.8260245650415
 31
0.0
  0
LINE
  5
4F9
330
1F
100
AcDbEntity
  8
Rüttler
100
AcDbLine
 10
259.844898941704
 20
158.8260245650415
 30
0.0
 11
268.9636990616798
 21
158.8260245650415
 31
0.0
  0
ARC
  5
4FA
330
1F
100
AcDbEntity
  8
Rüttler
100
AcDbCircle
 10
294.6042990016919
 20
194.3470379411881
 30
0.0
 40
1.8
100
AcDbArc
 50
270.0
 51
0.0
  0
LINE
  5
4FB
330
1F
100
AcDbEntity
  8
Rüttler
100
AcDbLine
 10
314.3042990016918
 20
192.0470379411879
 30
0.0
 11
314.504299001692
 21
192.0470379411879
 31
0.0
  0
LINE
  5
4FC
330
1F
100
AcDbEntity
  8
Rüttler
100
AcDbLine
 10
314.2042990016918
 20
192.5470379411878
 30
0.0
 11
314.6042990016915
 21
192.5470379411878
 31
0.0
  0
ARC
  5
4FD
330
1F
100
AcDbEntity
  8
Rüttler
100
AcDbCircle
 10
314.6042990016915
 20
194.3470379411881
 30
0.0
 40
1.8
100
AcDbArc
 50
270.0
 51
0.0
  0
ARC
  5
4FE
330
1F
100
AcDbEntity
  8
Rüttler
100
AcDbCircle
 10
314.2042990016918
 20
194.3470379411881
 30
0.0
 40
1.8
100
AcDbArc
 50
180.0
 51
270.0
  0
ARC
  5
4FF
330
1F
100
AcDbEntity
  8
Rüttler
100
AcDbCircle
 10
314.504299001692
 20
194.4470379411884
 30
0.0
 40
2.399999999999999
100
AcDbArc
 50
270.0
 51
0.0
  0
ARC
  5
500
330
1F
100
AcDbEntity
  8
Rüttler
100
AcDbCircle
 10
314.3042990016918
 20
194.4470379411884
 30
0.0
 40
2.399999999999999
100
AcDbArc
 50
180.0
 51
270.0
  0
LINE
  5
501
330
1F
100
AcDbEntity
  8
Rüttler
100
AcDbLine
 10
314.4152550560577
 20
178.2260245650411
 30
0.0
 11
314.4152550560577
 21
173.2260245650411
 31
0.0
  0
LWPOLYLINE
  5
502
330
1F
100
AcDbEntity
  8
Rüttler
100
AcDbPolyline
 90
        7
 70
     0
 43
0.0
 10
309.9042990016917
 20
168.5524882030374
 42
0.0373685619985394
 10
311.4831139138944
 20
169.2832395955117
 42
0.1061884124491371
 10
313.7751320244703
 20
171.292575334822
 42
0.1612356274381167
 10
314.4152550560577
 20
173.2260245650411
 42
0.1612356274381257
 10
313.7751320244703
 20
175.1594737952602
 42
0.1061884124491516
 10
311.4831139138944
 20
177.1688095345709
 42
0.0393719713015998
 10
309.8168440387814
 20
177.9319594015125
 42
0.0567465007696195
  0
ARC
  5
503
330
1F
100
AcDbEntity
  8
Rüttler
100
AcDbCircle
 10
308.9636990616797
 20
160.8260245650415
 30
0.0
 40
3.0
100
AcDbArc
 50
1.145762838175982
 51
71.72770605294696
  0
ARC
  5
504
330
1F
100
AcDbEntity
  8
Rüttler
100
AcDbCircle
 10
299.844898941704
 20
160.8260245650415
 30
0.0
 40
3.0
100
AcDbArc
 50
108.272293947053
 51
178.854237161824
  0
LINE
  5
505
330
1F
100
AcDbEntity
  8
Rüttler
100
AcDbLine
 10
311.9042990016917
 20
169.2077229139165
 30
0.0
 11
311.9042990016917
 21
163.8260245650415
 31
0.0
  0
LINE
  5
506
330
1F
100
AcDbEntity
  8
Rüttler
100
AcDbLine
 10
316.9042990016917
 20
172.9664185562976
 30
0.0
 11
316.9042990016917
 21
158.8260245650415
 31
0.0
  0
LINE
  5
507
330
1F
100
AcDbEntity
  8
Rüttler
100
AcDbLine
 10
296.9042990016916
 20
169.2077229139165
 30
0.0
 11
296.9042990016916
 21
163.8260245650415
 31
0.0
  0
LINE
  5
508
330
1F
100
AcDbEntity
  8
Rüttler
100
AcDbLine
 10
304.2042990016919
 20
182.2731193542088
 30
0.0
 11
304.6042990016919
 21
182.2731193542088
 31
0.0
  0
ARC
  5
509
330
1F
100
AcDbEntity
  8
Rüttler
100
AcDbCircle
 10
304.6042990016919
 20
176.9731193542086
 30
0.0
 40
5.299999999999999
100
AcDbArc
 50
0.0
 51
90.0
  0
ARC
  5
50A
330
1F
100
AcDbEntity
  8
Rüttler
100
AcDbCircle
 10
304.2042990016919
 20
176.9731193542086
 30
0.0
 40
5.299999999999999
100
AcDbArc
 50
90.0
 51
180.0
  0
LINE
  5
50B
330
1F
100
AcDbEntity
  8
Rüttler
100
AcDbLine
 10
318.8772262813674
 20
199.8862352243506
 30
0.0
 11
318.8772262813674
 21
178.2260245650411
 31
0.0
  0
LINE
  5
50C
330
1F
100
AcDbEntity
  8
Rüttler
100
AcDbLine
 10
294.3042990016918
 20
192.0470379411879
 30
0.0
 11
294.504299001692
 21
192.0470379411879
 31
0.0
  0
ARC
  5
50D
330
1F
100
AcDbEntity
  8
Rüttler
100
AcDbCircle
 10
294.3042990016918
 20
194.447037941188
 30
0.0
 40
2.399999999999999
100
AcDbArc
 50
180.0
 51
270.0
  0
ARC
  5
50E
330
1F
100
AcDbEntity
  8
Rüttler
100
AcDbCircle
 10
294.2042990016918
 20
194.3470379411881
 30
0.0
 40
1.8
100
AcDbArc
 50
180.0
 51
270.0
  0
LINE
  5
50F
330
1F
100
AcDbEntity
  8
Rüttler
100
AcDbLine
 10
294.3933429473265
 20
178.2260245650411
 30
0.0
 11
294.3933429473265
 21
173.2260245650411
 31
0.0
  0
LINE
  5
510
330
1F
100
AcDbEntity
  8
Rüttler
100
AcDbLine
 10
291.9042990016917
 20
172.9664185562976
 30
0.0
 11
291.9042990016917
 21
158.8260245650415
 31
0.0
  0
LINE
  5
511
330
1F
100
AcDbEntity
  8
Rüttler
100
AcDbLine
 10
289.9313717220159
 20
199.8862352243506
 30
0.0
 11
289.9313717220159
 21
178.2260245650411
 31
0.0
  0
LWPOLYLINE
  5
512
330
1F
100
AcDbEntity
  8
Rüttler
100
AcDbPolyline
 90
       17
 70
     0
 43
0.0
 10
309.9042990016917
 20
168.4819873262765
 42
0.002902422120704
 10
310.1252455513547
 20
168.5471237219514
 42
0.0842276202385612
 10
314.6382040247701
 20
170.7861466059273
 42
0.1064731699313653
 10
317.8600116104969
 20
174.385956956755
 42
0.1302021651151959
 10
318.8772262813674
 20
178.2260245650411
 42
0.1302021651151941
 10
317.8600116104969
 20
182.0660921733276
 42
0.1064731699313614
 10
314.6382040247701
 20
185.6659025241549
 42
0.084227620238561
 10
310.1252455513547
 20
187.9049254081312
 42
0.0732530584179624
 10
304.4042990016917
 20
188.7476008772202
 42
0.0732530584179617
 10
298.6833524520291
 20
187.9049254081312
 42
0.0842276202385588
 10
294.1703939786132
 20
185.6659025241549
 42
0.1064731699313646
 10
290.9485863928868
 20
182.0660921733276
 42
0.1302021651151908
 10
289.9313717220159
 20
178.2260245650411
 42
0.1302021651151959
 10
290.9485863928868
 20
174.385956956755
 42
0.1064731699313654
 10
294.1703939786132
 20
170.7861466059273
 42
0.0842276202385636
 10
298.6833524520291
 20
168.5471237219514
 42
0.0029024221207041
 10
298.9042990016916
 20
168.4819873262765
 42
0.0732530584179659
  0
LWPOLYLINE
  5
513
330
1F
100
AcDbEntity
  8
Rüttler
100
AcDbPolyline
 90
        7
 70
     0
 43
0.0
 10
298.9917539646023
 20
177.9319594015125
 42
0.0393719713015983
 10
297.3254840894894
 20
177.1688095345709
 42
0.1061884124491363
 10
295.0334659789134
 20
175.1594737952607
 42
0.1612356274381258
 10
294.3933429473265
 20
173.2260245650411
 42
0.1612356274381122
 10
295.0334659789134
 20
171.292575334822
 42
0.1061884124491302
 10
297.3254840894894
 20
169.2832395955117
 42
0.037368561998544
 10
298.9042990016916
 20
168.552488203037
 42
0.0567465007696257
  0
LWPOLYLINE
  5
514
330
1F
100
AcDbEntity
  8
Rüttler
100
AcDbPolyline
 90
       17
 70
     0
 43
0.0
 10
309.9042990016917
 20
168.4819873262765
 42
0.002902422120704
 10
310.1252455513547
 20
168.5471237219514
 42
0.0842276202385612
 10
314.6382040247701
 20
170.7861466059273
 42
0.1064731699313653
 10
317.8600116104969
 20
174.385956956755
 42
0.1302021651151959
 10
318.8772262813674
 20
178.2260245650411
 42
0.1302021651151941
 10
317.8600116104969
 20
182.0660921733276
 42
0.1064731699313614
 10
314.6382040247701
 20
185.6659025241549
 42
0.084227620238561
 10
310.1252455513547
 20
187.9049254081312
 42
0.0732530584179624
 10
304.4042990016917
 20
188.7476008772202
 42
0.0732530584179617
 10
298.6833524520291
 20
187.9049254081312
 42
0.0842276202385588
 10
294.1703939786132
 20
185.6659025241549
 42
0.1064731699313646
 10
290.9485863928868
 20
182.0660921733276
 42
0.1302021651151908
 10
289.9313717220159
 20
178.2260245650411
 42
0.1302021651151959
 10
290.9485863928868
 20
174.385956956755
 42
0.1064731699313654
 10
294.1703939786132
 20
170.7861466059273
 42
0.0842276202385636
 10
298.6833524520291
 20
168.5471237219514
 42
0.0029024221207041
 10
298.9042990016916
 20
168.4819873262765
 42
0.0732530584179659
  0
ARC
  5
515
330
1F
100
AcDbEntity
  8
Rüttler
100
AcDbCircle
 10
294.504299001692
 20
194.447037941188
 30
0.0
 40
2.399999999999999
100
AcDbArc
 50
270.0
 51
0.0
  0
LWPOLYLINE
  5
516
330
1F
100
AcDbEntity
  8
Rüttler
100
AcDbPolyline
 90
        9
 70
     0
 43
0.0
 10
314.4152550560577
 20
178.2260245650411
 42
0.1612356274381257
 10
313.7751320244703
 20
180.1594737952602
 42
0.1061884124491516
 10
311.4831139138944
 20
182.1688095345709
 42
0.0704779398103112
 10
308.4318762225705
 20
183.3433860160614
 42
0.0567465007696195
 10
304.4042990016917
 20
183.8019645424708
 42
0.0567465007696171
 10
300.3767217808128
 20
183.3433860160614
 42
0.0704779398103021
 10
297.3254840894894
 20
182.1688095345709
 42
0.1061884124491363
 10
295.0334659789134
 20
180.1594737952607
 42
0.1612356274381255
 10
294.3933429473265
 20
178.2260245650411
 42
0.1612356274381122
  0
LINE
  5
517
330
1F
100
AcDbEntity
  8
Rüttler
100
AcDbLine
 10
294.2042990016918
 20
192.5470379411878
 30
0.0
 11
294.6042990016919
 21
192.5470379411878
 31
0.0
  0
LWPOLYLINE
  5
518
330
1F
100
AcDbEntity
  8
Rüttler
100
AcDbPolyline
 90
        5
 70
     0
 43
0.0
 10
311.9042990016917
 20
208.9045368754752
 42
0.0315360410077315
 10
310.1252455513547
 20
209.5651360674407
 42
0.0732530584179624
 10
304.4042990016917
 20
210.4078115365298
 42
0.0732530584179617
 10
298.6833524520291
 20
209.5651360674407
 42
0.0315360410077331
 10
296.9042990016916
 20
208.9045368754748
 42
0.1064731699313646
  0
ARC
  5
519
330
1F
100
AcDbEntity
  8
Rüttler
100
AcDbCircle
 10
429.3006374969093
 20
152.8260245650415
 30
0.0
 40
6.0
100
AcDbArc
 50
2.00000000000364
 51
90.0
  0
ARC
  5
51A
330
1F
100
AcDbEntity
  8
Rüttler
100
AcDbCircle
 10
421.844898941704
 20
155.8260245650415
 30
0.0
 40
3.0
100
AcDbArc
 50
90.0
 51
178.854237161824
  0
ARC
  5
51B
330
1F
100
AcDbEntity
  8
Rüttler
100
AcDbCircle
 10
390.9636990616797
 20
155.8260245650415
 30
0.0
 40
3.0
100
AcDbArc
 50
1.145762838175982
 51
90.0
  0
ARC
  5
51C
330
1F
100
AcDbEntity
  8
Rüttler
100
AcDbCircle
 10
410.9636990616797
 20
155.8260245650415
 30
0.0
 40
3.0
100
AcDbArc
 50
1.145762838175982
 51
90.0
  0
ARC
  5
51D
330
1F
100
AcDbEntity
  8
Rüttler
100
AcDbCircle
 10
401.844898941704
 20
155.8260245650415
 30
0.0
 40
3.0
100
AcDbArc
 50
90.0
 51
178.854237161824
  0
LINE
  5
51E
330
1F
100
AcDbEntity
  8
Rüttler
100
AcDbLine
 10
394.4042990016916
 20
187.9260245650414
 30
0.0
 11
394.4042990016916
 21
135.3498053774494
 31
0.0
  0
LINE
  5
51F
330
1F
100
AcDbEntity
  8
Rüttler
100
AcDbLine
 10
398.4042990016921
 20
189.8260245650415
 30
0.0
 11
398.4042990016916
 21
135.349805377449
 31
0.0
  0
LINE
  5
520
330
1F
100
AcDbEntity
  8
Rüttler
100
AcDbLine
 10
414.4042990016917
 20
204.6080703194745
 30
0.0
 11
414.4042990016917
 21
135.349805377449
 31
0.0
  0
LINE
  5
521
330
1F
100
AcDbEntity
  8
Rüttler
100
AcDbLine
 10
418.4042990016921
 20
210.6079393116713
 30
0.0
 11
418.4042990016921
 21
135.3498053774494
 31
0.0
  0
ARC
  5
522
330
1F
100
AcDbEntity
  8
Rüttler
100
AcDbCircle
 10
361.844898941704
 20
155.8260245650415
 30
0.0
 40
3.0
100
AcDbArc
 50
90.0
 51
178.854237161824
  0
ARC
  5
523
330
1F
100
AcDbEntity
  8
Rüttler
100
AcDbCircle
 10
350.9636990616802
 20
155.8260245650415
 30
0.0
 40
3.0
100
AcDbArc
 50
1.145762838175982
 51
90.0
  0
ARC
  5
524
330
1F
100
AcDbEntity
  8
Rüttler
100
AcDbCircle
 10
329.9636990616797
 20
155.8260245650415
 30
0.0
 40
3.0
100
AcDbArc
 50
1.145762838175982
 51
90.0
  0
ARC
  5
525
330
1F
100
AcDbEntity
  8
Rüttler
100
AcDbCircle
 10
340.844898941704
 20
155.8260245650415
 30
0.0
 40
3.0
100
AcDbArc
 50
90.0
 51
178.854237161824
  0
LINE
  5
526
330
1F
100
AcDbEntity
  8
Rüttler
100
AcDbLine
 10
388.9042990016917
 20
181.8260245650415
 30
0.0
 11
387.5231753878372
 21
144.9960615289198
 31
0.0
  0
LINE
  5
527
330
1F
100
AcDbEntity
  8
Rüttler
100
AcDbLine
 10
363.9042990016917
 20
181.8260245650415
 30
0.0
 11
365.3230600237823
 21
143.9923973093011
 31
0.0
  0
LINE
  5
528
330
1F
100
AcDbEntity
  8
Rüttler
100
AcDbLine
 10
358.4042990016917
 20
187.9260245650414
 30
0.0
 11
358.4042990016917
 21
135.349805377449
 31
0.0
  0
LINE
  5
529
330
1F
100
AcDbEntity
  8
Rüttler
100
AcDbLine
 10
354.4042990016917
 20
189.8260245650415
 30
0.0
 11
354.4042990016917
 21
135.349805377449
 31
0.0
  0
LINE
  5
52A
330
1F
100
AcDbEntity
  8
Rüttler
100
AcDbLine
 10
337.4042990016917
 20
204.1391393984938
 30
0.0
 11
337.4042990016917
 21
135.3498053774494
 31
0.0
  0
LINE
  5
52B
330
1F
100
AcDbEntity
  8
Rüttler
100
AcDbLine
 10
333.4042990016917
 20
204.9524033233071
 30
0.0
 11
333.4042990016917
 21
135.349805377449
 31
0.0
  0
LINE
  5
52C
330
1F
100
AcDbEntity
  8
ACHSEN
100
AcDbLine
 10
376.4042990016917
 20
204.0939850913161
 30
0.0
 11
376.4042990016917
 21
84.1966860827099
 31
0.0
  0
ARC
  5
52D
330
1F
100
AcDbEntity
  8
Rüttler
100
AcDbCircle
 10
400.4042990016917
 20
103.8260245650415
 30
0.0
 40
22.5
100
AcDbArc
 50
214.8899941263683
 51
139.0739366903898
  0
CIRCLE
  5
52E
330
1F
100
AcDbEntity
  8
Rüttler
100
AcDbCircle
 10
400.4042990016917
 20
103.8260245650415
 30
0.0
 40
13.0
  0
LINE
  5
52F
330
1F
100
AcDbEntity
  8
Rüttler
100
AcDbLine
 10
367.4042990016903
 20
78.82602456504151
 30
0.0
 11
402.9042990016916
 21
78.82602456504151
 31
0.0
  0
LINE
  5
530
330
1F
100
AcDbEntity
  8
ACHSEN
100
AcDbLine
 10
378.8418447346546
 20
103.8260245650415
 30
0.0
 11
433.635727921913
 21
103.8260245650415
 31
0.0
  0
LINE
  5
531
330
1F
100
AcDbEntity
  8
Rüttler
100
AcDbLine
 10
383.4042990016916
 20
91.68408834759224
 30
0.0
 11
383.4042990016916
 21
143.8064381675173
 31
0.0
  0
LINE
  5
532
330
1F
100
AcDbEntity
  8
Rüttler
100
AcDbLine
 10
369.4042990016916
 20
88.73031003015716
 30
0.0
 11
369.4042990016916
 21
143.2669860068406
 31
0.0
  0
LINE
  5
533
330
1F
100
AcDbEntity
  8
Rüttler
100
AcDbLine
 10
359.3197154982346
 20
86.62421247030647
 30
0.0
 11
358.3591962583493
 21
131.8654254594655
 31
0.0
  0
LINE
  5
534
330
1F
100
AcDbEntity
  8
Rüttler
100
AcDbLine
 10
359.4042990016916
 20
87.3315643287799
 30
0.0
 11
359.4042990016916
 21
131.8260245650415
 31
0.0
  0
LINE
  5
535
330
1F
100
AcDbEntity
  8
ACHSEN
100
AcDbLine
 10
400.4042990016917
 20
134.0462702048623
 30
0.0
 11
400.4042990016917
 21
72.75365387729812
 31
0.0
  0
ARC
  5
536
330
1F
100
AcDbEntity
  8
Rüttler
100
AcDbCircle
 10
356.4042990016917
 20
87.3315643287799
 30
0.0
 40
3.0
100
AcDbArc
 50
291.6182220907275
 51
0.0
  0
LINE
  5
537
330
1F
100
AcDbEntity
  8
Rüttler
100
AcDbLine
 10
383.4042990016916
 20
91.68408834759224
 30
0.0
 11
383.3120942117177
 21
91.63796770434851
 31
0.0
  0
LINE
  5
538
330
1F
100
AcDbEntity
  8
Rüttler
100
AcDbLine
 10
383.3120942117177
 20
91.63796770434851
 30
0.0
 11
382.171199708536
 21
91.06729215937662
 31
0.0
  0
LINE
  5
539
330
1F
100
AcDbEntity
  8
Rüttler
100
AcDbLine
 10
382.171199708536
 20
91.06729215937662
 30
0.0
 11
381.0303038728936
 21
90.49661844678144
 31
0.0
  0
LINE
  5
53A
330
1F
100
AcDbEntity
  8
Rüttler
100
AcDbLine
 10
381.0303038728936
 20
90.49661844678144
 30
0.0
 11
379.8894080372508
 21
90.21128067429504
 31
0.0
  0
LINE
  5
53B
330
1F
100
AcDbEntity
  8
Rüttler
100
AcDbLine
 10
379.8894080372508
 20
90.21128067429504
 30
0.0
 11
378.748512201608
 21
90.49661844678144
 31
0.0
  0
LINE
  5
53C
330
1F
100
AcDbEntity
  8
Rüttler
100
AcDbLine
 10
378.748512201608
 20
90.49661844678144
 30
0.0
 11
377.6076163659656
 21
90.78195438689067
 31
0.0
  0
LINE
  5
53D
330
1F
100
AcDbEntity
  8
Rüttler
100
AcDbLine
 10
377.6076163659656
 20
90.78195438689067
 30
0.0
 11
374.1849288590372
 21
90.78195438689067
 31
0.0
  0
LINE
  5
53E
330
1F
100
AcDbEntity
  8
Rüttler
100
AcDbLine
 10
374.1849288590372
 20
90.78195438689067
 30
0.0
 11
373.0440330233943
 21
90.21128067429504
 31
0.0
  0
LINE
  5
53F
330
1F
100
AcDbEntity
  8
Rüttler
100
AcDbLine
 10
373.0440330233943
 20
90.21128067429504
 30
0.0
 11
371.903137187752
 21
89.3552673568372
 31
0.0
  0
LINE
  5
540
330
1F
100
AcDbEntity
  8
Rüttler
100
AcDbLine
 10
371.903137187752
 20
89.3552673568372
 30
0.0
 11
370.7622426845702
 21
89.06993141672842
 31
0.0
  0
LINE
  5
541
330
1F
100
AcDbEntity
  8
Rüttler
100
AcDbLine
 10
370.7622426845702
 20
89.06993141672842
 30
0.0
 11
369.4042990016916
 21
88.73031003015716
 31
0.0
  0
ARC
  5
542
330
1F
100
AcDbEntity
  8
Rüttler
100
AcDbCircle
 10
372.4042990016917
 20
83.8260245650415
 30
0.0
 40
3.0
100
AcDbArc
 50
180.0
 51
249.6707977303951
  0
LINE
  5
543
330
1F
100
AcDbEntity
  8
Rüttler
100
AcDbLine
 10
369.4888825051486
 20
83.11867270656808
 30
0.0
 11
369.600422231095
 21
88.77936040238433
 31
0.0
  0
LINE
  5
544
330
1F
100
AcDbEntity
  8
Rüttler
100
AcDbLine
 10
369.4042990016916
 20
83.8260245650415
 30
0.0
 11
369.4042990016916
 21
88.73031003015716
 31
0.0
  0
ARC
  5
546
330
1F
100
AcDbEntity
  8
Rüttler
100
AcDbCircle
 10
363.4042990016916
 20
80.82602456504151
 30
0.0
 40
2.0
100
AcDbArc
 50
0.0
 51
90.0
  0
ARC
  5
547
330
1F
100
AcDbEntity
  8
Rüttler
100
AcDbCircle
 10
367.4042990016903
 20
80.82602456504151
 30
0.0
 40
2.0
100
AcDbArc
 50
180.0
 51
270.0
  0
ARC
  5
548
330
1F
100
AcDbEntity
  8
Rüttler
100
AcDbCircle
 10
356.5419190396844
 20
135.7260245650411
 30
0.0
 40
1.9
100
AcDbArc
 50
270.0
 51
358.854237161824
  0
ARC
  5
549
330
1F
100
AcDbEntity
  8
Rüttler
100
AcDbCircle
 10
356.2666789636994
 20
135.7260245650411
 30
0.0
 40
1.9
100
AcDbArc
 50
181.1457628381759
 51
270.0
  0
LINE
  5
54A
330
1F
100
AcDbEntity
  8
Rüttler
100
AcDbLine
 10
356.2666789636994
 20
133.8260245650415
 30
0.0
 11
356.5419190396844
 21
133.8260245650415
 31
0.0
  0
ARC
  5
54B
330
1F
100
AcDbEntity
  8
Rüttler
100
AcDbCircle
 10
356.3595844036338
 20
131.8260245650415
 30
0.0
 40
2.0
100
AcDbArc
 50
1.128825505442889
 51
90.0
  0
ARC
  5
54C
330
1F
100
AcDbEntity
  8
Rüttler
100
AcDbCircle
 10
357.4042990016916
 20
131.8260245650415
 30
0.0
 40
2.0
100
AcDbArc
 50
0.0
 51
90.0
  0
ARC
  5
54D
330
1F
100
AcDbEntity
  8
Rüttler
100
AcDbCircle
 10
356.5419190396844
 20
135.7260245650411
 30
0.0
 40
1.9
100
AcDbArc
 50
270.0
 51
358.854237161824
  0
ARC
  5
54E
330
1F
100
AcDbEntity
  8
Rüttler
100
AcDbCircle
 10
356.2666789636994
 20
135.7260245650411
 30
0.0
 40
1.9
100
AcDbArc
 50
181.1457628381759
 51
270.0
  0
LINE
  5
54F
330
1F
100
AcDbEntity
  8
Rüttler
100
AcDbLine
 10
356.2666789636994
 20
133.8260245650415
 30
0.0
 11
357.4042990016916
 21
133.8260245650415
 31
0.0
  0
ARC
  5
550
330
1F
100
AcDbEntity
  8
Rüttler
100
AcDbCircle
 10
335.5419190396844
 20
135.7260245650411
 30
0.0
 40
1.9
100
AcDbArc
 50
270.0
 51
358.854237161824
  0
ARC
  5
551
330
1F
100
AcDbEntity
  8
Rüttler
100
AcDbCircle
 10
335.2666789636994
 20
135.7260245650411
 30
0.0
 40
1.9
100
AcDbArc
 50
181.1457628381759
 51
270.0
  0
LINE
  5
552
330
1F
100
AcDbEntity
  8
Rüttler
100
AcDbLine
 10
335.2666789636994
 20
133.8260245650415
 30
0.0
 11
335.5419190396844
 21
133.8260245650415
 31
0.0
  0
ARC
  5
553
330
1F
100
AcDbEntity
  8
Rüttler
100
AcDbCircle
 10
335.5419190396844
 20
135.7260245650411
 30
0.0
 40
1.9
100
AcDbArc
 50
270.0
 51
358.854237161824
  0
ARC
  5
554
330
1F
100
AcDbEntity
  8
Rüttler
100
AcDbCircle
 10
335.2666789636994
 20
135.7260245650411
 30
0.0
 40
1.9
100
AcDbArc
 50
181.1457628381759
 51
270.0
  0
LINE
  5
555
330
1F
100
AcDbEntity
  8
Rüttler
100
AcDbLine
 10
335.2666789636994
 20
133.8260245650415
 30
0.0
 11
335.5419190396844
 21
133.826024565041
 31
0.0
  0
LINE
  5
556
330
1F
100
AcDbEntity
  8
Rüttler
100
AcDbLine
 10
358.441539153646
 20
135.688032162762
 30
0.0
 11
358.845498761764
 21
155.8860125686403
 31
0.0
  0
LINE
  5
557
330
1F
100
AcDbEntity
  8
Rüttler
100
AcDbLine
 10
353.9630992416198
 20
155.8860125686403
 30
0.0
 11
354.3670588497373
 21
135.688032162762
 31
0.0
  0
LINE
  5
558
330
1F
100
AcDbEntity
  8
Rüttler
100
AcDbLine
 10
337.441539153646
 20
135.688032162762
 30
0.0
 11
337.8454987617635
 21
155.8860125686403
 31
0.0
  0
LINE
  5
559
330
1F
100
AcDbEntity
  8
Rüttler
100
AcDbLine
 10
332.9630992416198
 20
155.8860125686403
 30
0.0
 11
333.3670588497373
 21
135.688032162762
 31
0.0
  0
ARC
  5
55A
330
1F
100
AcDbEntity
  8
Rüttler
100
AcDbCircle
 10
396.5419190396844
 20
135.7260245650411
 30
0.0
 40
1.9
100
AcDbArc
 50
270.0
 51
358.854237161824
  0
ARC
  5
55B
330
1F
100
AcDbEntity
  8
Rüttler
100
AcDbCircle
 10
396.2666789636998
 20
135.7260245650411
 30
0.0
 40
1.9
100
AcDbArc
 50
181.1457628381759
 51
270.0
  0
LINE
  5
55C
330
1F
100
AcDbEntity
  8
Rüttler
100
AcDbLine
 10
396.2666789636998
 20
133.8260245650415
 30
0.0
 11
396.5419190396844
 21
133.8260245650415
 31
0.0
  0
LINE
  5
55D
330
1F
100
AcDbEntity
  8
Rüttler
100
AcDbLine
 10
398.441539153646
 20
135.688032162762
 30
0.0
 11
398.845498761764
 21
155.8860125686403
 31
0.0
  0
LINE
  5
55E
330
1F
100
AcDbEntity
  8
Rüttler
100
AcDbLine
 10
394.3670588497372
 20
135.688032162762
 30
0.0
 11
393.9630992416198
 21
155.8860125686403
 31
0.0
  0
LINE
  5
55F
330
1F
100
AcDbEntity
  8
Rüttler
100
AcDbLine
 10
368.1952270543736
 20
143.8547122713523
 30
0.0
 11
367.0543312187312
 21
144.1400500438387
 31
0.0
  0
LINE
  5
560
330
1F
100
AcDbEntity
  8
Rüttler
100
AcDbLine
 10
387.5231753878372
 20
144.9960615289198
 30
0.0
 11
387.0200056775568
 21
144.9960615289198
 31
0.0
  0
LINE
  5
561
330
1F
100
AcDbEntity
  8
Rüttler
100
AcDbLine
 10
387.0200056775568
 20
144.9960615289198
 30
0.0
 11
385.8791098419144
 21
144.7107237564339
 31
0.0
  0
LINE
  5
562
330
1F
100
AcDbEntity
  8
Rüttler
100
AcDbLine
 10
385.8791098419144
 20
144.7107237564339
 30
0.0
 11
384.7382140062711
 21
144.1400500438387
 31
0.0
  0
LINE
  5
563
330
1F
100
AcDbEntity
  8
Rüttler
100
AcDbLine
 10
384.7382140062711
 20
144.1400500438387
 30
0.0
 11
383.5973181706287
 21
143.8547122713523
 31
0.0
  0
LINE
  5
564
330
1F
100
AcDbEntity
  8
Rüttler
100
AcDbLine
 10
383.5973181706287
 20
143.8547122713523
 30
0.0
 11
382.4564236674471
 21
143.5693744988664
 31
0.0
  0
LINE
  5
565
330
1F
100
AcDbEntity
  8
Rüttler
100
AcDbLine
 10
382.4564236674471
 20
143.5693744988664
 30
0.0
 11
381.3155278318042
 21
143.8547122713523
 31
0.0
  0
LINE
  5
566
330
1F
100
AcDbEntity
  8
Rüttler
100
AcDbLine
 10
381.3155278318042
 20
143.8547122713523
 30
0.0
 11
379.8894080372508
 21
144.1400500438387
 31
0.0
  0
LINE
  5
567
330
1F
100
AcDbEntity
  8
Rüttler
100
AcDbLine
 10
379.8894080372508
 20
144.1400500438387
 30
0.0
 11
378.748512201608
 21
144.4253878163251
 31
0.0
  0
LINE
  5
568
330
1F
100
AcDbEntity
  8
Rüttler
100
AcDbLine
 10
378.748512201608
 20
144.4253878163251
 30
0.0
 11
377.6076163659656
 21
144.4253878163251
 31
0.0
  0
LINE
  5
569
330
1F
100
AcDbEntity
  8
Rüttler
100
AcDbLine
 10
377.6076163659656
 20
144.4253878163251
 30
0.0
 11
376.4667205303223
 21
144.1400500438387
 31
0.0
  0
LINE
  5
56A
330
1F
100
AcDbEntity
  8
Rüttler
100
AcDbLine
 10
376.4667205303223
 20
144.1400500438387
 30
0.0
 11
375.32582469468
 21
144.1400500438387
 31
0.0
  0
LINE
  5
56B
330
1F
100
AcDbEntity
  8
Rüttler
100
AcDbLine
 10
375.32582469468
 20
144.1400500438387
 30
0.0
 11
374.1849288590372
 21
143.5693744988664
 31
0.0
  0
LINE
  5
56C
330
1F
100
AcDbEntity
  8
Rüttler
100
AcDbLine
 10
374.1849288590372
 20
143.5693744988664
 30
0.0
 11
373.0440330233943
 21
143.2840367263804
 31
0.0
  0
LINE
  5
56D
330
1F
100
AcDbEntity
  8
Rüttler
100
AcDbLine
 10
373.0440330233943
 20
143.2840367263804
 30
0.0
 11
371.6179145613025
 21
142.9987007862716
 31
0.0
  0
LINE
  5
56E
330
1F
100
AcDbEntity
  8
Rüttler
100
AcDbLine
 10
371.6179145613025
 20
142.9987007862716
 30
0.0
 11
370.4770187256592
 21
142.9987007862716
 31
0.0
  0
LINE
  5
56F
330
1F
100
AcDbEntity
  8
Rüttler
100
AcDbLine
 10
370.4770187256592
 20
142.9987007862716
 30
0.0
 11
369.3361228900168
 21
143.2840367263804
 31
0.0
  0
LINE
  5
570
330
1F
100
AcDbEntity
  8
Rüttler
100
AcDbLine
 10
369.3361228900168
 20
143.2840367263804
 30
0.0
 11
368.1952270543736
 21
143.8547122713523
 31
0.0
  0
LINE
  5
571
330
1F
100
AcDbEntity
  8
Rüttler
100
AcDbLine
 10
365.9134353830888
 20
144.1400500438387
 30
0.0
 11
365.3230600237823
 21
143.9923973093011
 31
0.0
  0
LINE
  5
572
330
1F
100
AcDbEntity
  8
Rüttler
100
AcDbLine
 10
367.0543312187312
 20
144.1400500438387
 30
0.0
 11
365.9134353830888
 21
144.1400500438387
 31
0.0
  0
LINE
  5
573
330
1F
100
AcDbEntity
  8
Rüttler
100
AcDbLine
 10
427.9042990016916
 20
132.9260245650414
 30
0.0
 11
427.9042990016916
 21
103.8260245650415
 31
0.0
  0
ARC
  5
574
330
1F
100
AcDbEntity
  8
Rüttler
100
AcDbCircle
 10
402.9042990016916
 20
103.8260245650415
 30
0.0
 40
25.0
100
AcDbArc
 50
270.0
 51
0.0
  0
LINE
  5
575
330
1F
100
AcDbEntity
  8
Rüttler
100
AcDbLine
 10
438.335676551306
 20
121.3260245650415
 30
0.0
 11
441.4042990016916
 21
121.3260245650415
 31
0.0
  0
ARC
  5
576
330
1F
100
AcDbEntity
  8
Rüttler
100
AcDbCircle
 10
416.5419190396844
 20
135.7260245650411
 30
0.0
 40
1.9
100
AcDbArc
 50
270.0
 51
358.854237161824
  0
LINE
  5
577
330
1F
100
AcDbEntity
  8
Rüttler
100
AcDbLine
 10
416.2666789636993
 20
133.8260245650415
 30
0.0
 11
416.5419190396844
 21
133.8260245650415
 31
0.0
  0
LINE
  5
578
330
1F
100
AcDbEntity
  8
Rüttler
100
AcDbLine
 10
431.8042990016918
 20
136.8260245650415
 30
0.0
 11
432.0968408528222
 21
136.8260245650415
 31
0.0
  0
ARC
  5
579
330
1F
100
AcDbEntity
  8
Rüttler
100
AcDbCircle
 10
438.335676551306
 20
123.3260245650415
 30
0.0
 40
2.0
100
AcDbArc
 50
182.0000000000036
 51
270.0
  0
ARC
  5
57A
330
1F
100
AcDbEntity
  8
Rüttler
100
AcDbCircle
 10
432.0968408528222
 20
132.9260245650414
 30
0.0
 40
3.9
100
AcDbArc
 50
2.00000000000364
 51
90.0
  0
ARC
  5
57B
330
1F
100
AcDbEntity
  8
Rüttler
100
AcDbCircle
 10
431.8042990016918
 20
132.9260245650414
 30
0.0
 40
3.9
100
AcDbArc
 50
90.0
 51
180.0
  0
ARC
  5
57C
330
1F
100
AcDbEntity
  8
Rüttler
100
AcDbCircle
 10
416.2666789636993
 20
135.7260245650411
 30
0.0
 40
1.9
100
AcDbArc
 50
181.1457628381759
 51
270.0
  0
LINE
  5
57D
330
1F
100
AcDbEntity
  8
Rüttler
100
AcDbLine
 10
418.8454987617635
 20
155.8860125686403
 30
0.0
 11
418.441539153646
 21
135.688032162762
 31
0.0
  0
LINE
  5
57E
330
1F
100
AcDbEntity
  8
Rüttler
100
AcDbLine
 10
414.3670588497372
 20
135.688032162762
 30
0.0
 11
413.9630992416198
 21
155.8860125686403
 31
0.0
  0
LINE
  5
57F
330
1F
100
AcDbEntity
  8
Rüttler
100
AcDbLine
 10
436.3368948972676
 20
123.2562255716363
 30
0.0
 11
435.2969824590238
 21
153.0354215452564
 31
0.0
  0
LINE
  5
580
330
1F
100
AcDbEntity
  8
Rüttler
100
AcDbLine
 10
372.4042990016917
 20
203.8260245650415
 30
0.0
 11
412.3773023926516
 21
206.5038213213977
 31
0.0
  0
ARC
  5
581
330
1F
100
AcDbEntity
  8
Rüttler
100
AcDbCircle
 10
400.9042990016917
 20
203.2255994803451
 30
0.0
 40
2.5
100
AcDbArc
 50
93.8325256060592
 51
207.5801992036006
  0
ARC
  5
582
330
1F
100
AcDbEntity
  8
Rüttler
100
AcDbCircle
 10
351.9042990016917
 20
202.6617669855302
 30
0.0
 40
2.5
100
AcDbArc
 50
332.4198007963992
 51
86.16747439394084
  0
LINE
  5
583
330
1F
100
AcDbEntity
  8
Rüttler
100
AcDbLine
 10
337.9042990016916
 20
204.1056443327095
 30
0.0
 11
337.9042990016916
 21
158.8260245650415
 31
0.0
  0
LINE
  5
584
330
1F
100
AcDbEntity
  8
Rüttler
100
AcDbLine
 10
332.9042990016917
 20
205.1147134737832
 30
0.0
 11
332.9042990016917
 21
158.8260245650415
 31
0.0
  0
ARC
  5
585
330
1F
100
AcDbEntity
  8
Rüttler
100
AcDbCircle
 10
363.4042990016916
 20
187.8260245650415
 30
0.0
 40
2.0
100
AcDbArc
 50
90.0
 51
180.0
  0
LINE
  5
586
330
1F
100
AcDbEntity
  8
Rüttler
100
AcDbLine
 10
361.844898941704
 20
158.8260245650415
 30
0.0
 11
364.7667990016918
 21
158.8260245650415
 31
0.0
  0
ARC
  5
587
330
1F
100
AcDbEntity
  8
Rüttler
100
AcDbCircle
 10
363.4042990016916
 20
183.8260245650415
 30
0.0
 40
2.0
100
AcDbArc
 50
180.0
 51
270.0
  0
LINE
  5
588
330
1F
100
AcDbEntity
  8
Rüttler
100
AcDbLine
 10
354.4042990016917
 20
189.8260245650415
 30
0.0
 11
398.4042990016916
 21
189.8260245650415
 31
0.0
  0
LINE
  5
589
330
1F
100
AcDbEntity
  8
Rüttler
100
AcDbLine
 10
354.4042990016917
 20
202.6617669855302
 30
0.0
 11
354.4042990016917
 21
189.8260245650415
 31
0.0
  0
LINE
  5
58A
330
1F
100
AcDbEntity
  8
Rüttler
100
AcDbLine
 10
354.4042990016917
 20
189.8260245650415
 30
0.0
 11
354.6042990016919
 21
189.8260245650415
 31
0.0
  0
ARC
  5
58B
330
1F
100
AcDbEntity
  8
Rüttler
100
AcDbCircle
 10
360.8042990016917
 20
187.9260245650414
 30
0.0
 40
1.9
100
AcDbArc
 50
90.0
 51
180.0
  0
ARC
  5
58C
330
1F
100
AcDbEntity
  8
Rüttler
100
AcDbCircle
 10
360.3042990016918
 20
187.9260245650414
 30
0.0
 40
1.9
100
AcDbArc
 50
90.0
 51
180.0
  0
ARC
  5
58D
330
1F
100
AcDbEntity
  8
Rüttler
100
AcDbCircle
 10
355.8042990016922
 20
200.6246121067831
 30
0.0
 40
1.9
100
AcDbArc
 50
152.4198007963993
 51
180.0
  0
LINE
  5
58E
330
1F
100
AcDbEntity
  8
Rüttler
100
AcDbLine
 10
353.9042990016917
 20
200.6246121067831
 30
0.0
 11
353.9042990016917
 21
158.8260245650415
 31
0.0
  0
LINE
  5
58F
330
1F
100
AcDbEntity
  8
Rüttler
100
AcDbLine
 10
358.9042990016916
 20
187.9260245650414
 30
0.0
 11
358.9042990016916
 21
158.8260245650415
 31
0.0
  0
LINE
  5
590
330
1F
100
AcDbEntity
  8
Rüttler
100
AcDbLine
 10
361.4042990016916
 20
183.8260245650415
 30
0.0
 11
361.4042990016916
 21
187.8260245650415
 31
0.0
  0
LINE
  5
591
330
1F
100
AcDbEntity
  8
Rüttler
100
AcDbLine
 10
340.844898941704
 20
158.8260245650415
 30
0.0
 11
350.9636990616802
 21
158.8260245650415
 31
0.0
  0
LINE
  5
592
330
1F
100
AcDbEntity
  8
Rüttler
100
AcDbLine
 10
398.4042990016916
 20
203.2255994803451
 30
0.0
 11
398.4042990016916
 21
189.8260245650415
 31
0.0
  0
ARC
  5
593
330
1F
100
AcDbEntity
  8
Rüttler
100
AcDbCircle
 10
392.004299001692
 20
187.9260245650414
 30
0.0
 40
1.9
100
AcDbArc
 50
0.0
 51
90.0
  0
ARC
  5
594
330
1F
100
AcDbEntity
  8
Rüttler
100
AcDbCircle
 10
392.504299001692
 20
187.9260245650414
 30
0.0
 40
1.9
100
AcDbArc
 50
0.0
 51
90.0
  0
ARC
  5
595
330
1F
100
AcDbEntity
  8
Rüttler
100
AcDbCircle
 10
397.004299001692
 20
201.1884446015985
 30
0.0
 40
1.9
100
AcDbArc
 50
0.0
 51
27.58019920360059
  0
LINE
  5
596
330
1F
100
AcDbEntity
  8
Rüttler
100
AcDbLine
 10
398.9042990016916
 20
201.1884446015985
 30
0.0
 11
398.9042990016916
 21
158.8260245650415
 31
0.0
  0
LINE
  5
597
330
1F
100
AcDbEntity
  8
Rüttler
100
AcDbLine
 10
393.9042990016917
 20
187.9260245650414
 30
0.0
 11
393.9042990016917
 21
158.8260245650415
 31
0.0
  0
LINE
  5
598
330
1F
100
AcDbEntity
  8
Rüttler
100
AcDbLine
 10
391.4042990016917
 20
183.8260245650415
 30
0.0
 11
391.4042990016917
 21
187.8260245650415
 31
0.0
  0
LINE
  5
599
330
1F
100
AcDbEntity
  8
Rüttler
100
AcDbLine
 10
389.4042990016917
 20
189.8260245650415
 30
0.0
 11
363.4042990016916
 21
189.8260245650415
 31
0.0
  0
LINE
  5
59A
330
1F
100
AcDbEntity
  8
Rüttler
100
AcDbLine
 10
389.4042990016917
 20
181.8260245650415
 30
0.0
 11
363.4042990016916
 21
181.8260245650415
 31
0.0
  0
LINE
  5
59B
330
1F
100
AcDbEntity
  8
Rüttler
100
AcDbLine
 10
376.4042990016917
 20
181.8260245650415
 30
0.0
 11
376.4042990016917
 21
189.8260245650415
 31
0.0
  0
ARC
  5
59C
330
1F
100
AcDbEntity
  8
Rüttler
100
AcDbCircle
 10
389.4042990016917
 20
183.8260245650415
 30
0.0
 40
2.0
100
AcDbArc
 50
270.0
 51
0.0
  0
ARC
  5
59D
330
1F
100
AcDbEntity
  8
Rüttler
100
AcDbCircle
 10
389.4042990016917
 20
187.8260245650415
 30
0.0
 40
2.0
100
AcDbArc
 50
0.0
 51
90.0
  0
LINE
  5
59E
330
1F
100
AcDbEntity
  8
Rüttler
100
AcDbLine
 10
388.0417990016919
 20
158.8260245650415
 30
0.0
 11
390.9636990616797
 21
158.8260245650415
 31
0.0
  0
LINE
  5
59F
330
1F
100
AcDbEntity
  8
Rüttler
100
AcDbLine
 10
372.4042990016917
 20
203.8260245650415
 30
0.0
 11
332.6187043326947
 21
206.4912667864561
 31
0.0
  0
CIRCLE
  5
5A0
330
1F
100
AcDbEntity
  8
Rüttler
100
AcDbCircle
 10
334.9276395988051
 20
216.3493651621538
 30
0.0
 40
5.0
  0
LINE
  5
5A1
330
1F
100
AcDbEntity
  8
Rüttler
100
AcDbLine
 10
332.0986232797761
 20
216.249365161012
 30
0.0
 11
333.4265288989124
 21
213.9493651621537
 31
0.0
  0
LINE
  5
5A2
330
1F
100
AcDbEntity
  8
Rüttler
100
AcDbLine
 10
333.4265288990993
 20
218.749365162128
 30
0.0
 11
332.0986232797761
 21
216.4493651610123
 31
0.0
  0
CIRCLE
  5
5A3
330
1F
100
AcDbEntity
  8
Rüttler
100
AcDbCircle
 10
334.9276395988051
 20
216.3493651621538
 30
0.0
 40
3.155098710735842
  0
ARC
  5
5A4
330
1F
100
AcDbEntity
  8
Rüttler
100
AcDbCircle
 10
332.2718283605333
 20
216.3493651610119
 30
0.0
 40
0.2
100
AcDbArc
 50
150.0000000000027
 51
209.9999999999972
  0
LINE
  5
5A5
330
1F
100
AcDbEntity
  8
Rüttler
100
AcDbLine
 10
336.2555452175472
 20
218.8493651621538
 30
0.0
 11
333.5997339798712
 21
218.8493651621538
 31
0.0
  0
LINE
  5
5A6
330
1F
100
AcDbEntity
  8
Rüttler
100
AcDbLine
 10
337.7566559178347
 20
216.4493651601292
 30
0.0
 11
336.4287502983295
 21
218.7493651621102
 31
0.0
  0
LINE
  5
5A7
330
1F
100
AcDbEntity
  8
Rüttler
100
AcDbLine
 10
336.4287502986983
 20
213.9493651621537
 30
0.0
 11
337.7566559178347
 21
216.2493651601294
 31
0.0
  0
ARC
  5
5A8
330
1F
100
AcDbEntity
  8
Rüttler
100
AcDbCircle
 10
333.5997339796692
 20
214.0493651621536
 30
0.0
 40
0.2
100
AcDbArc
 50
209.9999999999972
 51
270.0
  0
ARC
  5
5A9
330
1F
100
AcDbEntity
  8
Rüttler
100
AcDbCircle
 10
333.5997339798712
 20
218.6493651621535
 30
0.0
 40
0.2
100
AcDbArc
 50
90.0
 51
150.0000000085471
  0
ARC
  5
5AA
330
1F
100
AcDbEntity
  8
Rüttler
100
AcDbCircle
 10
336.2555452179415
 20
214.0493651621536
 30
0.0
 40
0.2
100
AcDbArc
 50
270.0
 51
330.0000000000026
  0
ARC
  5
5AB
330
1F
100
AcDbEntity
  8
Rüttler
100
AcDbCircle
 10
337.5834508370778
 20
216.3493651601293
 30
0.0
 40
0.2
100
AcDbArc
 50
330.0000000000026
 51
29.99999999999721
  0
ARC
  5
5AC
330
1F
100
AcDbEntity
  8
Rüttler
100
AcDbCircle
 10
336.2555452175472
 20
218.6493651621535
 30
0.0
 40
0.2
100
AcDbArc
 50
29.9999999855221
 51
90.0
  0
ARC
  5
5AD
330
1F
100
AcDbEntity
  8
Rüttler
100
AcDbCircle
 10
334.9276395988047
 20
216.3493651621545
 30
0.0
 40
10.0
100
AcDbArc
 50
181.3194666099304
 51
253.2811465455238
  0
ARC
  5
5AE
330
1F
100
AcDbEntity
  8
Rüttler
100
AcDbCircle
 10
331.004299001692
 20
205.1147134737832
 30
0.0
 40
1.9
100
AcDbArc
 50
0.0
 51
70.74988821759511
  0
ARC
  5
5AF
330
1F
100
AcDbEntity
  8
Rüttler
100
AcDbCircle
 10
331.504299001692
 20
204.9524033233071
 30
0.0
 40
1.9
100
AcDbArc
 50
0.0
 51
73.2811465455239
  0
ARC
  5
5B0
330
1F
100
AcDbEntity
  8
Rüttler
100
AcDbCircle
 10
339.8042990016918
 20
204.1056443327095
 30
0.0
 40
1.9
100
AcDbArc
 50
86.16747439394084
 51
180.0
  0
ARC
  5
5B1
330
1F
100
AcDbEntity
  8
Rüttler
100
AcDbCircle
 10
339.3042990016918
 20
204.1391393984938
 30
0.0
 40
1.9
100
AcDbArc
 50
86.16747439394084
 51
180.0
  0
ARC
  5
5B2
330
1F
100
AcDbEntity
  8
ACHSEN
100
AcDbCircle
 10
372.4042990016917
 20
253.8260245650412
 30
0.0
 40
53.0
100
AcDbArc
 50
217.4663817828705
 51
232.2797187775466
  0
LINE
  5
5B3
330
1F
100
AcDbEntity
  8
ACHSEN
100
AcDbLine
 10
339.2084613026797
 20
220.6301868660284
 30
0.0
 11
329.7913814730902
 21
211.2131070364389
 31
0.0
  0
LINE
  5
5B4
330
1F
100
AcDbEntity
  8
Rüttler
100
AcDbLine
 10
413.9042990016917
 20
204.5745752536902
 30
0.0
 11
413.9042990016917
 21
158.8260245650415
 31
0.0
  0
LINE
  5
5B5
330
1F
100
AcDbEntity
  8
Rüttler
100
AcDbLine
 10
418.9042990016917
 20
211.6280697679342
 30
0.0
 11
418.9042990016917
 21
158.8260245650415
 31
0.0
  0
LINE
  5
5B6
330
1F
100
AcDbEntity
  8
Rüttler
100
AcDbLine
 10
421.844898941704
 20
158.8260245650415
 30
0.0
 11
429.3006374969093
 21
158.8260245650415
 31
0.0
  0
LINE
  5
5B7
330
1F
100
AcDbEntity
  8
Rüttler
100
AcDbLine
 10
401.844898941704
 20
158.8260245650415
 30
0.0
 11
410.9636990616797
 21
158.8260245650415
 31
0.0
  0
CIRCLE
  5
5C5
330
1F
100
AcDbEntity
  8
Rüttler
100
AcDbCircle
 10
410.2150954811829
 20
216.3493651621545
 30
0.0
 40
5.0
  0
CIRCLE
  5
5C6
330
1F
100
AcDbEntity
  8
Rüttler
100
AcDbCircle
 10
410.2150954811829
 20
216.3493651621545
 30
0.0
 40
3.155098710735842
  0
ARC
  5
5C7
330
1F
100
AcDbEntity
  8
Rüttler
100
AcDbCircle
 10
408.8871898624408
 20
218.6493651621542
 30
0.0
 40
0.2
100
AcDbArc
 50
90.0
 51
150.0000000144779
  0
ARC
  5
5C8
330
1F
100
AcDbEntity
  8
Rüttler
100
AcDbCircle
 10
407.5592842429111
 20
216.3493651601299
 30
0.0
 40
0.2
100
AcDbArc
 50
150.0000000000027
 51
209.9999999999972
  0
ARC
  5
5C9
330
1F
100
AcDbEntity
  8
Rüttler
100
AcDbCircle
 10
411.5430011001174
 20
218.6493651621542
 30
0.0
 40
0.2
100
AcDbArc
 50
29.99999999145281
 51
90.0
  0
ARC
  5
5CA
330
1F
100
AcDbEntity
  8
Rüttler
100
AcDbCircle
 10
412.8709067194556
 20
216.3493651610126
 30
0.0
 40
0.2
100
AcDbArc
 50
330.0000000000026
 51
29.99999999999721
  0
LINE
  5
5CB
330
1F
100
AcDbEntity
  8
Rüttler
100
AcDbLine
 10
408.7139847812903
 20
213.9493651621544
 30
0.0
 11
407.3860791621544
 21
216.24936516013
 31
0.0
  0
LINE
  5
5CC
330
1F
100
AcDbEntity
  8
Rüttler
100
AcDbLine
 10
407.3860791621544
 20
216.4493651601298
 30
0.0
 11
408.713984781659
 21
218.7493651621109
 31
0.0
  0
LINE
  5
5CD
330
1F
100
AcDbEntity
  8
Rüttler
100
AcDbLine
 10
408.8871898624408
 20
218.8493651621545
 30
0.0
 11
411.5430011001174
 21
218.8493651621545
 31
0.0
  0
LINE
  5
5CE
330
1F
100
AcDbEntity
  8
Rüttler
100
AcDbLine
 10
411.7162061808892
 20
218.7493651621287
 30
0.0
 11
413.0441118002124
 21
216.449365161013
 31
0.0
  0
LINE
  5
5CF
330
1F
100
AcDbEntity
  8
Rüttler
100
AcDbLine
 10
413.0441118002124
 20
216.2493651610127
 30
0.0
 11
411.7162061810761
 21
213.9493651621544
 31
0.0
  0
ARC
  5
5D0
330
1F
100
AcDbEntity
  8
Rüttler
100
AcDbCircle
 10
409.8809584045786
 20
216.3493651621545
 30
0.0
 40
10.0
100
AcDbArc
 50
331.152973175598
 51
358.6805333900695
  0
ARC
  5
5D1
330
1F
100
AcDbEntity
  8
Rüttler
100
AcDbCircle
 10
420.8042990016918
 20
211.6280697679342
 30
0.0
 40
1.9
100
AcDbArc
 50
156.6249934288087
 51
180.0
  0
ARC
  5
5D2
330
1F
100
AcDbEntity
  8
Rüttler
100
AcDbCircle
 10
420.3042990016922
 20
210.6079393116713
 30
0.0
 40
1.9
100
AcDbArc
 50
151.152973175598
 51
180.0
  0
ARC
  5
5D3
330
1F
100
AcDbEntity
  8
Rüttler
100
AcDbCircle
 10
412.004299001692
 20
204.5745752536902
 30
0.0
 40
1.9
100
AcDbArc
 50
0.0
 51
93.8325256060592
  0
ARC
  5
5D4
330
1F
100
AcDbEntity
  8
Rüttler
100
AcDbCircle
 10
409.8809584045786
 20
216.3493651621545
 30
0.0
 40
10.0
100
AcDbArc
 50
271.3194666099174
 51
331.152973175598
  0
ARC
  5
5D5
330
1F
100
AcDbEntity
  8
Rüttler
100
AcDbCircle
 10
412.504299001692
 20
204.6080703194745
 30
0.0
 40
1.9
100
AcDbArc
 50
0.0
 51
93.8325256060592
  0
ARC
  5
5D6
330
1F
100
AcDbEntity
  8
ACHSEN
100
AcDbCircle
 10
372.4042990016917
 20
253.8260245650412
 30
0.0
 40
53.0
100
AcDbArc
 50
307.0844347630302
 51
323.5972396694155
  0
LINE
  5
5D7
330
1F
100
AcDbEntity
  8
ACHSEN
100
AcDbLine
 10
405.0463004069944
 20
221.1840231597391
 30
0.0
 11
414.4608274531317
 21
211.7694961136023
 31
0.0
  0
ARC
  5
5D8
330
1F
100
AcDbEntity
  8
Rüttler
100
AcDbCircle
 10
448.9042989990869
 20
250.708333111417
 30
0.0
 40
0.3
100
AcDbArc
 50
240.0000000000027
 51
299.9999999999972
  0
LINE
  5
5D9
330
1F
100
AcDbEntity
  8
Rüttler
100
AcDbLine
 10
319.844898941704
 20
348.8260245650415
 30
0.0
 11
329.9636990616797
 21
348.8260245650415
 31
0.0
  0
LINE
  5
5DA
330
1F
100
AcDbEntity
  8
Rüttler
100
AcDbLine
 10
322.4042990016917
 20
253.826024565041
 30
0.0
 11
324.9889062376666
 21
292.4079346979435
 31
0.0
  0
ARC
  5
5DC
330
1F
100
AcDbEntity
  8
Rüttler
100
AcDbCircle
 10
299.844898941704
 20
346.8260245650415
 30
0.0
 40
3.0
100
AcDbArc
 50
181.1457628381759
 51
270.0
  0
ARC
  5
5DD
330
1F
100
AcDbEntity
  8
Rüttler
100
AcDbCircle
 10
308.9636990616797
 20
346.8260245650415
 30
0.0
 40
3.0
100
AcDbArc
 50
270.0
 51
358.854237161824
  0
LINE
  5
5DE
330
1F
100
AcDbEntity
  8
Rüttler
100
AcDbLine
 10
224.9042990016917
 20
255.3848702918533
 30
0.0
 11
224.9042990016917
 21
252.2671788382292
 31
0.0
  0
ARC
  5
5DF
330
1F
100
AcDbEntity
  8
Rüttler
100
AcDbCircle
 10
224.6042990016919
 20
255.3848702918533
 30
0.0
 40
0.3
100
AcDbArc
 50
0.0
 51
60.00000000000279
  0
ARC
  5
5E0
330
1F
100
AcDbEntity
  8
Rüttler
100
AcDbCircle
 10
224.6042990016919
 20
252.2671788382292
 30
0.0
 40
0.3
100
AcDbArc
 50
299.9999999999972
 51
0.0
  0
LINE
  5
5E1
330
1F
100
AcDbEntity
  8
Rüttler
100
AcDbLine
 10
219.0542990016917
 20
255.6446779129885
 30
0.0
 11
221.7542989990854
 21
257.2035236398003
 31
0.0
  0
LINE
  5
5E2
330
1F
100
AcDbEntity
  8
Rüttler
100
AcDbLine
 10
218.9042990016917
 20
252.2671788394634
 30
0.0
 11
218.9042990016917
 21
255.3848702918533
 31
0.0
  0
ARC
  5
5E3
330
1F
100
AcDbEntity
  8
Rüttler
100
AcDbCircle
 10
219.2042990016918
 20
252.2671788394634
 30
0.0
 40
0.3
100
AcDbArc
 50
180.0
 51
240.0000000042973
  0
ARC
  5
5E4
330
1F
100
AcDbEntity
  8
Rüttler
100
AcDbCircle
 10
219.2042990016918
 20
255.3848702918533
 30
0.0
 40
0.3
100
AcDbArc
 50
119.9999999999971
 51
180.0
  0
ARC
  5
5E5
330
1F
100
AcDbEntity
  8
Rüttler
100
AcDbCircle
 10
221.9042989990855
 20
256.9437160186651
 30
0.0
 40
0.3
100
AcDbArc
 50
60.00000000000279
 51
119.9999999999971
  0
LINE
  5
5E6
330
1F
100
AcDbEntity
  8
Rüttler
100
AcDbLine
 10
222.0542989990856
 20
257.2035236398003
 30
0.0
 11
224.754299001692
 21
255.6446779129885
 31
0.0
  0
LINE
  5
5F4
330
1F
100
AcDbEntity
  8
Rüttler
100
AcDbLine
 10
299.844898941704
 20
343.8260245650415
 30
0.0
 11
308.9636990616797
 21
343.8260245650415
 31
0.0
  0
ARC
  5
5F5
330
1F
100
AcDbEntity
  8
Rüttler
100
AcDbCircle
 10
267.9042990016916
 20
403.8260245650414
 30
0.0
 40
25.0
100
AcDbArc
 50
90.0
 51
180.0
  0
LINE
  5
5F6
330
1F
100
AcDbEntity
  8
Rüttler
100
AcDbLine
 10
241.507960506475
 20
348.8260245650415
 30
0.0
 11
248.9636990616797
 21
348.8260245650415
 31
0.0
  0
LINE
  5
5F7
330
1F
100
AcDbEntity
  8
ACHSEN
100
AcDbLine
 10
235.3899853839177
 20
403.8260245650414
 30
0.0
 11
297.5622256172762
 21
403.8260245650414
 31
0.0
  0
LINE
  5
5F8
330
1F
100
AcDbEntity
  8
Rüttler
100
AcDbLine
 10
242.9042990016916
 20
403.8260245650414
 30
0.0
 11
242.9042990016916
 21
374.7260245650411
 31
0.0
  0
LINE
  5
5F9
330
1F
100
AcDbEntity
  8
Rüttler
100
AcDbLine
 10
234.4717031061156
 20
384.3958235584461
 30
0.0
 11
235.5116155443604
 21
354.6166275848261
 31
0.0
  0
LINE
  5
5FA
330
1F
100
AcDbEntity
  8
Rüttler
100
AcDbLine
 10
229.4042990016917
 20
386.3260245650415
 30
0.0
 11
232.4729214520778
 21
386.3260245650415
 31
0.0
  0
LINE
  5
5FB
330
1F
100
AcDbEntity
  8
Rüttler
100
AcDbLine
 10
238.7117571505616
 20
370.826024565041
 30
0.0
 11
239.004299001692
 21
370.8260245650415
 31
0.0
  0
ARC
  5
5FC
330
1F
100
AcDbEntity
  8
Rüttler
100
AcDbCircle
 10
238.7117571505616
 20
374.7260245650411
 30
0.0
 40
3.9
100
AcDbArc
 50
182.0000000000036
 51
270.0
  0
ARC
  5
5FD
330
1F
100
AcDbEntity
  8
Rüttler
100
AcDbCircle
 10
239.004299001692
 20
374.7260245650411
 30
0.0
 40
3.9
100
AcDbArc
 50
270.0
 51
0.0
  0
ARC
  5
5FE
330
1F
100
AcDbEntity
  8
Rüttler
100
AcDbCircle
 10
232.4729214520778
 20
384.3260245650414
 30
0.0
 40
2.0
100
AcDbArc
 50
2.00000000000364
 51
90.0
  0
ARC
  5
5FF
330
1F
100
AcDbEntity
  8
Rüttler
100
AcDbCircle
 10
241.507960506475
 20
354.8260245650415
 30
0.0
 40
6.0
100
AcDbArc
 50
182.0000000000036
 51
270.0
  0
CIRCLE
  5
600
330
1F
100
AcDbEntity
  8
Rüttler
100
AcDbCircle
 10
270.4042990016917
 20
403.8260245650414
 30
0.0
 40
22.5
  0
LINE
  5
601
330
1F
100
AcDbEntity
  8
Rüttler
100
AcDbLine
 10
301.3197154982346
 20
424.5333764235144
 30
0.0
 11
300.3785123466652
 21
376.7669232234045
 31
0.0
  0
LINE
  5
602
330
1F
100
AcDbEntity
  8
Rüttler
100
AcDbLine
 10
311.553485343862
 20
421.2547553661461
 30
0.0
 11
312.4494017450345
 21
375.7866236706165
 31
0.0
  0
LINE
  5
603
330
1F
100
AcDbEntity
  8
Rüttler
100
AcDbLine
 10
301.4042990016917
 20
423.8260245650415
 30
0.0
 11
301.4042990016917
 21
377.8260245650415
 31
0.0
  0
LINE
  5
604
330
1F
100
AcDbEntity
  8
Rüttler
100
AcDbLine
 10
311.4042990016916
 20
420.320484801303
 30
0.0
 11
311.4042990016916
 21
375.8260245650415
 31
0.0
  0
CIRCLE
  5
605
330
1F
100
AcDbEntity
  8
Rüttler
100
AcDbCircle
 10
270.4042990016917
 20
403.8260245650414
 30
0.0
 40
13.0
  0
LINE
  5
606
330
1F
100
AcDbEntity
  8
ACHSEN
100
AcDbLine
 10
270.4042990016917
 20
439.3651713969132
 30
0.0
 11
270.4042990016917
 21
373.7865394087027
 31
0.0
  0
LINE
  5
607
330
1F
100
AcDbEntity
  8
Rüttler
100
AcDbLine
 10
279.844898941704
 20
348.8260245650415
 30
0.0
 11
288.9636990616797
 21
348.8260245650415
 31
0.0
  0
LINE
  5
608
330
1F
100
AcDbEntity
  8
Rüttler
100
AcDbLine
 10
274.2666789636994
 20
373.8260245650415
 30
0.0
 11
274.5419190396844
 21
373.826024565041
 31
0.0
  0
ARC
  5
609
330
1F
100
AcDbEntity
  8
Rüttler
100
AcDbCircle
 10
274.2666789636994
 20
371.9260245650409
 30
0.0
 40
1.9
100
AcDbArc
 50
90.0
 51
178.854237161824
  0
ARC
  5
60A
330
1F
100
AcDbEntity
  8
Rüttler
100
AcDbCircle
 10
274.5419190396844
 20
371.9260245650409
 30
0.0
 40
1.9
100
AcDbArc
 50
1.145762838175982
 51
90.0
  0
LINE
  5
60B
330
1F
100
AcDbEntity
  8
Rüttler
100
AcDbLine
 10
254.2666789636994
 20
373.8260245650415
 30
0.0
 11
254.5419190396844
 21
373.826024565041
 31
0.0
  0
ARC
  5
60C
330
1F
100
AcDbEntity
  8
Rüttler
100
AcDbCircle
 10
254.2666789636994
 20
371.9260245650409
 30
0.0
 40
1.9
100
AcDbArc
 50
90.0
 51
178.854237161824
  0
ARC
  5
60D
330
1F
100
AcDbEntity
  8
Rüttler
100
AcDbCircle
 10
254.5419190396844
 20
371.9260245650409
 30
0.0
 40
1.9
100
AcDbArc
 50
1.145762838175982
 51
90.0
  0
ARC
  5
60E
330
1F
100
AcDbEntity
  8
Rüttler
100
AcDbCircle
 10
279.844898941704
 20
351.8260245650415
 30
0.0
 40
3.0
100
AcDbArc
 50
181.1457628381759
 51
270.0
  0
LINE
  5
60F
330
1F
100
AcDbEntity
  8
Rüttler
100
AcDbLine
 10
259.844898941704
 20
348.826024565041
 30
0.0
 11
268.9636990616798
 21
348.8260245650415
 31
0.0
  0
ARC
  5
610
330
1F
100
AcDbEntity
  8
Rüttler
100
AcDbCircle
 10
248.9636990616797
 20
351.8260245650415
 30
0.0
 40
3.0
100
AcDbArc
 50
270.0
 51
358.854237161824
  0
ARC
  5
611
330
1F
100
AcDbEntity
  8
Rüttler
100
AcDbCircle
 10
259.844898941704
 20
351.826024565041
 30
0.0
 40
3.0
100
AcDbArc
 50
181.1457628381759
 51
270.0
  0
ARC
  5
612
330
1F
100
AcDbEntity
  8
Rüttler
100
AcDbCircle
 10
268.9636990616798
 20
351.8260245650415
 30
0.0
 40
3.0
100
AcDbArc
 50
270.0
 51
358.854237161824
  0
LINE
  5
613
330
1F
100
AcDbEntity
  8
Rüttler
100
AcDbLine
 10
251.9630992416198
 20
351.7660365614426
 30
0.0
 11
252.3670588497373
 21
371.9640169673205
 31
0.0
  0
LINE
  5
614
330
1F
100
AcDbEntity
  8
Rüttler
100
AcDbLine
 10
256.8454987617635
 20
351.7660365614426
 30
0.0
 11
256.441539153646
 21
371.9640169673205
 31
0.0
  0
LINE
  5
615
330
1F
100
AcDbEntity
  8
Rüttler
100
AcDbLine
 10
271.9630992416198
 20
351.7660365614426
 30
0.0
 11
272.3670588497373
 21
371.9640169673205
 31
0.0
  0
LINE
  5
616
330
1F
100
AcDbEntity
  8
Rüttler
100
AcDbLine
 10
276.8454987617635
 20
351.7660365614426
 30
0.0
 11
276.4415391536461
 21
371.9640169673205
 31
0.0
  0
LINE
  5
617
330
1F
100
AcDbEntity
  8
Rüttler
100
AcDbLine
 10
314.2666789636994
 20
373.8260245650415
 30
0.0
 11
314.5419190396844
 21
373.8260245650415
 31
0.0
  0
ARC
  5
618
330
1F
100
AcDbEntity
  8
Rüttler
100
AcDbCircle
 10
314.2666789636994
 20
371.9260245650414
 30
0.0
 40
1.9
100
AcDbArc
 50
90.0
 51
178.854237161824
  0
ARC
  5
619
330
1F
100
AcDbEntity
  8
Rüttler
100
AcDbCircle
 10
314.5419190396844
 20
371.9260245650414
 30
0.0
 40
1.9
100
AcDbArc
 50
1.145762838175982
 51
90.0
  0
ARC
  5
61A
330
1F
100
AcDbEntity
  8
Rüttler
100
AcDbCircle
 10
297.3790945645926
 20
376.8260245650415
 30
0.0
 40
3.0
100
AcDbArc
 50
270.0
 51
358.8711744945572
  0
ARC
  5
61B
330
1F
100
AcDbEntity
  8
Rüttler
100
AcDbCircle
 10
314.4490135997496
 20
375.8260245650415
 30
0.0
 40
2.0
100
AcDbArc
 50
181.1288255054429
 51
270.0
  0
ARC
  5
61C
330
1F
100
AcDbEntity
  8
Rüttler
100
AcDbCircle
 10
313.4042990016916
 20
375.8260245650415
 30
0.0
 40
2.0
100
AcDbArc
 50
180.0
 51
270.0
  0
ARC
  5
61D
330
1F
100
AcDbEntity
  8
Rüttler
100
AcDbCircle
 10
297.4042990016917
 20
377.8260245650415
 30
0.0
 40
4.0
100
AcDbArc
 50
270.0
 51
0.0
  0
LINE
  5
61E
330
1F
100
AcDbEntity
  8
Rüttler
100
AcDbLine
 10
314.541919039684
 20
373.8260245650415
 30
0.0
 11
313.4042990016916
 21
373.8260245650415
 31
0.0
  0
ARC
  5
61F
330
1F
100
AcDbEntity
  8
Rüttler
100
AcDbCircle
 10
319.844898941704
 20
351.8260245650415
 30
0.0
 40
3.0
100
AcDbArc
 50
181.1457628381759
 51
270.0
  0
LINE
  5
620
330
1F
100
AcDbEntity
  8
Rüttler
100
AcDbLine
 10
296.8454987617635
 20
346.7660365614426
 30
0.0
 11
296.441539153646
 21
371.9640169673205
 31
0.0
  0
LINE
  5
621
330
1F
100
AcDbEntity
  8
Rüttler
100
AcDbLine
 10
311.9630992416198
 20
346.7660365614426
 30
0.0
 11
312.3670588497373
 21
371.9640169673205
 31
0.0
  0
LINE
  5
622
330
1F
100
AcDbEntity
  8
Rüttler
100
AcDbLine
 10
316.8454987617635
 20
351.7660365614426
 30
0.0
 11
316.4415391536461
 21
371.9640169673205
 31
0.0
  0
LINE
  5
623
330
1F
100
AcDbEntity
  8
Rüttler
100
AcDbLine
 10
294.2666789636994
 20
373.8260245650415
 30
0.0
 11
294.5419190396844
 21
373.8260245650415
 31
0.0
  0
ARC
  5
624
330
1F
100
AcDbEntity
  8
Rüttler
100
AcDbCircle
 10
294.2666789636994
 20
371.9260245650414
 30
0.0
 40
1.9
100
AcDbArc
 50
90.0
 51
178.854237161824
  0
ARC
  5
625
330
1F
100
AcDbEntity
  8
Rüttler
100
AcDbCircle
 10
288.9636990616797
 20
351.8260245650415
 30
0.0
 40
3.0
100
AcDbArc
 50
270.0
 51
358.854237161824
  0
LINE
  5
626
330
1F
100
AcDbEntity
  8
Rüttler
100
AcDbLine
 10
291.9630992416198
 20
351.7660365614426
 30
0.0
 11
292.3670588497373
 21
371.9640169673205
 31
0.0
  0
ARC
  5
627
330
1F
100
AcDbEntity
  8
Rüttler
100
AcDbCircle
 10
294.5419190396844
 20
371.9260245650409
 30
0.0
 40
1.9
100
AcDbArc
 50
1.145762838175982
 51
90.0
  0
LINE
  5
628
330
1F
100
AcDbEntity
  8
Rüttler
100
AcDbLine
 10
297.3790945645926
 20
373.8260245650415
 30
0.0
 11
294.2666789636994
 21
373.8260245650415
 31
0.0
  0
LINE
  5
62B
330
1F
100
AcDbEntity
  8
Rüttler
100
AcDbLine
 10
394.4042990016916
 20
372.302243752633
 30
0.0
 11
394.4042990016916
 21
304.3837814419819
 31
0.0
  0
LINE
  5
62C
330
1F
100
AcDbEntity
  8
Rüttler
100
AcDbLine
 10
398.4042990016916
 20
372.302243752634
 30
0.0
 11
398.4042990016916
 21
303.861258415746
 31
0.0
  0
LINE
  5
62D
330
1F
100
AcDbEntity
  8
Rüttler
100
AcDbLine
 10
414.4042990016917
 20
372.302243752633
 30
0.0
 11
414.4042990016917
 21
303.0439788106075
 31
0.0
  0
LINE
  5
62E
330
1F
100
AcDbEntity
  8
Rüttler
100
AcDbLine
 10
418.4042990016917
 20
372.302243752634
 30
0.0
 11
418.4042990016917
 21
297.0441098184071
 31
0.0
  0
LINE
  5
62F
330
1F
100
AcDbEntity
  8
Rüttler
100
AcDbLine
 10
393.9042990016917
 20
348.8260245650415
 30
0.0
 11
393.9042990016917
 21
304.4172765077662
 31
0.0
  0
LINE
  5
630
330
1F
100
AcDbEntity
  8
Rüttler
100
AcDbLine
 10
398.9042990016916
 20
348.8260245650415
 30
0.0
 11
398.9042990016916
 21
303.8277633499617
 31
0.0
  0
LINE
  5
631
330
1F
100
AcDbEntity
  8
Rüttler
100
AcDbLine
 10
413.9042990016917
 20
348.8260245650415
 30
0.0
 11
413.9042990016917
 21
303.0774738763919
 31
0.0
  0
LINE
  5
632
330
1F
100
AcDbEntity
  8
Rüttler
100
AcDbLine
 10
418.9042990016917
 20
348.8260245650415
 30
0.0
 11
418.9042990016917
 21
296.0239793621433
 31
0.0
  0
LINE
  5
633
330
1F
100
AcDbEntity
  8
Rüttler
100
AcDbLine
 10
378.9042990016917
 20
348.8260245650415
 30
0.0
 11
378.9042990016917
 21
334.6856305737849
 31
0.0
  0
ARC
  5
634
330
1F
100
AcDbEntity
  8
Rüttler
100
AcDbCircle
 10
370.9636990616798
 20
346.8260245650415
 30
0.0
 40
3.0
100
AcDbArc
 50
288.272293947053
 51
358.854237161824
  0
LINE
  5
635
330
1F
100
AcDbEntity
  8
Rüttler
100
AcDbLine
 10
353.9042990016917
 20
348.8260245650415
 30
0.0
 11
353.9042990016917
 21
334.6856305737849
 31
0.0
  0
ARC
  5
636
330
1F
100
AcDbEntity
  8
Rüttler
100
AcDbCircle
 10
361.844898941704
 20
346.8260245650415
 30
0.0
 40
3.0
100
AcDbArc
 50
181.1457628381759
 51
251.7277060529469
  0
LINE
  5
637
330
1F
100
AcDbEntity
  8
Rüttler
100
AcDbLine
 10
354.4042990016917
 20
372.3022437526335
 30
0.0
 11
354.4042990016917
 21
335.2780481977367
 31
0.0
  0
LINE
  5
638
330
1F
100
AcDbEntity
  8
Rüttler
100
AcDbLine
 10
358.4042990016917
 20
372.3022437526335
 30
0.0
 11
358.4042990016917
 21
338.210817262496
 31
0.0
  0
LINE
  5
639
330
1F
100
AcDbEntity
  8
Rüttler
100
AcDbLine
 10
374.4042990016917
 20
372.302243752633
 30
0.0
 11
374.4042990016917
 21
338.2108172624964
 31
0.0
  0
LINE
  5
63A
330
1F
100
AcDbEntity
  8
Rüttler
100
AcDbLine
 10
378.4042990016917
 20
372.3022437526335
 30
0.0
 11
378.4042990016917
 21
335.2780481977367
 31
0.0
  0
LINE
  5
63B
330
1F
100
AcDbEntity
  8
Rüttler
100
AcDbLine
 10
360.9042990016916
 20
330.6789297758739
 30
0.0
 11
360.9042990016916
 21
365.9308463031273
 31
0.0
  0
LINE
  5
63C
330
1F
100
AcDbEntity
  8
Rüttler
100
AcDbLine
 10
371.9042990016916
 20
330.6789297758739
 30
0.0
 11
371.9042990016916
 21
365.9308463031273
 31
0.0
  0
LINE
  5
63D
330
1F
100
AcDbEntity
  8
Rüttler
100
AcDbLine
 10
333.4042990016917
 20
372.3022437526335
 30
0.0
 11
333.4042990016917
 21
302.6996458067753
 31
0.0
  0
LINE
  5
63E
330
1F
100
AcDbEntity
  8
Rüttler
100
AcDbLine
 10
337.4042990016917
 20
372.302243752634
 30
0.0
 11
337.4042990016917
 21
303.5129097315887
 31
0.0
  0
LINE
  5
63F
330
1F
100
AcDbEntity
  8
Rüttler
100
AcDbLine
 10
332.9042990016917
 20
348.8260245650415
 30
0.0
 11
332.9042990016917
 21
302.5373356562997
 31
0.0
  0
LINE
  5
640
330
1F
100
AcDbEntity
  8
Rüttler
100
AcDbLine
 10
337.9042990016916
 20
348.8260245650415
 30
0.0
 11
337.9042990016916
 21
303.546404797373
 31
0.0
  0
LINE
  5
641
330
1F
100
AcDbEntity
  8
ACHSEN
100
AcDbLine
 10
366.4042990016917
 20
375.9149142131511
 30
0.0
 11
366.4042990016917
 21
294.4272558539949
 31
0.0
  0
LINE
  5
642
330
1F
100
AcDbEntity
  8
Rüttler
100
AcDbLine
 10
372.4042990016962
 20
303.826024565041
 30
0.0
 11
411.8773023926516
 21
301.1817228744691
 31
0.0
  0
ARC
  5
643
330
1F
100
AcDbEntity
  8
Rüttler
100
AcDbCircle
 10
334.9276395988047
 20
291.302683967928
 30
0.0
 40
10.0
100
AcDbArc
 50
106.718853454476
 51
178.6805333900695
  0
CIRCLE
  5
644
330
1F
100
AcDbEntity
  8
Rüttler
100
AcDbCircle
 10
334.9276395988047
 20
291.302683967928
 30
0.0
 40
3.155098710735842
  0
ARC
  5
645
330
1F
100
AcDbEntity
  8
Rüttler
100
AcDbCircle
 10
336.2555452175468
 20
289.0026839679283
 30
0.0
 40
0.2
100
AcDbArc
 50
270.0
 51
330.0000000144779
  0
ARC
  5
646
330
1F
100
AcDbEntity
  8
Rüttler
100
AcDbCircle
 10
337.5834508370774
 20
291.3026839699525
 30
0.0
 40
0.2
100
AcDbArc
 50
330.0000000000026
 51
29.99999999999721
  0
ARC
  5
647
330
1F
100
AcDbEntity
  8
Rüttler
100
AcDbCircle
 10
336.255545217941
 20
293.6026839679282
 30
0.0
 40
0.2
100
AcDbArc
 50
29.99999999999721
 51
90.0
  0
ARC
  5
648
330
1F
100
AcDbEntity
  8
Rüttler
100
AcDbCircle
 10
333.5997339798707
 20
289.0026839679283
 30
0.0
 40
0.2
100
AcDbArc
 50
209.9999999914528
 51
270.0
  0
ARC
  5
649
330
1F
100
AcDbEntity
  8
Rüttler
100
AcDbCircle
 10
332.2718283605329
 20
291.3026839690699
 30
0.0
 40
0.2
100
AcDbArc
 50
150.0000000000027
 51
209.9999999999972
  0
ARC
  5
64A
330
1F
100
AcDbEntity
  8
Rüttler
100
AcDbCircle
 10
333.5997339796688
 20
293.6026839679282
 30
0.0
 40
0.2
100
AcDbArc
 50
90.0
 51
150.0000000000027
  0
LINE
  5
64B
330
1F
100
AcDbEntity
  8
Rüttler
100
AcDbLine
 10
336.4287502986978
 20
293.7026839679281
 30
0.0
 11
337.7566559178342
 21
291.4026839699524
 31
0.0
  0
LINE
  5
64C
330
1F
100
AcDbEntity
  8
Rüttler
100
AcDbLine
 10
337.7566559178342
 20
291.2026839699526
 30
0.0
 11
336.4287502983291
 21
288.9026839679715
 31
0.0
  0
LINE
  5
64D
330
1F
100
AcDbEntity
  8
Rüttler
100
AcDbLine
 10
336.2555452175468
 20
288.802683967928
 30
0.0
 11
333.5997339798707
 21
288.802683967928
 31
0.0
  0
LINE
  5
64E
330
1F
100
AcDbEntity
  8
Rüttler
100
AcDbLine
 10
333.4265288990989
 20
288.9026839679538
 30
0.0
 11
332.0986232797756
 21
291.2026839690695
 31
0.0
  0
LINE
  5
64F
330
1F
100
AcDbEntity
  8
Rüttler
100
AcDbLine
 10
332.0986232797756
 20
291.4026839690698
 30
0.0
 11
333.426528898912
 21
293.7026839679281
 31
0.0
  0
LINE
  5
650
330
1F
100
AcDbEntity
  8
Rüttler
100
AcDbLine
 10
333.5997339796688
 20
293.802683967928
 30
0.0
 11
336.255545217941
 21
293.802683967928
 31
0.0
  0
CIRCLE
  5
651
330
1F
100
AcDbEntity
  8
Rüttler
100
AcDbCircle
 10
334.9276395988047
 20
291.302683967928
 30
0.0
 40
5.0
  0
LINE
  5
652
330
1F
100
AcDbEntity
  8
ACHSEN
100
AcDbLine
 10
339.2084613026793
 20
287.0218622640534
 30
0.0
 11
329.7913814730898
 21
296.4389420936429
 31
0.0
  0
ARC
  5
653
330
1F
100
AcDbEntity
  8
ACHSEN
100
AcDbCircle
 10
372.4042990016917
 20
253.826024565041
 30
0.0
 40
53.0
100
AcDbArc
 50
127.7202812224533
 51
142.5336182171293
  0
ARC
  5
654
330
1F
100
AcDbEntity
  8
Rüttler
100
AcDbCircle
 10
366.2042990016918
 20
330.6789297758739
 30
0.0
 40
5.299999999999999
100
AcDbArc
 50
180.0
 51
270.0
  0
LWPOLYLINE
  5
655
330
1F
100
AcDbEntity
  8
Rüttler
100
AcDbPolyline
 90
       17
 70
     0
 43
0.0
 10
360.9042990016916
 20
339.1700618038055
 42
0.002902422120704
 10
360.6833524520291
 20
339.104925408131
 42
0.0842276202385612
 10
356.1703939786132
 20
336.8659025241547
 42
0.1064731699313653
 10
352.9485863928869
 20
333.2660921733274
 42
0.1302021651151959
 10
351.9313717220159
 20
329.4260245650414
 42
0.1302021651151941
 10
352.9485863928869
 20
325.5859569567549
 42
0.1064731699313614
 10
356.1703939786132
 20
321.9861466059276
 42
0.084227620238561
 10
360.6833524520291
 20
319.7471237219513
 42
0.0732530584179624
 10
366.4042990016917
 20
318.9044482528622
 42
0.0732530584179617
 10
372.1252455513547
 20
319.7471237219513
 42
0.0842276202385588
 10
376.6382040247701
 20
321.9861466059276
 42
0.1064731699313646
 10
379.8600116104974
 20
325.5859569567549
 42
0.1302021651151908
 10
380.8772262813675
 20
329.4260245650414
 42
0.1302021651151959
 10
379.8600116104969
 20
333.2660921733274
 42
0.1064731699313654
 10
376.6382040247701
 20
336.8659025241547
 42
0.0842276202385636
 10
372.1252455513547
 20
339.104925408131
 42
0.0029024221207041
 10
371.9042990016916
 20
339.1700618038055
 42
0.0732530584179659
  0
LWPOLYLINE
  5
656
330
1F
100
AcDbEntity
  8
Rüttler
100
AcDbPolyline
 90
       17
 70
     0
 43
0.0
 10
360.9042990016916
 20
339.1700618038055
 42
0.0029024221207027
 10
360.6833524520291
 20
339.104925408131
 42
0.0842276202385612
 10
356.1703939786132
 20
336.8659025241547
 42
0.1064731699313653
 10
352.9485863928869
 20
333.2660921733274
 42
0.1302021651151959
 10
351.9313717220159
 20
329.4260245650414
 42
0.1302021651151941
 10
352.9485863928869
 20
325.5859569567549
 42
0.1064731699313614
 10
356.1703939786132
 20
321.9861466059276
 42
0.084227620238561
 10
360.6833524520291
 20
319.7471237219513
 42
0.0732530584179624
 10
366.4042990016917
 20
318.9044482528622
 42
0.0732530584179617
 10
372.1252455513547
 20
319.7471237219513
 42
0.0842276202385588
 10
376.6382040247701
 20
321.9861466059276
 42
0.1064731699313646
 10
379.8600116104974
 20
325.5859569567549
 42
0.1302021651151908
 10
380.8772262813675
 20
329.4260245650414
 42
0.1302021651151959
 10
379.8600116104969
 20
333.2660921733274
 42
0.1064731699313654
 10
376.6382040247701
 20
336.8659025241547
 42
0.0842276202385636
 10
372.1252455513547
 20
339.104925408131
 42
0.002902422120704
 10
371.9042990016916
 20
339.1700618038055
 42
0.0732530584179659
  0
LWPOLYLINE
  5
657
330
1F
100
AcDbEntity
  8
Rüttler
100
AcDbPolyline
 90
        9
 70
     0
 43
0.0
 10
356.3933429473265
 20
329.4260245650414
 42
0.1612356274381257
 10
357.0334659789134
 20
327.4925753348223
 42
0.1061884124491516
 10
359.3254840894894
 20
325.4832395955115
 42
0.0704779398103112
 10
362.3767217808133
 20
324.3086631140211
 42
0.0567465007696195
 10
366.4042990016917
 20
323.8500845876117
 42
0.0567465007696171
 10
370.4318762225704
 20
324.3086631140211
 42
0.0704779398103021
 10
373.4831139138943
 20
325.4832395955115
 42
0.1061884124491363
 10
375.7751320244708
 20
327.4925753348223
 42
0.1612356274381255
 10
376.4152550560577
 20
329.4260245650414
 42
0.1612356274381122
  0
LINE
  5
658
330
1F
100
AcDbEntity
  8
Rüttler
100
AcDbLine
 10
372.1313222742444
 20
303.807737818154
 30
0.0
 11
332.618704332691
 21
301.1607823436263
 31
0.0
  0
LINE
  5
659
330
1F
100
AcDbEntity
  8
ACHSEN
100
AcDbLine
 10
391.6447731674054
 20
329.4260245650414
 30
0.0
 11
340.2925788196055
 21
329.4260245650414
 31
0.0
  0
ARC
  5
65A
330
1F
100
AcDbEntity
  8
Rüttler
100
AcDbCircle
 10
356.504299001692
 20
313.2050111888945
 30
0.0
 40
2.399999999999999
100
AcDbArc
 50
0.0
 51
90.0
  0
ARC
  5
65B
330
1F
100
AcDbEntity
  8
Rüttler
100
AcDbCircle
 10
356.3042990016922
 20
313.2050111888945
 30
0.0
 40
2.399999999999999
100
AcDbArc
 50
90.0
 51
180.0
  0
ARC
  5
65C
330
1F
100
AcDbEntity
  8
Rüttler
100
AcDbCircle
 10
356.6042990016919
 20
313.3050111888944
 30
0.0
 40
1.8
100
AcDbArc
 50
0.0
 51
90.0
  0
ARC
  5
65D
330
1F
100
AcDbEntity
  8
Rüttler
100
AcDbCircle
 10
356.2042990016919
 20
313.3050111888944
 30
0.0
 40
1.8
100
AcDbArc
 50
90.0
 51
180.0
  0
LINE
  5
65E
330
1F
100
AcDbEntity
  8
Rüttler
100
AcDbLine
 10
356.6042990016919
 20
315.1050111888942
 30
0.0
 11
356.2042990016919
 21
315.1050111888942
 31
0.0
  0
LINE
  5
65F
330
1F
100
AcDbEntity
  8
Rüttler
100
AcDbLine
 10
356.504299001692
 20
315.6050111888942
 30
0.0
 11
356.3042990016922
 21
315.6050111888942
 31
0.0
  0
LINE
  5
660
330
1F
100
AcDbEntity
  8
Rüttler
100
AcDbLine
 10
358.9042990016916
 20
343.8260245650415
 30
0.0
 11
358.9042990016916
 21
338.4443262161655
 31
0.0
  0
LWPOLYLINE
  5
661
330
1F
100
AcDbEntity
  8
Rüttler
100
AcDbPolyline
 90
        7
 70
     0
 43
0.0
 10
360.9042990016916
 20
339.0995609270455
 42
0.0373685619985394
 10
359.3254840894894
 20
338.3688095345708
 42
0.1061884124491371
 10
357.0334659789134
 20
336.3594737952605
 42
0.1612356274381167
 10
356.3933429473265
 20
334.4260245650414
 42
0.1612356274381257
 10
357.0334659789134
 20
332.4925753348222
 42
0.1061884124491516
 10
359.3254840894894
 20
330.4832395955116
 42
0.0393719713015998
 10
360.9917539646023
 20
329.7200897285699
 42
0.0567465007696195
  0
LINE
  5
662
330
1F
100
AcDbEntity
  8
Rüttler
100
AcDbLine
 10
356.3933429473265
 20
329.4260245650414
 30
0.0
 11
356.3933429473265
 21
334.4260245650414
 31
0.0
  0
ARC
  5
663
330
1F
100
AcDbEntity
  8
Rüttler
100
AcDbCircle
 10
352.004299001692
 20
304.3636844025111
 30
0.0
 40
1.9
100
AcDbArc
 50
273.8325256060591
 51
0.0
  0
ARC
  5
664
330
1F
100
AcDbEntity
  8
Rüttler
100
AcDbCircle
 10
352.504299001692
 20
304.3971794682954
 30
0.0
 40
1.9
100
AcDbArc
 50
273.8325256060591
 51
0.0
  0
ARC
  5
665
330
1F
100
AcDbEntity
  8
Rüttler
100
AcDbCircle
 10
360.8042990016917
 20
304.9531975603156
 30
0.0
 40
1.9
100
AcDbArc
 50
180.0
 51
273.8325256060591
  0
ARC
  5
666
330
1F
100
AcDbEntity
  8
Rüttler
100
AcDbCircle
 10
360.3042990016918
 20
304.9197024945312
 30
0.0
 40
1.9
100
AcDbArc
 50
180.0
 51
273.8325256060591
  0
LWPOLYLINE
  5
667
330
1F
100
AcDbEntity
  8
Rüttler
100
AcDbPolyline
 90
        3
 70
     0
 43
0.0
 10
351.9313717220159
 20
307.7658139057318
 42
0.1302021651151941
 10
352.9485863928869
 20
303.9257462974453
 42
0.0205147489644438
 10
353.4475560654143
 20
303.1279623269554
 42
0.084227620238561
  0
ARC
  5
668
330
1F
100
AcDbEntity
  8
Rüttler
100
AcDbCircle
 10
331.004299001692
 20
302.5373356562997
 30
0.0
 40
1.9
100
AcDbArc
 50
289.2501117824003
 51
0.0
  0
ARC
  5
669
330
1F
100
AcDbEntity
  8
Rüttler
100
AcDbCircle
 10
331.504299001692
 20
302.6996458067753
 30
0.0
 40
1.9
100
AcDbArc
 50
286.7188534544761
 51
0.0
  0
ARC
  5
66A
330
1F
100
AcDbEntity
  8
Rüttler
100
AcDbCircle
 10
339.8042990016918
 20
303.546404797373
 30
0.0
 40
1.9
100
AcDbArc
 50
180.0
 51
273.8325256060591
  0
ARC
  5
66B
330
1F
100
AcDbEntity
  8
Rüttler
100
AcDbCircle
 10
339.3042990016918
 20
303.5129097315887
 30
0.0
 40
1.9
100
AcDbArc
 50
180.0
 51
273.8325256060591
  0
LINE
  5
66C
330
1F
100
AcDbEntity
  8
Rüttler
100
AcDbLine
 10
351.9313717220159
 20
307.7658139057318
 30
0.0
 11
351.9313717220159
 21
329.4260245650414
 31
0.0
  0
LINE
  5
66D
330
1F
100
AcDbEntity
  8
Rüttler
100
AcDbLine
 10
358.9042990016916
 20
313.2050111888945
 30
0.0
 11
358.9042990016916
 21
304.9531975603156
 31
0.0
  0
LINE
  5
66E
330
1F
100
AcDbEntity
  8
Rüttler
100
AcDbLine
 10
358.4042990016917
 20
313.3050111888944
 30
0.0
 11
358.4042990016917
 21
304.9197024945312
 31
0.0
  0
LINE
  5
66F
330
1F
100
AcDbEntity
  8
Rüttler
100
AcDbLine
 10
353.9042990016917
 20
313.2050111888945
 30
0.0
 11
353.9042990016917
 21
304.3636844025111
 31
0.0
  0
LINE
  5
670
330
1F
100
AcDbEntity
  8
Rüttler
100
AcDbLine
 10
354.4042990016917
 20
313.3050111888944
 30
0.0
 11
354.4042990016917
 21
304.3971794682954
 31
0.0
  0
ARC
  5
671
330
1F
100
AcDbEntity
  8
Rüttler
100
AcDbCircle
 10
400.8042990016917
 20
303.8277633499617
 30
0.0
 40
1.9
100
AcDbArc
 50
180.0
 51
266.1674743939408
  0
ARC
  5
672
330
1F
100
AcDbEntity
  8
Rüttler
100
AcDbCircle
 10
400.3042990016922
 20
303.861258415746
 30
0.0
 40
1.9
100
AcDbArc
 50
180.0
 51
266.1674743939408
  0
ARC
  5
673
330
1F
100
AcDbEntity
  8
Rüttler
100
AcDbCircle
 10
392.004299001692
 20
304.4172765077662
 30
0.0
 40
1.9
100
AcDbArc
 50
266.1674743939408
 51
0.0
  0
ARC
  5
674
330
1F
100
AcDbEntity
  8
Rüttler
100
AcDbCircle
 10
392.504299001692
 20
304.3837814419819
 30
0.0
 40
1.9
100
AcDbArc
 50
266.1674743939408
 51
0.0
  0
ARC
  5
675
330
1F
100
AcDbEntity
  8
Rüttler
100
AcDbCircle
 10
376.2042990016918
 20
313.3050111888944
 30
0.0
 40
1.8
100
AcDbArc
 50
90.0
 51
180.0
  0
ARC
  5
676
330
1F
100
AcDbEntity
  8
Rüttler
100
AcDbCircle
 10
376.6042990016919
 20
313.3050111888944
 30
0.0
 40
1.8
100
AcDbArc
 50
0.0
 51
90.0
  0
ARC
  5
677
330
1F
100
AcDbEntity
  8
Rüttler
100
AcDbCircle
 10
376.504299001692
 20
313.2050111888945
 30
0.0
 40
2.399999999999999
100
AcDbArc
 50
0.0
 51
90.0
  0
ARC
  5
678
330
1F
100
AcDbEntity
  8
Rüttler
100
AcDbCircle
 10
376.3042990016922
 20
313.2050111888945
 30
0.0
 40
2.399999999999999
100
AcDbArc
 50
90.0
 51
180.0
  0
LINE
  5
679
330
1F
100
AcDbEntity
  8
Rüttler
100
AcDbLine
 10
376.6042990016919
 20
315.1050111888942
 30
0.0
 11
376.2042990016918
 21
315.1050111888942
 31
0.0
  0
LINE
  5
67A
330
1F
100
AcDbEntity
  8
Rüttler
100
AcDbLine
 10
376.504299001692
 20
315.6050111888942
 30
0.0
 11
376.3042990016922
 21
315.6050111888942
 31
0.0
  0
LINE
  5
67B
330
1F
100
AcDbEntity
  8
Rüttler
100
AcDbLine
 10
373.9042990016916
 20
343.8260245650415
 30
0.0
 11
373.9042990016916
 21
338.4443262161655
 31
0.0
  0
LWPOLYLINE
  5
67C
330
1F
100
AcDbEntity
  8
Rüttler
100
AcDbPolyline
 90
        7
 70
     0
 43
0.0
 10
371.8168440387815
 20
329.7200897285699
 42
0.0393719713015983
 10
373.4831139138943
 20
330.4832395955116
 42
0.1061884124491363
 10
375.7751320244708
 20
332.4925753348222
 42
0.1612356274381258
 10
376.4152550560577
 20
334.4260245650414
 42
0.1612356274381122
 10
375.7751320244708
 20
336.3594737952605
 42
0.1061884124491302
 10
373.4831139138943
 20
338.3688095345708
 42
0.037368561998544
 10
371.9042990016916
 20
339.0995609270455
 42
0.0567465007696257
  0
LINE
  5
67D
330
1F
100
AcDbEntity
  8
Rüttler
100
AcDbLine
 10
376.4152550560577
 20
329.4260245650414
 30
0.0
 11
376.4152550560577
 21
334.4260245650414
 31
0.0
  0
LINE
  5
67E
330
1F
100
AcDbEntity
  8
Rüttler
100
AcDbLine
 10
366.6042990016919
 20
325.3789297758737
 30
0.0
 11
366.2042990016918
 21
325.3789297758737
 31
0.0
  0
ARC
  5
67F
330
1F
100
AcDbEntity
  8
Rüttler
100
AcDbCircle
 10
366.6042990016919
 20
330.6789297758739
 30
0.0
 40
5.299999999999999
100
AcDbArc
 50
270.0
 51
0.0
  0
ARC
  5
680
330
1F
100
AcDbEntity
  8
Rüttler
100
AcDbCircle
 10
372.4042990048189
 20
301.3204212473153
 30
0.0
 40
2.5
100
AcDbArc
 50
86.16747439394084
 51
93.8325256060592
  0
LINE
  5
681
330
1F
100
AcDbEntity
  8
Rüttler
100
AcDbLine
 10
372.6312956103932
 20
303.8412310974433
 30
0.0
 11
371.0713998030608
 21
303.7367334723569
 31
0.0
  0
ARC
  5
682
330
1F
100
AcDbEntity
  8
Rüttler
100
AcDbCircle
 10
380.8042990016922
 20
305.1675659813356
 30
0.0
 40
1.9
100
AcDbArc
 50
180.0
 51
266.1674743939408
  0
ARC
  5
683
330
1F
100
AcDbEntity
  8
Rüttler
100
AcDbCircle
 10
380.3042990016922
 20
305.2010610471199
 30
0.0
 40
1.9
100
AcDbArc
 50
180.0
 51
266.1674743939408
  0
ARC
  5
684
330
1F
100
AcDbEntity
  8
Rüttler
100
AcDbCircle
 10
372.004299001692
 20
305.7034870336944
 30
0.0
 40
1.9
100
AcDbArc
 50
273.8325255957965
 51
0.0
  0
ARC
  5
685
330
1F
100
AcDbEntity
  8
Rüttler
100
AcDbCircle
 10
372.504299001692
 20
305.7369820993892
 30
0.0
 40
1.9
100
AcDbArc
 50
273.8325255957965
 51
0.0
  0
LWPOLYLINE
  5
686
330
1F
100
AcDbEntity
  8
Rüttler
100
AcDbPolyline
 90
        3
 70
     0
 43
0.0
 10
379.6863626283522
 20
303.6312657941441
 42
0.0074505282724537
 10
379.8600116104974
 20
303.9257462974457
 42
0.1302021651151904
 10
380.8772262813675
 20
307.7658139057318
 42
0.1302021651151959
  0
LINE
  5
687
330
1F
100
AcDbEntity
  8
Rüttler
100
AcDbLine
 10
380.8772262813675
 20
307.7658139057318
 30
0.0
 11
380.8772262813675
 21
329.4260245650414
 31
0.0
  0
LINE
  5
688
330
1F
100
AcDbEntity
  8
Rüttler
100
AcDbLine
 10
378.4042990016917
 20
313.3050111888944
 30
0.0
 11
378.4042990016917
 21
305.2010610471199
 31
0.0
  0
LINE
  5
689
330
1F
100
AcDbEntity
  8
Rüttler
100
AcDbLine
 10
378.9042990016921
 20
313.2050111888945
 30
0.0
 11
378.9042990016917
 21
305.1675659813356
 31
0.0
  0
LINE
  5
68A
330
1F
100
AcDbEntity
  8
Rüttler
100
AcDbLine
 10
373.9042990016916
 20
313.2050111888945
 30
0.0
 11
373.9042990016916
 21
305.7034870336944
 31
0.0
  0
LINE
  5
68B
330
1F
100
AcDbEntity
  8
Rüttler
100
AcDbLine
 10
374.4042990016917
 20
313.3050111888944
 30
0.0
 11
374.4042990016917
 21
305.7369820993892
 31
0.0
  0
ARC
  5
68C
330
1F
100
AcDbEntity
  8
Rüttler
100
AcDbCircle
 10
409.8809584045786
 20
291.302683967928
 30
0.0
 40
10.0
100
AcDbArc
 50
28.84702682437934
 51
88.68053339008254
  0
ARC
  5
68D
330
1F
100
AcDbEntity
  8
Rüttler
100
AcDbCircle
 10
409.8809584045786
 20
291.302683967928
 30
0.0
 40
10.0
100
AcDbArc
 50
1.319466609930461
 51
28.84702682437934
  0
ARC
  5
68E
330
1F
100
AcDbEntity
  8
Rüttler
100
AcDbCircle
 10
420.8042990016918
 20
296.0239793621433
 30
0.0
 40
1.9
100
AcDbArc
 50
180.0
 51
203.3750065711675
  0
ARC
  5
68F
330
1F
100
AcDbEntity
  8
Rüttler
100
AcDbCircle
 10
420.3042990016918
 20
297.0441098184071
 30
0.0
 40
1.9
100
AcDbArc
 50
180.0
 51
208.8470268243793
  0
LINE
  5
690
330
1F
100
AcDbEntity
  8
Rüttler
100
AcDbLine
 10
411.5430011003188
 20
293.802683967928
 30
0.0
 11
408.8871898620466
 21
293.802683967928
 31
0.0
  0
LINE
  5
691
330
1F
100
AcDbEntity
  8
Rüttler
100
AcDbLine
 10
413.044111800212
 20
291.4026839690698
 30
0.0
 11
411.7162061810756
 21
293.7026839679281
 31
0.0
  0
LINE
  5
692
330
1F
100
AcDbEntity
  8
Rüttler
100
AcDbLine
 10
411.7162061808888
 20
288.9026839679538
 30
0.0
 11
413.044111800212
 21
291.2026839690695
 31
0.0
  0
LINE
  5
693
330
1F
100
AcDbEntity
  8
Rüttler
100
AcDbLine
 10
408.8871898624404
 20
288.802683967928
 30
0.0
 11
411.5430011001169
 21
288.802683967928
 31
0.0
  0
LINE
  5
694
330
1F
100
AcDbEntity
  8
Rüttler
100
AcDbLine
 10
407.3860791621539
 20
291.2026839699526
 30
0.0
 11
408.7139847816586
 21
288.9026839679715
 31
0.0
  0
LINE
  5
695
330
1F
100
AcDbEntity
  8
Rüttler
100
AcDbLine
 10
408.7139847812897
 20
293.7026839679281
 30
0.0
 11
407.3860791621539
 21
291.4026839699524
 31
0.0
  0
ARC
  5
696
330
1F
100
AcDbEntity
  8
Rüttler
100
AcDbCircle
 10
411.5430011003188
 20
293.6026839679282
 30
0.0
 40
0.2
100
AcDbArc
 50
29.99999999999721
 51
90.0
  0
ARC
  5
697
330
1F
100
AcDbEntity
  8
Rüttler
100
AcDbCircle
 10
412.8709067194551
 20
291.3026839690699
 30
0.0
 40
0.2
100
AcDbArc
 50
330.0000000000026
 51
29.99999999999721
  0
ARC
  5
698
330
1F
100
AcDbEntity
  8
Rüttler
100
AcDbCircle
 10
411.5430011001169
 20
289.0026839679283
 30
0.0
 40
0.2
100
AcDbArc
 50
270.0
 51
330.0000000085471
  0
ARC
  5
699
330
1F
100
AcDbEntity
  8
Rüttler
100
AcDbCircle
 10
408.8871898620466
 20
293.6026839679282
 30
0.0
 40
0.2
100
AcDbArc
 50
90.0
 51
150.0000000000027
  0
ARC
  5
69A
330
1F
100
AcDbEntity
  8
Rüttler
100
AcDbCircle
 10
407.5592842429107
 20
291.3026839699525
 30
0.0
 40
0.2
100
AcDbArc
 50
150.0000000000027
 51
209.9999999999972
  0
ARC
  5
69B
330
1F
100
AcDbEntity
  8
Rüttler
100
AcDbCircle
 10
408.8871898624404
 20
289.0026839679283
 30
0.0
 40
0.2
100
AcDbArc
 50
209.999999985522
 51
270.0
  0
CIRCLE
  5
69C
330
1F
100
AcDbEntity
  8
Rüttler
100
AcDbCircle
 10
410.2150954811825
 20
291.302683967928
 30
0.0
 40
3.155098710735842
  0
CIRCLE
  5
69D
330
1F
100
AcDbEntity
  8
Rüttler
100
AcDbCircle
 10
410.2150954811825
 20
291.302683967928
 30
0.0
 40
5.0
  0
LINE
  5
69E
330
1F
100
AcDbEntity
  8
Rüttler
100
AcDbLine
 10
422.4042990016917
 20
253.826024565041
 30
0.0
 11
419.8196917657171
 21
292.4079346979435
 31
0.0
  0
LINE
  5
69F
330
1F
100
AcDbEntity
  8
ACHSEN
100
AcDbLine
 10
405.046300406994
 20
286.4680259703434
 30
0.0
 11
414.4608274531313
 21
295.8825530164801
 31
0.0
  0
ARC
  5
6A0
330
1F
100
AcDbEntity
  8
ACHSEN
100
AcDbCircle
 10
372.4042990016917
 20
253.826024565041
 30
0.0
 40
53.0
100
AcDbArc
 50
36.40276033058444
 51
52.91556523696973
  0
ARC
  5
6A1
330
1F
100
AcDbEntity
  8
Rüttler
100
AcDbCircle
 10
448.9042990042983
 20
256.9437160186651
 30
0.0
 40
0.3
100
AcDbArc
 50
60.00000000000279
 51
119.9999999999971
  0
ARC
  5
6A2
330
1F
100
AcDbEntity
  8
Rüttler
100
AcDbCircle
 10
451.6042990016915
 20
255.3848702918533
 30
0.0
 40
0.3
100
AcDbArc
 50
0.0
 51
60.00000000000279
  0
ARC
  5
6A3
330
1F
100
AcDbEntity
  8
Rüttler
100
AcDbCircle
 10
451.6042990016915
 20
252.2671788394634
 30
0.0
 40
0.3
100
AcDbArc
 50
299.9999999957026
 51
0.0
  0
ARC
  5
6A4
330
1F
100
AcDbEntity
  8
Rüttler
100
AcDbCircle
 10
446.2042990016918
 20
252.2671788382292
 30
0.0
 40
0.3
100
AcDbArc
 50
180.0
 51
240.0000000000027
  0
ARC
  5
6A5
330
1F
100
AcDbEntity
  8
Rüttler
100
AcDbCircle
 10
446.2042990016918
 20
255.3848702918533
 30
0.0
 40
0.3
100
AcDbArc
 50
119.9999999999971
 51
180.0
  0
LINE
  5
6A6
330
1F
100
AcDbEntity
  8
Rüttler
100
AcDbLine
 10
451.9042990016917
 20
252.2671788394634
 30
0.0
 11
451.9042990016917
 21
255.3848702918533
 31
0.0
  0
LINE
  5
6A7
330
1F
100
AcDbEntity
  8
Rüttler
100
AcDbLine
 10
451.754299001692
 20
255.6446779129885
 30
0.0
 11
449.0542990042979
 21
257.2035236398003
 31
0.0
  0
LINE
  5
6A8
330
1F
100
AcDbEntity
  8
Rüttler
100
AcDbLine
 10
448.7542990042977
 20
257.2035236398003
 30
0.0
 11
446.0542990016917
 21
255.6446779129885
 31
0.0
  0
LINE
  5
6A9
330
1F
100
AcDbEntity
  8
Rüttler
100
AcDbLine
 10
445.9042990016917
 20
255.3848702918533
 30
0.0
 11
445.9042990016917
 21
252.2671788382292
 31
0.0
  0
ARC
  5
6AA
330
1F
100
AcDbEntity
  8
Rüttler
100
AcDbCircle
 10
412.004299001692
 20
303.0774738763919
 30
0.0
 40
1.9
100
AcDbArc
 50
266.1674743939408
 51
0.0
  0
ARC
  5
6AB
330
1F
100
AcDbEntity
  8
Rüttler
100
AcDbCircle
 10
412.504299001692
 20
303.0439788106075
 30
0.0
 40
1.9
100
AcDbArc
 50
266.1674743939408
 51
0.0
  0
ARC
  5
6AC
330
1F
100
AcDbEntity
  8
Rüttler
100
AcDbCircle
 10
401.844898941704
 20
351.8260245650415
 30
0.0
 40
3.0
100
AcDbArc
 50
181.1457628381759
 51
270.0
  0
CIRCLE
  5
6AD
330
1F
100
AcDbEntity
  8
Rüttler
100
AcDbCircle
 10
400.4042990016917
 20
403.8260245650414
 30
0.0
 40
22.5
  0
CIRCLE
  5
6AE
330
1F
100
AcDbEntity
  8
Rüttler
100
AcDbCircle
 10
400.4042990016917
 20
403.8260245650414
 30
0.0
 40
13.0
  0
LINE
  5
6AF
330
1F
100
AcDbEntity
  8
ACHSEN
100
AcDbLine
 10
373.7018215398795
 20
403.8260245650414
 30
0.0
 11
434.3562919211802
 21
403.8260245650414
 31
0.0
  0
LINE
  5
6B0
330
1F
100
AcDbEntity
  8
Rüttler
100
AcDbLine
 10
359.4042990016916
 20
420.320484801303
 30
0.0
 11
359.4042990016916
 21
375.8260245650415
 31
0.0
  0
LINE
  5
6B1
330
1F
100
AcDbEntity
  8
Rüttler
100
AcDbLine
 10
369.4042990016916
 20
423.8260245650415
 30
0.0
 11
369.4042990016916
 21
377.8260245650415
 31
0.0
  0
LINE
  5
6B2
330
1F
100
AcDbEntity
  8
Rüttler
100
AcDbLine
 10
359.2551126595213
 20
421.254755366146
 30
0.0
 11
358.3591962583493
 21
375.7866236706165
 31
0.0
  0
LINE
  5
6B3
330
1F
100
AcDbEntity
  8
Rüttler
100
AcDbLine
 10
369.4888825051486
 20
424.5333764235144
 30
0.0
 11
370.4300856567181
 21
376.7669232234045
 31
0.0
  0
ARC
  5
6B4
330
1F
100
AcDbEntity
  8
Rüttler
100
AcDbCircle
 10
366.2042990016918
 20
365.9308463031273
 30
0.0
 40
5.299999999999999
100
AcDbArc
 50
90.0
 51
180.0
  0
LINE
  5
6B5
330
1F
100
AcDbEntity
  8
Rüttler
100
AcDbLine
 10
356.2666789636994
 20
373.8260245650415
 30
0.0
 11
357.4042990016916
 21
373.8260245650415
 31
0.0
  0
ARC
  5
6B6
330
1F
100
AcDbEntity
  8
Rüttler
100
AcDbCircle
 10
356.2666789636994
 20
371.9260245650414
 30
0.0
 40
1.9
100
AcDbArc
 50
90.0
 51
178.854237161824
  0
ARC
  5
6B7
330
1F
100
AcDbEntity
  8
Rüttler
100
AcDbCircle
 10
356.5419190396844
 20
371.9260245650414
 30
0.0
 40
1.9
100
AcDbArc
 50
1.145762838175982
 51
90.0
  0
ARC
  5
6B8
330
1F
100
AcDbEntity
  8
Rüttler
100
AcDbCircle
 10
357.4042990016916
 20
375.8260245650415
 30
0.0
 40
2.0
100
AcDbArc
 50
270.0
 51
0.0
  0
ARC
  5
6B9
330
1F
100
AcDbEntity
  8
Rüttler
100
AcDbCircle
 10
356.3595844036338
 20
375.8260245650415
 30
0.0
 40
2.0
100
AcDbArc
 50
270.0
 51
358.8711744945572
  0
ARC
  5
6BA
330
1F
100
AcDbEntity
  8
Rüttler
100
AcDbCircle
 10
350.9636990616802
 20
351.8260245650415
 30
0.0
 40
3.0
100
AcDbArc
 50
270.0
 51
358.854237161824
  0
LINE
  5
6BB
330
1F
100
AcDbEntity
  8
Rüttler
100
AcDbLine
 10
353.9630992416198
 20
351.7660365614426
 30
0.0
 11
354.3670588497373
 21
371.9640169673205
 31
0.0
  0
LINE
  5
6BC
330
1F
100
AcDbEntity
  8
Rüttler
100
AcDbLine
 10
358.441539153646
 20
371.9640169673209
 30
0.0
 11
358.845498761764
 21
346.7660365614426
 31
0.0
  0
LINE
  5
6BD
330
1F
100
AcDbEntity
  8
Rüttler
100
AcDbLine
 10
335.2666789636994
 20
373.8260245650415
 30
0.0
 11
335.5419190396844
 21
373.8260245650415
 31
0.0
  0
ARC
  5
6BE
330
1F
100
AcDbEntity
  8
Rüttler
100
AcDbCircle
 10
335.2666789636994
 20
371.9260245650414
 30
0.0
 40
1.9
100
AcDbArc
 50
90.0
 51
178.854237161824
  0
ARC
  5
6BF
330
1F
100
AcDbEntity
  8
Rüttler
100
AcDbCircle
 10
335.5419190396844
 20
371.9260245650414
 30
0.0
 40
1.9
100
AcDbArc
 50
1.145762838175982
 51
90.0
  0
ARC
  5
6C0
330
1F
100
AcDbEntity
  8
Rüttler
100
AcDbCircle
 10
340.844898941704
 20
351.8260245650415
 30
0.0
 40
3.0
100
AcDbArc
 50
181.1457628381759
 51
270.0
  0
ARC
  5
6C1
330
1F
100
AcDbEntity
  8
Rüttler
100
AcDbCircle
 10
329.9636990616797
 20
351.8260245650415
 30
0.0
 40
3.0
100
AcDbArc
 50
270.0
 51
358.854237161824
  0
LINE
  5
6C2
330
1F
100
AcDbEntity
  8
Rüttler
100
AcDbLine
 10
332.9630992416198
 20
351.7660365614426
 30
0.0
 11
333.3670588497373
 21
371.9640169673205
 31
0.0
  0
LINE
  5
6C3
330
1F
100
AcDbEntity
  8
Rüttler
100
AcDbLine
 10
337.441539153646
 20
371.9640169673209
 30
0.0
 11
337.8454987617635
 21
351.7660365614426
 31
0.0
  0
LINE
  5
6C4
330
1F
100
AcDbEntity
  8
Rüttler
100
AcDbLine
 10
340.844898941704
 20
348.8260245650415
 30
0.0
 11
350.9636990616802
 21
348.8260245650415
 31
0.0
  0
LINE
  5
6C5
330
1F
100
AcDbEntity
  8
Rüttler
100
AcDbLine
 10
396.2666789636998
 20
373.8260245650415
 30
0.0
 11
396.5419190396844
 21
373.8260245650415
 31
0.0
  0
ARC
  5
6C6
330
1F
100
AcDbEntity
  8
Rüttler
100
AcDbCircle
 10
396.2666789636998
 20
371.9260245650414
 30
0.0
 40
1.9
100
AcDbArc
 50
90.0
 51
178.854237161824
  0
ARC
  5
6C7
330
1F
100
AcDbEntity
  8
Rüttler
100
AcDbCircle
 10
396.5419190396844
 20
371.9260245650414
 30
0.0
 40
1.9
100
AcDbArc
 50
1.145762838175982
 51
90.0
  0
ARC
  5
6C8
330
1F
100
AcDbEntity
  8
Rüttler
100
AcDbCircle
 10
390.9636990616797
 20
351.8260245650415
 30
0.0
 40
3.0
100
AcDbArc
 50
270.0
 51
358.854237161824
  0
LINE
  5
6C9
330
1F
100
AcDbEntity
  8
Rüttler
100
AcDbLine
 10
394.3670588497372
 20
371.9640169673205
 30
0.0
 11
393.9630992416198
 21
351.7660365614426
 31
0.0
  0
LINE
  5
6CA
330
1F
100
AcDbEntity
  8
Rüttler
100
AcDbLine
 10
398.441539153646
 20
371.9640169673205
 30
0.0
 11
398.845498761764
 21
351.7660365614426
 31
0.0
  0
LINE
  5
6CB
330
1F
100
AcDbEntity
  8
Rüttler
100
AcDbLine
 10
373.4295034387912
 20
373.8260245650415
 30
0.0
 11
376.5419190396844
 21
373.8260245650415
 31
0.0
  0
ARC
  5
6CC
330
1F
100
AcDbEntity
  8
Rüttler
100
AcDbCircle
 10
376.2666789636998
 20
371.9260245650414
 30
0.0
 40
1.9
100
AcDbArc
 50
90.0
 51
178.854237161824
  0
ARC
  5
6CD
330
1F
100
AcDbEntity
  8
Rüttler
100
AcDbCircle
 10
376.5419190396844
 20
371.9260245650414
 30
0.0
 40
1.9
100
AcDbArc
 50
1.145762838175982
 51
90.0
  0
ARC
  5
6CE
330
1F
100
AcDbEntity
  8
Rüttler
100
AcDbCircle
 10
373.4042990016916
 20
377.8260245650415
 30
0.0
 40
4.0
100
AcDbArc
 50
180.0
 51
270.0
  0
ARC
  5
6CF
330
1F
100
AcDbEntity
  8
Rüttler
100
AcDbCircle
 10
373.4295034387912
 20
376.8260245650415
 30
0.0
 40
3.0
100
AcDbArc
 50
181.1288255054429
 51
270.0
  0
LINE
  5
6D0
330
1F
100
AcDbEntity
  8
Rüttler
100
AcDbLine
 10
366.6042990016919
 20
371.230846303127
 30
0.0
 11
366.2042990016918
 21
371.230846303127
 31
0.0
  0
ARC
  5
6D1
330
1F
100
AcDbEntity
  8
Rüttler
100
AcDbCircle
 10
366.6042990016919
 20
365.9308463031273
 30
0.0
 40
5.299999999999999
100
AcDbArc
 50
0.0
 51
90.0
  0
ARC
  5
6D2
330
1F
100
AcDbEntity
  8
Rüttler
100
AcDbCircle
 10
381.844898941704
 20
351.8260245650415
 30
0.0
 40
3.0
100
AcDbArc
 50
181.1457628381759
 51
270.0
  0
LINE
  5
6D3
330
1F
100
AcDbEntity
  8
Rüttler
100
AcDbLine
 10
374.3670588497373
 20
371.9640169673205
 30
0.0
 11
373.9630992416198
 21
346.7660365614426
 31
0.0
  0
LINE
  5
6D4
330
1F
100
AcDbEntity
  8
Rüttler
100
AcDbLine
 10
378.4415391536461
 20
371.9640169673205
 30
0.0
 11
378.845498761764
 21
351.7660365614426
 31
0.0
  0
LINE
  5
6D5
330
1F
100
AcDbEntity
  8
Rüttler
100
AcDbLine
 10
381.844898941704
 20
348.8260245650415
 30
0.0
 11
390.9636990616797
 21
348.8260245650415
 31
0.0
  0
LINE
  5
6D8
330
1F
100
AcDbEntity
  8
Rüttler
100
AcDbLine
 10
427.9042990016916
 20
403.8260245650414
 30
0.0
 11
427.9042990016916
 21
374.7260245650411
 31
0.0
  0
LINE
  5
6D9
330
1F
100
AcDbEntity
  8
Rüttler
100
AcDbLine
 10
438.335676551306
 20
386.3260245650415
 30
0.0
 11
441.4042990016916
 21
386.3260245650415
 31
0.0
  0
LINE
  5
6DA
330
1F
100
AcDbEntity
  8
Rüttler
100
AcDbLine
 10
436.3368948972676
 20
384.3958235584461
 30
0.0
 11
435.2969824590234
 21
354.6166275848261
 31
0.0
  0
LINE
  5
6DB
330
1F
100
AcDbEntity
  8
Rüttler
100
AcDbLine
 10
416.2666789636993
 20
373.8260245650415
 30
0.0
 11
416.5419190396844
 21
373.8260245650415
 31
0.0
  0
ARC
  5
6DC
330
1F
100
AcDbEntity
  8
Rüttler
100
AcDbCircle
 10
416.5419190396844
 20
371.9260245650409
 30
0.0
 40
1.9
100
AcDbArc
 50
1.145762838175982
 51
90.0
  0
LINE
  5
6DD
330
1F
100
AcDbEntity
  8
Rüttler
100
AcDbLine
 10
431.8042990016918
 20
370.8260245650415
 30
0.0
 11
432.0968408528222
 21
370.8260245650415
 31
0.0
  0
ARC
  5
6DE
330
1F
100
AcDbEntity
  8
Rüttler
100
AcDbCircle
 10
432.0968408528222
 20
374.7260245650411
 30
0.0
 40
3.9
100
AcDbArc
 50
270.0
 51
357.9999999999963
  0
ARC
  5
6DF
330
1F
100
AcDbEntity
  8
Rüttler
100
AcDbCircle
 10
431.8042990016918
 20
374.7260245650411
 30
0.0
 40
3.9
100
AcDbArc
 50
180.0
 51
270.0
  0
ARC
  5
6E0
330
1F
100
AcDbEntity
  8
Rüttler
100
AcDbCircle
 10
438.335676551306
 20
384.3260245650414
 30
0.0
 40
2.0
100
AcDbArc
 50
90.0
 51
177.9999999999963
  0
ARC
  5
6E1
330
1F
100
AcDbEntity
  8
Rüttler
100
AcDbCircle
 10
416.2666789636993
 20
371.9260245650414
 30
0.0
 40
1.9
100
AcDbArc
 50
90.0
 51
178.854237161824
  0
LINE
  5
6E2
330
1F
100
AcDbEntity
  8
Rüttler
100
AcDbLine
 10
421.844898941704
 20
348.8260245650415
 30
0.0
 11
429.3006374969088
 21
348.8260245650415
 31
0.0
  0
ARC
  5
6E3
330
1F
100
AcDbEntity
  8
Rüttler
100
AcDbCircle
 10
421.844898941704
 20
351.8260245650415
 30
0.0
 40
3.0
100
AcDbArc
 50
181.1457628381759
 51
270.0
  0
LINE
  5
6E4
330
1F
100
AcDbEntity
  8
Rüttler
100
AcDbLine
 10
401.844898941704
 20
348.8260245650415
 30
0.0
 11
410.9636990616797
 21
348.8260245650415
 31
0.0
  0
ARC
  5
6E5
330
1F
100
AcDbEntity
  8
Rüttler
100
AcDbCircle
 10
410.9636990616797
 20
351.8260245650415
 30
0.0
 40
3.0
100
AcDbArc
 50
270.0
 51
358.854237161824
  0
LINE
  5
6E6
330
1F
100
AcDbEntity
  8
Rüttler
100
AcDbLine
 10
414.3670588497372
 20
371.9640169673205
 30
0.0
 11
413.9630992416198
 21
351.7660365614426
 31
0.0
  0
LINE
  5
6E7
330
1F
100
AcDbEntity
  8
Rüttler
100
AcDbLine
 10
418.8454987617635
 20
351.7660365614426
 30
0.0
 11
418.441539153646
 21
371.9640169673205
 31
0.0
  0
ARC
  5
6E8
330
1F
100
AcDbEntity
  8
Rüttler
100
AcDbCircle
 10
429.3006374969088
 20
354.8260245650415
 30
0.0
 40
6.0
100
AcDbArc
 50
270.0
 51
357.9999999999963
  0
ARC
  5
6E9
330
1F
100
AcDbEntity
  8
Rüttler
100
AcDbCircle
 10
402.9042990016916
 20
403.8260245650414
 30
0.0
 40
25.0
100
AcDbArc
 50
0.0
 51
90.0
  0
LINE
  5
6EA
330
1F
100
AcDbEntity
  8
Rüttler
100
AcDbLine
 10
229.4042990016917
 20
580.3720394273364
 30
0.0
 11
48.85276091048519
 21
580.3720394273364
 31
0.0
  0
ARC
  5
6EB
330
1F
100
AcDbEntity
  8
Rüttler
100
AcDbCircle
 10
48.85276091048519
 20
595.3720394273363
 30
0.0
 40
15.0
100
AcDbArc
 50
194.0204407441004
 51
270.0
  0
LINE
  5
6EC
330
1F
100
AcDbEntity
  8
ACHSEN
 48
3.0
100
AcDbLine
 10
400.4042990016912
 20
654.6126528620243
 30
0.0
 11
400.4042990016917
 21
557.2244281567727
 31
0.0
  0
LINE
  5
6ED
330
1F
100
AcDbEntity
  8
ACHSEN
 48
3.0
100
AcDbLine
 10
270.4042990016917
 20
654.6126528620243
 30
0.0
 11
270.4042990016917
 21
557.2244281567727
 31
0.0
  0
LINE
  5
6EE
330
1F
100
AcDbEntity
  8
Rüttler
100
AcDbLine
 10
242.9042990016916
 20
632.8720394273363
 30
0.0
 11
242.9042990016916
 21
572.8720394273364
 31
0.0
  0
LINE
  5
6EF
330
1F
100
AcDbEntity
  8
Rüttler
100
AcDbLine
 10
427.9042990016916
 20
632.8720394273367
 30
0.0
 11
427.9042990016916
 21
581.8720394273364
 31
0.0
  0
LINE
  5
6F0
330
1F
100
AcDbEntity
  8
Rüttler
100
AcDbLine
 10
305.4042990016917
 20
636.8720394273363
 30
0.0
 11
305.4042990016917
 21
572.8720394273364
 31
0.0
  0
LINE
  5
6F1
330
1F
100
AcDbEntity
  8
Rüttler
100
AcDbLine
 10
365.4042990016916
 20
636.8720394273367
 30
0.0
 11
365.4042990016916
 21
572.8720394273364
 31
0.0
  0
LINE
  5
6F2
330
1F
100
AcDbEntity
  8
Rüttler
  6
GESTRICHELT
 62
     7
 48
2.0
370
    18
100
AcDbLine
 10
413.4042990016917
 20
635.8720394273364
 30
0.0
 11
413.4042990016917
 21
572.8720394273367
 31
0.0
  0
LINE
  5
6F3
330
1F
100
AcDbEntity
  8
Rüttler
  6
GESTRICHELT
 62
     7
 48
2.0
370
    18
100
AcDbLine
 10
387.4042990016912
 20
635.8720394273364
 30
0.0
 11
387.4042990016917
 21
572.8720394273367
 31
0.0
  0
LINE
  5
6F4
330
1F
100
AcDbEntity
  8
Rüttler
  6
GESTRICHELT
 62
     7
 48
2.0
370
    18
100
AcDbLine
 10
257.4042990016916
 20
635.8720394273364
 30
0.0
 11
257.4042990016916
 21
572.8720394273367
 31
0.0
  0
LINE
  5
6F5
330
1F
100
AcDbEntity
  8
Rüttler
  6
GESTRICHELT
 62
     7
 48
2.0
370
    18
100
AcDbLine
 10
283.4042990016916
 20
635.8720394273364
 30
0.0
 11
283.4042990016916
 21
572.8720394273367
 31
0.0
  0
LINE
  5
6F6
330
1F
100
AcDbEntity
  8
Rüttler
100
AcDbLine
 10
242.9042990016916
 20
572.8720394273364
 30
0.0
 11
427.9042990016916
 21
572.8720394273364
 31
0.0
  0
LINE
  5
6F7
330
1F
100
AcDbEntity
  8
Rüttler
  6
GESTRICHELT
 62
     7
 48
2.0
370
    18
100
AcDbLine
 10
242.9042990016916
 20
576.8720394273364
 30
0.0
 11
427.9042990016916
 21
576.8720394273364
 31
0.0
  0
ARC
  5
6F8
330
1F
100
AcDbEntity
  8
Rüttler
100
AcDbCircle
 10
238.3269152910286
 20
581.8720394273364
 30
0.0
 40
4.0
100
AcDbArc
 50
90.0
 51
171.150116901568
  0
ARC
  5
6F9
330
1F
100
AcDbEntity
  8
Rüttler
100
AcDbCircle
 10
238.9042990016917
 20
581.8720394273364
 30
0.0
 40
4.0
100
AcDbArc
 50
0.0
 51
90.0
  0
LINE
  5
6FA
330
1F
100
AcDbEntity
  8
Rüttler
100
AcDbLine
 10
229.4042990016917
 20
580.3720394273364
 30
0.0
 11
231.9042990016916
 21
580.3720394273364
 31
0.0
  0
ARC
  5
6FB
330
1F
100
AcDbEntity
  8
Rüttler
100
AcDbCircle
 10
231.9042990016916
 20
582.8720394273363
 30
0.0
 40
2.5
100
AcDbArc
 50
270.0
 51
351.150116901568
  0
LINE
  5
6FC
330
1F
100
AcDbEntity
  8
Rüttler
  6
GESTRICHELT
 62
     7
 48
2.0
370
    18
100
AcDbLine
 10
226.4042990016917
 20
585.3720394273364
 30
0.0
 11
229.4042990016917
 21
585.3720394273364
 31
0.0
  0
LINE
  5
6FD
330
1F
100
AcDbEntity
  8
Rüttler
  6
GESTRICHELT
 62
     7
 48
2.0
370
    18
100
AcDbLine
 10
214.4042990016917
 20
582.8720394273363
 30
0.0
 11
226.4042990016917
 21
582.8720394273363
 31
0.0
  0
ARC
  5
6FE
330
1F
100
AcDbEntity
  8
Rüttler
100
AcDbCircle
 10
431.9042990016916
 20
581.8720394273364
 30
0.0
 40
4.0
100
AcDbArc
 50
90.0
 51
180.0
  0
ARC
  5
6FF
330
1F
100
AcDbEntity
  8
Rüttler
100
AcDbCircle
 10
432.4816827123547
 20
581.8720394273364
 30
0.0
 40
4.0
100
AcDbArc
 50
8.849883098431935
 51
90.0
  0
LINE
  5
700
330
1F
100
AcDbEntity
  8
Rüttler
100
AcDbLine
 10
438.9042990016917
 20
580.3720394273364
 30
0.0
 11
441.4042990016916
 21
580.3720394273364
 31
0.0
  0
ARC
  5
701
330
1F
100
AcDbEntity
  8
Rüttler
100
AcDbCircle
 10
438.9042990016917
 20
582.8720394273363
 30
0.0
 40
2.5
100
AcDbArc
 50
188.8498830984319
 51
270.0
  0
LINE
  5
702
330
1F
100
AcDbEntity
  8
Rüttler
100
AcDbLine
 10
427.9042990016916
 20
581.8720394273364
 30
0.0
 11
427.9042990016916
 21
572.8720394273364
 31
0.0
  0
LINE
  5
703
330
1F
100
AcDbEntity
  8
Rüttler
100
AcDbLine
 10
431.9042990016916
 20
585.8720394273364
 30
0.0
 11
432.4816827123547
 21
585.8720394273364
 31
0.0
  0
LINE
  5
704
330
1F
100
AcDbEntity
  8
Rüttler
  6
GESTRICHELT
 62
     7
 48
2.0
370
    18
100
AcDbLine
 10
441.4042990016916
 20
585.3720394273364
 30
0.0
 11
444.4042990016916
 21
585.3720394273364
 31
0.0
  0
LINE
  5
705
330
1F
100
AcDbEntity
  8
Rüttler
  6
GESTRICHELT
 62
     7
 48
2.0
370
    18
100
AcDbLine
 10
444.4042990016916
 20
582.8720394273363
 30
0.0
 11
456.4042990016917
 21
582.8720394273363
 31
0.0
  0
LINE
  5
706
330
1F
100
AcDbEntity
  8
ACHSEN
 48
3.0
100
AcDbLine
 10
325.2610186181379
 20
788.5324650143511
 30
0.0
 11
283.6931993094287
 21
788.5324650143511
 31
0.0
  0
LINE
  5
707
330
1F
100
AcDbEntity
  8
Rüttler
100
AcDbLine
 10
329.5395787049567
 20
793.0233404712162
 30
0.0
 11
320.3351948188521
 21
793.0233404712162
 31
0.0
  0
LINE
  5
708
330
1F
100
AcDbEntity
  8
ACHSEN
 48
3.0
100
AcDbLine
 10
5.785802143870171
 20
712.8720394273364
 30
0.0
 11
665.0227958595133
 21
712.8720394273364
 31
0.0
  0
LINE
  5
709
330
1F
100
AcDbEntity
  8
Rüttler
100
AcDbLine
 10
313.4042990016916
 20
637.8720394273364
 30
0.0
 11
357.4042990016916
 21
637.8720394273369
 31
0.0
  0
LINE
  5
70A
330
1F
100
AcDbEntity
  8
Rüttler
100
AcDbLine
 10
300.9042990016916
 20
741.3713236519638
 30
0.0
 11
300.9042990016916
 21
640.3720394273364
 31
0.0
  0
LINE
  5
70B
330
1F
100
AcDbEntity
  8
Rüttler
100
AcDbLine
 10
310.9042990016916
 20
741.3713236519602
 30
0.0
 11
310.9042990016916
 21
640.3720394273364
 31
0.0
  0
LINE
  5
70C
330
1F
100
AcDbEntity
  8
Rüttler
100
AcDbLine
 10
296.4042990016917
 20
770.8720394273364
 30
0.0
 11
296.4042990016917
 21
647.8720394273364
 31
0.0
  0
LINE
  5
70D
330
1F
100
AcDbEntity
  8
Rüttler
100
AcDbLine
 10
292.4042990016916
 20
770.8720394273364
 30
0.0
 11
292.4042990016916
 21
647.8720394273364
 31
0.0
  0
LINE
  5
70E
330
1F
100
AcDbEntity
  8
Rüttler
100
AcDbLine
 10
312.4042990016917
 20
770.8720394273364
 30
0.0
 11
312.4042990016917
 21
647.8720394273364
 31
0.0
  0
LINE
  5
70F
330
1F
100
AcDbEntity
  8
Rüttler
100
AcDbLine
 10
316.4042990016917
 20
770.8720394273364
 30
0.0
 11
316.4042990016917
 21
647.8720394273364
 31
0.0
  0
ARC
  5
710
330
1F
100
AcDbEntity
  8
Rüttler
100
AcDbCircle
 10
247.9042990016917
 20
632.8720394273363
 30
0.0
 40
5.0
100
AcDbArc
 50
90.0
 51
180.0
  0
LINE
  5
711
330
1F
100
AcDbEntity
  8
ACHSEN
100
AcDbLine
 10
221.9042990016916
 20
655.3494368241485
 30
0.0
 11
221.9042990016916
 21
638.2873862854835
 31
0.0
  0
POINT
  5
712
330
1F
100
AcDbEntity
  8
ACHSEN
100
AcDbPoint
 10
212.3017132569773
 20
646.6220394272577
 30
0.0
  0
LINE
  5
713
330
1F
100
AcDbEntity
  8
ACHSEN
100
AcDbLine
 10
212.3017132569773
 20
646.6220394272577
 30
0.0
 11
231.6790470522903
 21
646.6220394272577
 31
0.0
  0
LWPOLYLINE
  5
714
330
1F
100
AcDbEntity
  8
Rüttler
 62
     7
370
    15
100
AcDbPolyline
 90
       16
 70
     1
 43
0.0
 10
221.9042990016916
 20
650.0861410423958
 42
-0.0863188075832584
 10
223.4602546104208
 20
649.8155081079789
 42
-0.0925889459849332
 10
224.7327261264379
 20
649.0715291700412
 42
-0.10309811122448
 10
225.6093741069201
 20
647.9221807852631
 42
-0.111997634476814
 10
225.9042990016916
 20
646.6220394272577
 42
-0.111997634476814
 10
225.6093741069201
 20
645.3218980692526
 42
-0.10309811122448
 10
224.7327261264379
 20
644.1725496844746
 42
-0.0925889459849627
 10
223.4602546104208
 20
643.4285707465369
 42
-0.0863188075832677
 10
221.9042990016916
 20
643.15793781212
 42
-0.0863188075832413
 10
220.3483433929625
 20
643.4285707465369
 42
-0.0925889459849583
 10
219.0758718769454
 20
644.1725496844746
 42
-0.1030981112244802
 10
218.1992238964633
 20
645.3218980692526
 42
-0.111997634476814
 10
217.9042990016916
 20
646.6220394272577
 42
-0.1119976344768465
 10
218.1992238964633
 20
647.9221807852637
 42
-0.1030981112244871
 10
219.0758718769454
 20
649.0715291700412
 42
-0.0925889459849533
 10
220.3483433929625
 20
649.8155081079789
 42
-0.0863188075832646
  0
LWPOLYLINE
  5
715
330
1F
100
AcDbEntity
  8
Rüttler
 62
     7
370
    15
100
AcDbPolyline
 90
       16
 70
     1
 43
0.0
 10
224.7042990016918
 20
646.6220394272577
 42
-0.1162348205695968
 10
224.5000380181597
 20
645.7552539507491
 42
-0.1041574657934514
 10
223.8841979890141
 20
644.9786119023515
 42
-0.0906576393519636
 10
222.9981188537042
 20
644.4806697068234
 42
-0.0829794649318587
 10
221.9042990016916
 20
644.2978819327581
 42
-0.0829794649318417
 10
220.8104791496791
 20
644.4806697068234
 42
-0.0906576393519086
 10
219.9244000143692
 20
644.9786119023515
 42
-0.1041574657934378
 10
219.3085599852236
 20
645.7552539507491
 42
-0.1162348205696134
 10
219.1042990016915
 20
646.6220394272577
 42
-0.1162348205696116
 10
219.3085599852236
 20
647.4888249037662
 42
-0.1041574657934872
 10
219.9244000143692
 20
648.2654669521643
 42
-0.0906576393518455
 10
220.8104791496787
 20
648.7634091476925
 42
-0.0829794649317865
 10
221.9042990016916
 20
648.9461969217577
 42
-0.0829794649318798
 10
222.9981188537046
 20
648.7634091476921
 42
-0.0906576393519162
 10
223.8841979890141
 20
648.2654669521643
 42
-0.1041574657934512
 10
224.5000380181597
 20
647.4888249037662
 42
-0.1162348205695968
  0
LINE
  5
716
330
1F
100
AcDbEntity
  8
Rüttler
100
AcDbLine
 10
247.9042990016917
 20
637.8720394273364
 30
0.0
 11
298.4042990016916
 21
637.8720394273364
 31
0.0
  0
LINE
  5
717
330
1F
100
AcDbEntity
  8
Rüttler
  6
GESTRICHELT
 62
     7
 48
2.0
370
    18
100
AcDbLine
 10
247.9042990016917
 20
635.8720394273364
 30
0.0
 11
292.9042990016916
 21
635.8720394273364
 31
0.0
  0
ARC
  5
718
330
1F
100
AcDbEntity
  8
Rüttler
100
AcDbCircle
 10
279.1465509597958
 20
647.7875421862863
 30
0.0
 40
2.770711586049658
100
AcDbArc
 50
171.7808099539091
 51
232.5583572539199
  0
ARC
  5
719
330
1F
100
AcDbEntity
  8
Rüttler
100
AcDbCircle
 10
269.6620470435875
 20
647.7875421862863
 30
0.0
 40
2.770711586049658
100
AcDbArc
 50
307.4416427460801
 51
8.219190046090821
  0
ARC
  5
71A
330
1F
100
AcDbEntity
  8
Rüttler
100
AcDbCircle
 10
259.1465509597958
 20
647.7875421862863
 30
0.0
 40
2.770711586049658
100
AcDbArc
 50
171.7808099539091
 51
232.5583572539199
  0
ARC
  5
71B
330
1F
100
AcDbEntity
  8
Rüttler
100
AcDbCircle
 10
249.6620470435875
 20
647.7875421862863
 30
0.0
 40
2.770711586049658
100
AcDbArc
 50
307.4416427460801
 51
8.219190046090821
  0
LINE
  5
71C
330
1F
100
AcDbEntity
  8
Rüttler
  6
GESTRICHELT
 62
     7
 48
2.0
370
    18
100
AcDbLine
 10
247.9042990016917
 20
637.8720394273364
 30
0.0
 11
247.9042990016917
 21
635.8720394273364
 31
0.0
  0
ARC
  5
71D
330
1F
100
AcDbEntity
  8
Rüttler
100
AcDbCircle
 10
299.1465509597958
 20
647.7875421862863
 30
0.0
 40
2.770711586049658
100
AcDbArc
 50
171.7808099539091
 51
232.5583572539199
  0
ARC
  5
71E
330
1F
100
AcDbEntity
  8
Rüttler
100
AcDbCircle
 10
289.6620470435875
 20
647.7875421862863
 30
0.0
 40
2.770711586049658
100
AcDbArc
 50
307.4416427460801
 51
8.219190046090821
  0
ARC
  5
71F
330
1F
100
AcDbEntity
  8
Rüttler
100
AcDbCircle
 10
298.4042990016916
 20
640.3720394273364
 30
0.0
 40
2.5
100
AcDbArc
 50
270.0
 51
0.0
  0
LINE
  5
720
330
1F
100
AcDbEntity
  8
Rüttler
100
AcDbLine
 10
307.9042990016917
 20
639.3720394273364
 30
0.0
 11
310.125832117503
 21
639.3720394273364
 31
0.0
  0
ARC
  5
721
330
1F
100
AcDbEntity
  8
Rüttler
100
AcDbCircle
 10
309.6620470435875
 20
647.7875421862863
 30
0.0
 40
2.770711586049658
100
AcDbArc
 50
307.4416427460801
 51
8.219190046090821
  0
ARC
  5
722
330
1F
100
AcDbEntity
  8
Rüttler
100
AcDbCircle
 10
313.4042990016916
 20
640.3720394273364
 30
0.0
 40
2.5
100
AcDbArc
 50
180.0
 51
270.0
  0
ARC
  5
723
330
1F
100
AcDbEntity
  8
Rüttler
100
AcDbCircle
 10
319.1465509597958
 20
647.7875421862863
 30
0.0
 40
2.770711586049658
100
AcDbArc
 50
171.7808099539091
 51
232.5583572539199
  0
ARC
  5
724
330
1F
100
AcDbEntity
  8
Rüttler
100
AcDbCircle
 10
307.9042990016917
 20
636.8720394273363
 30
0.0
 40
2.5
100
AcDbArc
 50
90.0
 51
180.0
  0
ARC
  5
725
330
1F
100
AcDbEntity
  8
Rüttler
100
AcDbCircle
 10
293.4717238552764
 20
639.2543213245435
 30
0.0
 40
7.516147089062277
100
AcDbArc
 50
330.1510246649216
 51
8.552113896298895
  0
LINE
  5
726
330
1F
100
AcDbEntity
  8
Rüttler
  6
GESTRICHELT
 62
     7
 48
2.0
370
    18
100
AcDbLine
 10
292.9042990016916
 20
637.8720394273364
 30
0.0
 11
292.9042990016916
 21
635.8720394273364
 31
0.0
  0
LINE
  5
727
330
1F
100
AcDbEntity
  8
Rüttler
100
AcDbLine
 10
241.231212286066
 20
807.8720394273364
 30
0.0
 11
248.8271803496966
 21
807.8720394273364
 31
0.0
  0
ARC
  5
728
330
1F
100
AcDbEntity
  8
Rüttler
100
AcDbCircle
 10
241.231212286066
 20
813.8720394273363
 30
0.0
 40
6.0
100
AcDbArc
 50
181.5000000000157
 51
270.0
  0
POINT
  5
729
330
1F
100
AcDbEntity
  8
Rüttler
  6
ByBlock
100
AcDbPoint
 10
241.231212286066
 20
807.8720394273364
 30
0.0
  0
ARC
  5
72A
330
1F
100
AcDbEntity
  8
Rüttler
100
AcDbCircle
 10
294.4042990016916
 20
770.8720394273364
 30
0.0
 40
2.0
100
AcDbArc
 50
0.0
 51
180.0
  0
ARC
  5
72B
330
1F
100
AcDbEntity
  8
Rüttler
100
AcDbCircle
 10
314.4042990016917
 20
770.8720394273364
 30
0.0
 40
2.0
100
AcDbArc
 50
0.0
 51
180.0
  0
LINE
  5
72C
330
1F
100
AcDbEntity
  8
ACHSEN
 48
3.0
100
AcDbLine
 10
304.4042990016917
 20
809.2294475215444
 30
0.0
 11
304.4042990016917
 21
731.4636500119894
 31
0.0
  0
ARC
  5
72D
330
1F
100
AcDbEntity
  8
Rüttler
100
AcDbCircle
 10
447.9068220993588
 20
785.9351082588933
 30
0.0
 40
160.2224105917762
100
AcDbArc
 50
179.1049063494586
 51
191.5060525795614
  0
ARC
  5
72E
330
1F
100
AcDbEntity
  8
Rüttler
100
AcDbCircle
 10
160.9017759040241
 20
785.9351082588933
 30
0.0
 40
160.2224105917762
100
AcDbArc
 50
348.4939474204385
 51
0.8950936505413205
  0
ARC
  5
72F
330
1F
100
AcDbEntity
  8
Rüttler
100
AcDbCircle
 10
316.9651280910254
 20
740.3137849405847
 30
0.0
 40
6.152400944035731
100
AcDbArc
 50
150.2747817453998
 51
170.1022503791303
  0
ARC
  5
730
330
1F
100
AcDbEntity
  8
Rüttler
100
AcDbCircle
 10
296.4970297030461
 20
741.1690119280478
 30
0.0
 40
4.411910323705123
100
AcDbArc
 50
2.628266059430728
 51
44.60680338012843
  0
LINE
  5
731
330
1F
100
AcDbEntity
  8
Rüttler
100
AcDbLine
 10
279.9814176536863
 20
807.8720394273367
 30
0.0
 11
288.8271803496966
 21
807.8720394273367
 31
0.0
  0
ARC
  5
732
330
1F
100
AcDbEntity
  8
Rüttler
100
AcDbCircle
 10
248.8271803496966
 20
810.8720394273364
 30
0.0
 40
3.0
100
AcDbArc
 50
270.0
 51
358.4999999999841
  0
ARC
  5
733
330
1F
100
AcDbEntity
  8
Rüttler
100
AcDbCircle
 10
259.9814176536863
 20
810.8720394273364
 30
0.0
 40
3.0
100
AcDbArc
 50
181.5000000000157
 51
270.0
  0
ARC
  5
734
330
1F
100
AcDbEntity
  8
Rüttler
100
AcDbCircle
 10
268.8271803496966
 20
810.8720394273369
 30
0.0
 40
3.0
100
AcDbArc
 50
270.0
 51
358.4999999999841
  0
ARC
  5
735
330
1F
100
AcDbEntity
  8
Rüttler
100
AcDbCircle
 10
279.9814176536863
 20
810.8720394273369
 30
0.0
 40
3.0
100
AcDbArc
 50
181.5000000000157
 51
270.0
  0
LINE
  5
736
330
1F
100
AcDbEntity
  8
Rüttler
100
AcDbLine
 10
259.9814176536863
 20
807.8720394273364
 30
0.0
 11
268.8271803496966
 21
807.8720394273367
 31
0.0
  0
ARC
  5
737
330
1F
100
AcDbEntity
  8
Rüttler
100
AcDbCircle
 10
294.6147670028942
 20
788.3272658888918
 30
0.0
 40
6.911692147235441
100
AcDbArc
 50
108.6517825371739
 51
179.0815614303672
  0
ARC
  5
738
330
1F
100
AcDbEntity
  8
Rüttler
100
AcDbCircle
 10
318.715944546336
 20
795.5233404712162
 30
0.0
 40
2.5
100
AcDbArc
 50
281.5755909743177
 51
358.4999999999841
  0
ARC
  5
739
330
1F
100
AcDbEntity
  8
Rüttler
100
AcDbCircle
 10
314.1938310004886
 20
788.3272658888918
 30
0.0
 40
6.911692147235441
100
AcDbArc
 50
0.9184385696327912
 51
71.34821746282603
  0
ARC
  5
73A
330
1F
100
AcDbEntity
  8
Rüttler
100
AcDbCircle
 10
319.9042990016916
 20
795.1689624719261
 30
0.0
 40
2.0
100
AcDbArc
 50
180.0
 51
230.1497092928868
  0
ARC
  5
73B
330
1F
100
AcDbEntity
  8
Rüttler
100
AcDbCircle
 10
318.4042990016917
 20
796.1815778344353
 30
0.0
 40
2.0
100
AcDbArc
 50
180.0
 51
241.8055364674374
  0
LINE
  5
73C
330
1F
100
AcDbEntity
  8
Rüttler
100
AcDbLine
 10
299.9814176536863
 20
807.8720394273367
 30
0.0
 11
308.827180349697
 21
807.8720394273367
 31
0.0
  0
ARC
  5
73D
330
1F
100
AcDbEntity
  8
Rüttler
100
AcDbCircle
 10
288.8271803496966
 20
810.8720394273369
 30
0.0
 40
3.0
100
AcDbArc
 50
270.0
 51
358.4999999999841
  0
ARC
  5
73E
330
1F
100
AcDbEntity
  8
Rüttler
100
AcDbCircle
 10
299.9814176536863
 20
810.8720394273369
 30
0.0
 40
3.0
100
AcDbArc
 50
181.5000000000157
 51
270.0
  0
ARC
  5
73F
330
1F
100
AcDbEntity
  8
Rüttler
100
AcDbCircle
 10
308.827180349697
 20
810.8720394273369
 30
0.0
 40
3.0
100
AcDbArc
 50
270.0
 51
358.4999999999841
  0
ARC
  5
740
330
1F
100
AcDbEntity
  8
Rüttler
100
AcDbCircle
 10
288.9042990016917
 20
795.1689624719319
 30
0.0
 40
2.0
100
AcDbArc
 50
309.850290707076
 51
0.0
  0
ARC
  5
741
330
1F
100
AcDbEntity
  8
Rüttler
100
AcDbCircle
 10
290.4042990016916
 20
796.1815778344408
 30
0.0
 40
2.0
100
AcDbArc
 50
298.1944635325626
 51
0.0
  0
LWPOLYLINE
  5
742
330
1F
100
AcDbEntity
  8
Rüttler
 62
     7
370
    15
100
AcDbPolyline
 90
       16
 70
     1
 43
0.0
 10
298.4042990016916
 20
788.5324650143511
 42
0.1332561510788935
 10
298.822401121304
 20
786.9915312841771
 42
0.1067562697216072
 10
300.1616583145721
 20
785.5324650143511
 42
0.0828275296410324
 10
302.0273780800823
 20
784.6307549584488
 42
0.0713517487531072
 10
304.4042990016917
 20
784.289824327232
 42
0.0713517487530826
 10
306.781219923301
 20
784.6307549584488
 42
0.0828275296409838
 10
308.6469396888107
 20
785.5324650143511
 42
0.1067562697216158
 10
309.9861968820789
 20
786.9915312841777
 42
0.1332561510788801
 10
310.4042990016917
 20
788.5324650143511
 42
0.1332561510788895
 10
309.9861968820789
 20
790.073398744525
 42
0.1067562697216355
 10
308.6469396888107
 20
791.5324650143511
 42
0.0828275296409974
 10
306.7812199233014
 20
792.4341750702533
 42
0.0713517487531285
 10
304.4042990016917
 20
792.7751057014702
 42
0.0713517487531285
 10
302.0273780800819
 20
792.4341750702533
 42
0.0828275296409974
 10
300.1616583145721
 20
791.5324650143511
 42
0.1067562697216266
 10
298.822401121304
 20
790.073398744525
 42
0.1332561510788826
  0
LWPOLYLINE
  5
743
330
1F
100
AcDbEntity
  8
Rüttler
 62
     7
370
    15
100
AcDbPolyline
 90
       16
 70
     1
 43
0.0
 10
299.9042990016917
 20
788.5324650143511
 42
0.1332561510789238
 10
300.1166854354953
 20
787.7497054818635
 42
0.1067562697215937
 10
301.0276837183567
 20
786.7572098857427
 42
0.0828275296409483
 10
302.4490050366527
 20
786.0702794318403
 42
0.0713517487531678
 10
304.4042990016917
 20
785.789824327232
 42
0.0713517487529596
 10
306.3595929667255
 20
786.070279431839
 42
0.0828275296411472
 10
307.7809142850262
 20
786.7572098857427
 42
0.1067562697216076
 10
308.6919125678875
 20
787.7497054818641
 42
0.1332561510788943
 10
308.9042990016916
 20
788.5324650143511
 42
0.1332561510788285
 10
308.691912567888
 20
789.3152245468382
 42
0.1067562697216738
 10
307.7809142850262
 20
790.3077201429596
 42
0.0828275296409582
 10
306.3595929667296
 20
790.9946505968619
 42
0.0713517487531583
 10
304.4042990016917
 20
791.2751057014702
 42
0.0713517487531589
 10
302.4490050366532
 20
790.9946505968619
 42
0.0828275296409556
 10
301.0276837183567
 20
790.3077201429596
 42
0.1067562697216567
 10
300.1166854354953
 20
789.3152245468382
 42
0.1332561510788156
  0
LWPOLYLINE
  5
744
330
1F
100
AcDbEntity
  8
Rüttler
100
AcDbPolyline
 90
       16
 70
     1
 43
0.0
 10
304.4042990016917
 20
799.1390667321493
 42
0.0713517487531191
 10
298.4619966976672
 20
798.2867401541065
 42
0.0828275296410025
 10
293.7976972838935
 20
796.0324650143511
 42
0.1067562697216185
 10
290.4495543007221
 20
792.3847993397862
 42
0.1332561510788776
 10
289.4042990016917
 20
788.5324650143511
 42
0.1332561510788744
 10
290.4495543007221
 20
784.6801306889164
 42
0.106756269721622
 10
293.7976972838935
 20
781.0324650143511
 42
0.0828275296410141
 10
298.4619966976676
 20
778.7781898745956
 42
0.0713517487531157
 10
304.4042990016917
 20
777.925863296553
 42
0.0713517487531204
 10
310.3466013057161
 20
778.7781898745956
 42
0.082827529641007
 10
315.0109007194898
 20
781.0324650143511
 42
0.1067562697216187
 10
318.3590437026607
 20
784.6801306889164
 42
0.1332561510788776
 10
319.4042990016916
 20
788.5324650143511
 42
0.1332561510788776
 10
318.3590437026607
 20
792.3847993397862
 42
0.1067562697216188
 10
315.0109007194898
 20
796.0324650143511
 42
0.0828275296410019
 10
310.3466013057157
 20
798.2867401541071
 42
0.0713517487531124
  0
LINE
  5
745
330
1F
100
AcDbEntity
  8
Rüttler
100
AcDbLine
 10
369.9042990016916
 20
741.3713236519615
 30
0.0
 11
369.9042990016916
 21
640.3720394273364
 31
0.0
  0
LINE
  5
746
330
1F
100
AcDbEntity
  8
Rüttler
100
AcDbLine
 10
359.9042990016917
 20
741.3713236519611
 30
0.0
 11
359.9042990016917
 21
640.3720394273367
 31
0.0
  0
LINE
  5
747
330
1F
100
AcDbEntity
  8
Rüttler
100
AcDbLine
 10
394.4042990016916
 20
794.8720394273363
 30
0.0
 11
394.4042990016916
 21
647.8720394273364
 31
0.0
  0
LINE
  5
748
330
1F
100
AcDbEntity
  8
Rüttler
100
AcDbLine
 10
378.4042990016917
 20
794.8720394273363
 30
0.0
 11
378.4042990016917
 21
647.8720394273364
 31
0.0
  0
LINE
  5
749
330
1F
100
AcDbEntity
  8
Rüttler
100
AcDbLine
 10
374.4042990016917
 20
794.8720394273363
 30
0.0
 11
374.4042990016917
 21
647.8720394273364
 31
0.0
  0
LINE
  5
74A
330
1F
100
AcDbEntity
  8
Rüttler
100
AcDbLine
 10
358.4042990016917
 20
794.8720394273363
 30
0.0
 11
358.4042990016917
 21
647.8720394273364
 31
0.0
  0
LINE
  5
74B
330
1F
100
AcDbEntity
  8
Rüttler
100
AcDbLine
 10
354.4042990016917
 20
791.6736319141087
 30
0.0
 11
354.4042990016917
 21
647.8720394273364
 31
0.0
  0
LINE
  5
74C
330
1F
100
AcDbEntity
  8
Rüttler
100
AcDbLine
 10
398.4042990016916
 20
790.9985614044757
 30
0.0
 11
398.4042990016916
 21
647.8720394273364
 31
0.0
  0
LINE
  5
74D
330
1F
100
AcDbEntity
  8
Rüttler
100
AcDbLine
 10
372.4042990016917
 20
637.8720394273364
 30
0.0
 11
422.9042990016917
 21
637.8720394273369
 31
0.0
  0
LINE
  5
74E
330
1F
100
AcDbEntity
  8
Rüttler
  6
GESTRICHELT
 62
     7
 48
2.0
370
    18
100
AcDbLine
 10
377.9042990016916
 20
635.8720394273364
 30
0.0
 11
422.9042990016917
 21
635.8720394273364
 31
0.0
  0
LINE
  5
74F
330
1F
100
AcDbEntity
  8
Rüttler
100
AcDbLine
 10
360.6827658858803
 20
639.3720394273367
 30
0.0
 11
362.9042990016916
 21
639.3720394273367
 31
0.0
  0
ARC
  5
750
330
1F
100
AcDbEntity
  8
Rüttler
100
AcDbCircle
 10
361.1465509597958
 20
647.7875421862863
 30
0.0
 40
2.770711586049658
100
AcDbArc
 50
171.7808099539091
 51
232.5583572539199
  0
ARC
  5
751
330
1F
100
AcDbEntity
  8
Rüttler
100
AcDbCircle
 10
357.4042990016916
 20
640.3720394273367
 30
0.0
 40
2.5
100
AcDbArc
 50
270.0
 51
0.0
  0
ARC
  5
752
330
1F
100
AcDbEntity
  8
Rüttler
100
AcDbCircle
 10
330.6620470435875
 20
647.7875421862863
 30
0.0
 40
2.770711586049658
100
AcDbArc
 50
307.4416427460801
 51
8.219190046090821
  0
ARC
  5
753
330
1F
100
AcDbEntity
  8
Rüttler
100
AcDbCircle
 10
340.1465509597958
 20
647.7875421862863
 30
0.0
 40
2.770711586049658
100
AcDbArc
 50
171.7808099539091
 51
232.5583572539199
  0
ARC
  5
754
330
1F
100
AcDbEntity
  8
Rüttler
100
AcDbCircle
 10
351.6620470435875
 20
647.7875421862863
 30
0.0
 40
2.770711586049658
100
AcDbArc
 50
307.4416427460801
 51
8.219190046090821
  0
ARC
  5
755
330
1F
100
AcDbEntity
  8
Rüttler
100
AcDbCircle
 10
372.4042990016917
 20
640.3720394273364
 30
0.0
 40
2.5
100
AcDbArc
 50
180.0
 51
270.0
  0
ARC
  5
756
330
1F
100
AcDbEntity
  8
Rüttler
100
AcDbCircle
 10
401.1465509597958
 20
647.7875421862863
 30
0.0
 40
2.770711586049658
100
AcDbArc
 50
171.7808099539091
 51
232.5583572539199
  0
ARC
  5
757
330
1F
100
AcDbEntity
  8
Rüttler
100
AcDbCircle
 10
371.6620470435875
 20
647.7875421862863
 30
0.0
 40
2.770711586049658
100
AcDbArc
 50
307.4416427460801
 51
8.219190046090821
  0
ARC
  5
758
330
1F
100
AcDbEntity
  8
Rüttler
100
AcDbCircle
 10
381.1465509597958
 20
647.7875421862863
 30
0.0
 40
2.770711586049658
100
AcDbArc
 50
171.7808099539091
 51
232.5583572539199
  0
ARC
  5
759
330
1F
100
AcDbEntity
  8
Rüttler
100
AcDbCircle
 10
391.6620470435875
 20
647.7875421862863
 30
0.0
 40
2.770711586049658
100
AcDbArc
 50
307.4416427460801
 51
8.219190046090821
  0
ARC
  5
75A
330
1F
100
AcDbEntity
  8
Rüttler
100
AcDbCircle
 10
362.9042990016916
 20
636.8720394273367
 30
0.0
 40
2.5
100
AcDbArc
 50
0.0
 51
90.0
  0
ARC
  5
75B
330
1F
100
AcDbEntity
  8
Rüttler
100
AcDbCircle
 10
377.3368741481069
 20
639.2543213245435
 30
0.0
 40
7.516147089062277
100
AcDbArc
 50
171.4478861037011
 51
209.8489753350783
  0
LINE
  5
75C
330
1F
100
AcDbEntity
  8
Rüttler
  6
GESTRICHELT
 62
     7
 48
2.0
370
    18
100
AcDbLine
 10
377.9042990016916
 20
637.8720394273364
 30
0.0
 11
377.9042990016916
 21
635.8720394273364
 31
0.0
  0
LINE
  5
75D
330
1F
100
AcDbEntity
  8
ACHSEN
100
AcDbLine
 10
458.506884746406
 20
646.6220394272577
 30
0.0
 11
439.129550951093
 21
646.6220394272577
 31
0.0
  0
ARC
  5
75E
330
1F
100
AcDbEntity
  8
Rüttler
100
AcDbCircle
 10
411.6620470435875
 20
647.7875421862863
 30
0.0
 40
2.770711586049658
100
AcDbArc
 50
307.4416427460801
 51
8.219190046090821
  0
ARC
  5
75F
330
1F
100
AcDbEntity
  8
Rüttler
100
AcDbCircle
 10
421.1465509597958
 20
647.7875421862863
 30
0.0
 40
2.770711586049658
100
AcDbArc
 50
171.7808099539091
 51
232.5583572539199
  0
ARC
  5
760
330
1F
100
AcDbEntity
  8
Rüttler
100
AcDbCircle
 10
422.9042990016917
 20
632.8720394273367
 30
0.0
 40
5.0
100
AcDbArc
 50
0.0
 51
90.0
  0
LINE
  5
761
330
1F
100
AcDbEntity
  8
Rüttler
  6
GESTRICHELT
 62
     7
 48
2.0
370
    18
100
AcDbLine
 10
422.9042990016912
 20
637.8720394273364
 30
0.0
 11
422.9042990016917
 21
635.8720394273364
 31
0.0
  0
LINE
  5
762
330
1F
100
AcDbEntity
  8
ACHSEN
100
AcDbLine
 10
448.9042990016916
 20
655.3494368241485
 30
0.0
 11
448.9042990016916
 21
638.2873862854835
 31
0.0
  0
LWPOLYLINE
  5
763
330
1F
100
AcDbEntity
  8
Rüttler
 62
     7
370
    15
100
AcDbPolyline
 90
       16
 70
     1
 43
0.0
 10
448.9042990016916
 20
650.0861410423958
 42
0.0863188075832584
 10
447.3483433929625
 20
649.8155081079789
 42
0.0925889459849332
 10
446.0758718769454
 20
649.0715291700412
 42
0.10309811122448
 10
445.1992238964633
 20
647.9221807852631
 42
0.111997634476814
 10
444.9042990016916
 20
646.6220394272577
 42
0.111997634476814
 10
445.1992238964633
 20
645.3218980692526
 42
0.10309811122448
 10
446.0758718769454
 20
644.1725496844746
 42
0.0925889459849627
 10
447.3483433929625
 20
643.4285707465369
 42
0.0863188075832677
 10
448.9042990016916
 20
643.15793781212
 42
0.0863188075832413
 10
450.4602546104203
 20
643.4285707465369
 42
0.0925889459849583
 10
451.7327261264378
 20
644.1725496844746
 42
0.1030981112244802
 10
452.6093741069196
 20
645.3218980692526
 42
0.111997634476814
 10
452.9042990016916
 20
646.6220394272577
 42
0.1119976344768465
 10
452.6093741069196
 20
647.9221807852637
 42
0.1030981112244871
 10
451.7327261264378
 20
649.0715291700412
 42
0.0925889459849533
 10
450.4602546104208
 20
649.8155081079789
 42
0.0863188075832646
  0
LWPOLYLINE
  5
764
330
1F
100
AcDbEntity
  8
Rüttler
 62
     7
370
    15
100
AcDbPolyline
 90
       16
 70
     1
 43
0.0
 10
446.1042990016915
 20
646.6220394272577
 42
0.1162348205695968
 10
446.3085599852235
 20
645.7552539507491
 42
0.1041574657934514
 10
446.9244000143691
 20
644.9786119023515
 42
0.0906576393519636
 10
447.8104791496791
 20
644.4806697068234
 42
0.0829794649318587
 10
448.9042990016916
 20
644.2978819327581
 42
0.0829794649318417
 10
449.9981188537041
 20
644.4806697068234
 42
0.0906576393519086
 10
450.8841979890137
 20
644.9786119023515
 42
0.1041574657934378
 10
451.5000380181597
 20
645.7552539507491
 42
0.1162348205696134
 10
451.7042990016914
 20
646.6220394272577
 42
0.1162348205696116
 10
451.5000380181597
 20
647.4888249037662
 42
0.1041574657934872
 10
450.8841979890137
 20
648.2654669521643
 42
0.0906576393518455
 10
449.9981188537047
 20
648.7634091476925
 42
0.0829794649317865
 10
448.9042990016916
 20
648.9461969217577
 42
0.0829794649318798
 10
447.8104791496787
 20
648.7634091476921
 42
0.0906576393519162
 10
446.9244000143691
 20
648.2654669521643
 42
0.1041574657934512
 10
446.3085599852235
 20
647.4888249037662
 42
0.1162348205695968
  0
LINE
  5
765
330
1F
100
AcDbEntity
  8
Rüttler
100
AcDbLine
 10
410.5395787049571
 20
793.0233404712171
 30
0.0
 11
400.8569169900454
 21
793.0233404712171
 31
0.0
  0
ARC
  5
766
330
1F
100
AcDbEntity
  8
Rüttler
100
AcDbCircle
 10
353.8434699123579
 20
740.3137849405847
 30
0.0
 40
6.152400944035731
100
AcDbArc
 50
9.897749620869662
 51
29.72521825459969
  0
ARC
  5
767
330
1F
100
AcDbEntity
  8
Rüttler
100
AcDbCircle
 10
374.3115683003372
 20
741.1690119280478
 30
0.0
 40
4.411910323705123
100
AcDbArc
 50
135.3931966198715
 51
177.3717339405692
  0
ARC
  5
768
330
1F
100
AcDbEntity
  8
Rüttler
100
AcDbCircle
 10
362.4042990016917
 20
779.2584337736507
 30
0.0
 40
2.5
100
AcDbArc
 50
90.0
 51
180.0
  0
LINE
  5
769
330
1F
100
AcDbEntity
  8
Rüttler
100
AcDbLine
 10
358.4042990016917
 20
794.8720394273363
 30
0.0
 11
359.9042990016917
 21
781.7584337736507
 31
0.0
  0
LINE
  5
76A
330
1F
100
AcDbEntity
  8
Rüttler
100
AcDbLine
 10
354.4042990016917
 20
794.8720394273363
 30
0.0
 11
354.4042990016917
 21
791.6736319141087
 31
0.0
  0
ARC
  5
76B
330
1F
100
AcDbEntity
  8
Rüttler
100
AcDbCircle
 10
341.2690192984266
 20
795.5233404712162
 30
0.0
 40
2.5
100
AcDbArc
 50
183.1857778287726
 51
270.0
  0
ARC
  5
76C
330
1F
100
AcDbEntity
  8
Rüttler
100
AcDbCircle
 10
329.5395787049567
 20
795.5233404712162
 30
0.0
 40
2.5
100
AcDbArc
 50
270.0
 51
356.8142221712273
  0
LINE
  5
76D
330
1F
100
AcDbEntity
  8
Rüttler
100
AcDbLine
 10
351.9516810133293
 20
793.0233404712167
 30
0.0
 11
341.2690192984266
 21
793.0233404712162
 31
0.0
  0
ARC
  5
76E
330
1F
100
AcDbEntity
  8
Rüttler
100
AcDbCircle
 10
356.4042990016917
 20
794.8720394273363
 30
0.0
 40
2.0
100
AcDbArc
 50
0.0
 51
171.6781491454918
  0
ARC
  5
76F
330
1F
100
AcDbEntity
  8
Rüttler
100
AcDbCircle
 10
351.9516810133293
 20
795.5233404712162
 30
0.0
 40
2.5
100
AcDbArc
 50
270.0
 51
351.6781491454918
  0
LINE
  5
770
330
1F
100
AcDbEntity
  8
Rüttler
100
AcDbLine
 10
374.4042990016917
 20
794.8720394273363
 30
0.0
 11
372.9042990016917
 21
781.7584337736507
 31
0.0
  0
LINE
  5
771
330
1F
100
AcDbEntity
  8
Rüttler
100
AcDbLine
 10
378.4042990016917
 20
794.8720394273363
 30
0.0
 11
379.9042990016916
 21
781.7584337736507
 31
0.0
  0
LINE
  5
772
330
1F
100
AcDbEntity
  8
Rüttler
100
AcDbLine
 10
394.4042990016916
 20
794.8720394273363
 30
0.0
 11
392.9042990016917
 21
781.7584337736507
 31
0.0
  0
LINE
  5
773
330
1F
100
AcDbEntity
  8
Rüttler
100
AcDbLine
 10
370.4042990016917
 20
781.7584337736507
 30
0.0
 11
362.4042990016917
 21
781.7584337736507
 31
0.0
  0
LINE
  5
774
330
1F
100
AcDbEntity
  8
Rüttler
100
AcDbLine
 10
390.4042990016916
 20
781.7584337736507
 30
0.0
 11
382.4042990016916
 21
781.7584337736507
 31
0.0
  0
LINE
  5
775
330
1F
100
AcDbEntity
  8
Rüttler
100
AcDbLine
 10
398.4042990016916
 20
794.8720394273363
 30
0.0
 11
398.4042990016916
 21
791.6736319141087
 31
0.0
  0
ARC
  5
776
330
1F
100
AcDbEntity
  8
Rüttler
100
AcDbCircle
 10
400.8569169900454
 20
795.5233404712171
 30
0.0
 40
2.5
100
AcDbArc
 50
188.3218508545081
 51
270.0
  0
ARC
  5
777
330
1F
100
AcDbEntity
  8
Rüttler
100
AcDbCircle
 10
376.4042990016917
 20
794.8720394273363
 30
0.0
 40
2.0
100
AcDbArc
 50
0.0
 51
180.0
  0
ARC
  5
778
330
1F
100
AcDbEntity
  8
Rüttler
100
AcDbCircle
 10
396.4042990016917
 20
794.8720394273363
 30
0.0
 40
2.0
100
AcDbArc
 50
8.321850854533558
 51
180.0
  0
ARC
  5
779
330
1F
100
AcDbEntity
  8
Rüttler
100
AcDbCircle
 10
370.4042990016917
 20
779.2584337736507
 30
0.0
 40
2.5
100
AcDbArc
 50
0.0
 51
90.0
  0
ARC
  5
77A
330
1F
100
AcDbEntity
  8
Rüttler
100
AcDbCircle
 10
390.4042990016916
 20
779.2584337736507
 30
0.0
 40
2.5
100
AcDbArc
 50
0.0
 51
90.0
  0
ARC
  5
77B
330
1F
100
AcDbEntity
  8
Rüttler
100
AcDbCircle
 10
382.4042990016916
 20
779.2584337736507
 30
0.0
 40
2.5
100
AcDbArc
 50
90.0
 51
180.0
  0
ARC
  5
77C
330
1F
100
AcDbEntity
  8
Rüttler
100
AcDbCircle
 10
410.5395787049571
 20
795.5233404712171
 30
0.0
 40
2.5
100
AcDbArc
 50
270.0
 51
356.8142221712273
  0
ARC
  5
77D
330
1F
100
AcDbEntity
  8
Rüttler
100
AcDbCircle
 10
426.0926534570487
 20
795.5233404712162
 30
0.0
 40
2.5
100
AcDbArc
 50
181.5000000000157
 51
270.0
  0
ARC
  5
77E
330
1F
100
AcDbEntity
  8
Rüttler
100
AcDbCircle
 10
422.2690192984262
 20
795.5233404712162
 30
0.0
 40
2.5
100
AcDbArc
 50
183.1857778287726
 51
270.0
  0
LINE
  5
77F
330
1F
100
AcDbEntity
  8
Rüttler
100
AcDbLine
 10
229.4042990016917
 20
845.3720394273361
 30
0.0
 11
48.85276091048519
 21
845.3720394273361
 31
0.0
  0
ARC
  5
780
330
1F
100
AcDbEntity
  8
Rüttler
100
AcDbCircle
 10
48.85276091048519
 20
830.3720394273362
 30
0.0
 40
15.0
100
AcDbArc
 50
90.0
 51
165.9795592558995
  0
ARC
  5
781
330
1F
100
AcDbEntity
  8
Rüttler
100
AcDbCircle
 10
326.5889716226386
 20
846.8720394273363
 30
0.0
 40
4.0
100
AcDbArc
 50
90.0
 51
178.4999999999973
  0
LINE
  5
782
330
1F
100
AcDbEntity
  8
Rüttler
100
AcDbLine
 10
322.4042990016917
 20
840.8720394273364
 30
0.0
 11
422.4042990016912
 21
840.8720394273364
 31
0.0
  0
LINE
  5
783
330
1F
100
AcDbEntity
  8
Rüttler
  6
GESTRICHELT
 62
     7
 48
2.0
370
    15
100
AcDbLine
 10
214.4042990016917
 20
842.8720394273364
 30
0.0
 11
226.4042990016912
 21
842.8720394273362
 31
0.0
  0
LINE
  5
784
330
1F
100
AcDbEntity
  8
Rüttler
  6
GESTRICHELT
 62
     7
 48
2.0
370
    15
100
AcDbLine
 10
226.4042990016917
 20
840.3720394273364
 30
0.0
 11
229.4042990016917
 21
840.3720394273364
 31
0.0
  0
LINE
  5
785
330
1F
100
AcDbEntity
  8
Rüttler
100
AcDbLine
 10
229.4042990016917
 20
845.3720394273364
 30
0.0
 11
229.4042990016917
 21
838.3720394273364
 31
0.0
  0
LINE
  5
786
330
1F
100
AcDbEntity
  8
Rüttler
100
AcDbLine
 10
229.4042990016917
 20
845.3720394273364
 30
0.0
 11
232.4559852598479
 21
845.3720394273364
 31
0.0
  0
ARC
  5
787
330
1F
100
AcDbEntity
  8
Rüttler
100
AcDbCircle
 10
232.4559852598479
 20
843.3720394273363
 30
0.0
 40
2.0
100
AcDbArc
 50
1.500000000015761
 51
90.0
  0
ARC
  5
788
330
1F
100
AcDbEntity
  8
Rüttler
100
AcDbCircle
 10
254.2551970564429
 20
830.9720394273362
 30
0.0
 40
1.9
100
AcDbArc
 50
90.0
 51
178.4999999999842
  0
POINT
  5
789
330
1F
100
AcDbEntity
  8
Rüttler
  6
ByBlock
100
AcDbPoint
 10
254.5534009469404
 20
832.8720394273364
 30
0.0
  0
LINE
  5
78A
330
1F
100
AcDbEntity
  8
Rüttler
100
AcDbLine
 10
274.2551970564429
 20
832.8720394273367
 30
0.0
 11
274.5534009469404
 21
832.8720394273367
 31
0.0
  0
ARC
  5
78B
330
1F
100
AcDbEntity
  8
Rüttler
100
AcDbCircle
 10
274.2551970564429
 20
830.9720394273362
 30
0.0
 40
1.9
100
AcDbArc
 50
90.0
 51
178.4999999999842
  0
ARC
  5
78C
330
1F
100
AcDbEntity
  8
Rüttler
100
AcDbCircle
 10
274.5534009469404
 20
830.9720394273362
 30
0.0
 40
1.9
100
AcDbArc
 50
1.500000000015761
 51
90.0
  0
LINE
  5
78D
330
1F
100
AcDbEntity
  8
Rüttler
100
AcDbLine
 10
254.2551970564429
 20
832.8720394273367
 30
0.0
 11
254.5534009469404
 21
832.8720394273364
 31
0.0
  0
ARC
  5
78E
330
1F
100
AcDbEntity
  8
Rüttler
100
AcDbCircle
 10
254.5534009469404
 20
830.9720394273362
 30
0.0
 40
1.9
100
AcDbArc
 50
1.500000000015761
 51
90.0
  0
LINE
  5
78F
330
1F
100
AcDbEntity
  8
Rüttler
100
AcDbLine
 10
322.5903423227366
 20
846.9767472205681
 30
0.0
 11
322.4304849232601
 21
840.8720394273364
 31
0.0
  0
LINE
  5
790
330
1F
100
AcDbEntity
  8
Rüttler
100
AcDbLine
 10
314.2551970564429
 20
832.8720394273367
 30
0.0
 11
314.5534009469404
 21
832.8720394273367
 31
0.0
  0
ARC
  5
791
330
1F
100
AcDbEntity
  8
Rüttler
100
AcDbCircle
 10
314.5534009469404
 20
830.9720394273368
 30
0.0
 40
1.9
100
AcDbArc
 50
5.215908570448533
 51
90.0
  0
ARC
  5
792
330
1F
100
AcDbEntity
  8
Rüttler
100
AcDbCircle
 10
314.2551970564429
 20
830.9720394273368
 30
0.0
 40
1.9
100
AcDbArc
 50
90.0
 51
178.4999999999842
  0
LINE
  5
793
330
1F
100
AcDbEntity
  8
Rüttler
100
AcDbLine
 10
318.9351814069816
 20
828.8720394273369
 30
0.0
 11
319.9042990016916
 21
828.8720394273369
 31
0.0
  0
ARC
  5
794
330
1F
100
AcDbEntity
  8
Rüttler
100
AcDbCircle
 10
319.9042990016916
 20
831.3720394273369
 30
0.0
 40
2.5
100
AcDbArc
 50
270.0
 51
332.6823849854586
  0
ARC
  5
795
330
1F
100
AcDbEntity
  8
Rüttler
100
AcDbCircle
 10
318.9351814069816
 20
831.3720394273369
 30
0.0
 40
2.5
100
AcDbArc
 50
185.2159085704485
 51
270.0
  0
LINE
  5
796
330
1F
100
AcDbEntity
  8
Rüttler
100
AcDbLine
 10
294.2551970564429
 20
832.8720394273367
 30
0.0
 11
294.5534009469404
 21
832.8720394273367
 31
0.0
  0
ARC
  5
797
330
1F
100
AcDbEntity
  8
Rüttler
100
AcDbCircle
 10
294.2551970564429
 20
830.9720394273368
 30
0.0
 40
1.9
100
AcDbArc
 50
90.0
 51
178.4999999999842
  0
ARC
  5
798
330
1F
100
AcDbEntity
  8
Rüttler
100
AcDbCircle
 10
294.5534009469404
 20
830.9720394273368
 30
0.0
 40
1.9
100
AcDbArc
 50
1.500000000015761
 51
90.0
  0
LINE
  5
799
330
1F
100
AcDbEntity
  8
Rüttler
100
AcDbLine
 10
326.5889716226386
 20
850.8720394273364
 30
0.0
 11
418.4042990016912
 21
850.8720394273364
 31
0.0
  0
LINE
  5
79A
330
1F
100
AcDbEntity
  8
ACHSEN
 48
3.0
100
AcDbLine
 10
345.1742355394328
 20
820.8720394273363
 30
0.0
 11
405.8092629711415
 21
820.8720394273363
 31
0.0
  0
ARC
  5
79B
330
1F
100
AcDbEntity
  8
Rüttler
100
AcDbCircle
 10
335.4042990016917
 20
819.9728288904151
 30
0.0
 40
2.0
100
AcDbArc
 50
0.0
 51
180.0
  0
LINE
  5
79C
330
1F
100
AcDbEntity
  8
Rüttler
100
AcDbLine
 10
438.8396911789957
 20
845.3720394273364
 30
0.0
 11
441.4042990016912
 21
845.3720394273364
 31
0.0
  0
ARC
  5
79D
330
1F
100
AcDbEntity
  8
Rüttler
100
AcDbCircle
 10
418.4042990016912
 20
846.8720394273363
 30
0.0
 40
4.0
100
AcDbArc
 50
0.0
 51
90.0
  0
LINE
  5
79E
330
1F
100
AcDbEntity
  8
Rüttler
100
AcDbLine
 10
422.4042990016912
 20
846.8720394273363
 30
0.0
 11
422.4042990016912
 21
840.8720394273364
 31
0.0
  0
LINE
  5
79F
330
1F
100
AcDbEntity
  8
Rüttler
100
AcDbLine
 10
436.340547866557
 20
842.9374817981061
 30
0.0
 11
436.0728621769847
 21
832.7149777374893
 31
0.0
  0
ARC
  5
7A0
330
1F
100
AcDbEntity
  8
Rüttler
100
AcDbCircle
 10
438.8396911789957
 20
842.8720394273364
 30
0.0
 40
2.5
100
AcDbArc
 50
90.0
 51
178.4999999999842
  0
LINE
  5
7A1
330
1F
100
AcDbEntity
  8
Rüttler
100
AcDbLine
 10
428.6158431291903
 20
826.8720394273369
 30
0.0
 11
430.0749182271317
 21
826.8720394273364
 31
0.0
  0
ARC
  5
7A2
330
1F
100
AcDbEntity
  8
Rüttler
100
AcDbCircle
 10
416.4042990016916
 20
819.9728288904157
 30
0.0
 40
2.0
100
AcDbArc
 50
0.0
 51
180.0
  0
ARC
  5
7A3
330
1F
100
AcDbEntity
  8
Rüttler
100
AcDbCircle
 10
430.0749182271317
 20
832.8720394273364
 30
0.0
 40
6.0
100
AcDbArc
 50
270.0
 51
358.4999999999841
  0
ARC
  5
7A4
330
1F
100
AcDbEntity
  8
Rüttler
100
AcDbCircle
 10
428.6158431291903
 20
832.8720394273367
 30
0.0
 40
6.0
100
AcDbArc
 50
181.5000000000157
 51
270.0
  0
ARC
  5
7A5
330
1F
100
AcDbEntity
  8
Rüttler
100
AcDbCircle
 10
443.6042990016915
 20
854.1720394273362
 30
0.0
 40
1.199999999999999
100
AcDbArc
 50
90.0
 51
180.0
  0
ARC
  5
7A6
330
1F
100
AcDbEntity
  8
Rüttler
100
AcDbCircle
 10
454.2042990016914
 20
854.1720394273362
 30
0.0
 40
1.199999999999999
100
AcDbArc
 50
0.0
 51
90.0
  0
LINE
  5
7A7
330
1F
100
AcDbEntity
  8
Rüttler
100
AcDbLine
 10
442.4042990016917
 20
854.1720394273362
 30
0.0
 11
442.4042990016917
 21
847.3720394273362
 31
0.0
  0
LINE
  5
7A8
330
1F
100
AcDbEntity
  8
Rüttler
100
AcDbLine
 10
455.4042990016917
 20
854.1720394273362
 30
0.0
 11
455.4042990016917
 21
847.3720394273362
 31
0.0
  0
LINE
  5
7A9
330
1F
100
AcDbEntity
  8
Rüttler
100
AcDbLine
 10
443.6042990016915
 20
855.3720394273362
 30
0.0
 11
454.2042990016914
 21
855.3720394273362
 31
0.0
  0
LINE
  5
7AA
330
1F
100
AcDbEntity
  8
Rüttler
100
AcDbLine
 10
441.5042990016916
 20
847.3720394273362
 30
0.0
 11
441.5042990016916
 21
845.3720394273361
 31
0.0
  0
LINE
  5
7AB
330
1F
100
AcDbEntity
  8
Rüttler
100
AcDbLine
 10
456.3042990016913
 20
847.3720394273362
 30
0.0
 11
456.3042990016913
 21
845.3720394273361
 31
0.0
  0
LINE
  5
7AC
330
1F
100
AcDbEntity
  8
Rüttler
100
AcDbLine
 10
441.5042990016916
 20
847.3720394273362
 30
0.0
 11
456.3042990016913
 21
847.3720394273362
 31
0.0
  0
LINE
  5
7AD
330
1F
100
AcDbEntity
  8
Rüttler
  6
GESTRICHELT
 62
     7
 48
2.0
370
    18
100
AcDbLine
 10
444.4042990016908
 20
842.8720394273362
 30
0.0
 11
456.4042990016912
 21
842.8720394273364
 31
0.0
  0
LINE
  5
7AE
330
1F
100
AcDbEntity
  8
Rüttler
  6
GESTRICHELT
 62
     7
 48
2.0
370
    18
100
AcDbLine
 10
441.4042990016912
 20
840.3720394273364
 30
0.0
 11
444.4042990016912
 21
840.3720394273369
 31
0.0
  0
LINE
  5
7AF
330
1F
100
AcDbEntity
  8
Rüttler
100
AcDbLine
 10
441.4042990016912
 20
845.3720394273364
 30
0.0
 11
441.4042990016912
 21
838.3720394273364
 31
0.0
  0
LINE
  5
7B0
330
1F
100
AcDbEntity
  8
ACHSEN
100
AcDbLine
 10
448.9042990016916
 20
861.8830628592945
 30
0.0
 11
448.9042990016916
 21
822.6756424487227
 31
0.0
  0
LINE
  5
7B1
330
1F
100
AcDbEntity
  8
Rüttler
100
AcDbLine
 10
441.4042990016916
 20
840.3720394273362
 30
0.0
 11
441.4042990016916
 21
845.3720394273361
 31
0.0
  0
LINE
  5
7B2
330
1F
100
AcDbEntity
  8
Rüttler
100
AcDbLine
 10
1057.805745376347
 20
827.6020459732277
 30
0.0
 11
1057.805745376347
 21
812.2149633358606
 31
0.0
  0
LINE
  5
7B3
330
1F
100
AcDbEntity
  8
Rüttler
100
AcDbLine
 10
943.9917886973924
 20
827.7067537664597
 30
0.0
 11
943.5833399377058
 21
812.1087249322542
 31
0.0
  0
CIRCLE
  5
7B6
330
1F
100
AcDbEntity
  8
Rüttler
100
AcDbCircle
 10
1000.805745376347
 20
692.6020459732277
 30
0.0
 40
132.4999999999999
  0
ARC
  5
7B7
330
1F
100
AcDbEntity
  8
Rüttler
100
AcDbCircle
 10
151.4042990016917
 20
712.8720394273364
 30
0.0
 40
500.0
100
AcDbArc
 50
345.9795592558995
 51
14.0204407441004
  0
LINE
  5
7B8
330
1F
100
AcDbEntity
  8
ACHSEN
 48
3.0
100
AcDbLine
 10
1000.805745376347
 20
838.5931191076686
 30
0.0
 11
1000.805745376347
 21
556.221492273872
 31
0.0
  0
LINE
  5
7B9
330
1F
100
AcDbEntity
  8
Schwunggewicht
  6
GESTRICHELT
 62
     7
370
    18
100
AcDbLine
 10
1056.9883172104
 20
701.917013612002
 30
0.0
 11
1045.860287335929
 21
685.2987420077445
 31
0.0
  0
LINE
  5
7BA
330
1F
100
AcDbEntity
  8
Schwunggewicht
  6
GESTRICHELT
 62
     7
370
    18
100
AcDbLine
 10
1022.69690370163
 20
697.8008138250746
 30
0.0
 11
1079.270563193919
 21
659.9176098475268
 31
0.0
  0
LINE
  5
7BB
330
1F
100
AcDbEntity
  8
Schwunggewicht
  6
GESTRICHELT
 62
     7
370
    18
100
AcDbLine
 10
1021.391519957488
 20
701.6836694456267
 30
0.0
 11
1080.21794959066
 21
662.2919515849851
 31
0.0
  0
LINE
  5
7BC
330
1F
100
AcDbEntity
  8
Schwunggewicht
  6
GESTRICHELT
 62
     7
370
    18
100
AcDbLine
 10
1061.302309727627
 20
720.0416144286029
 30
0.0
 11
1017.646887821879
 21
654.8478949282198
 31
0.0
  0
LINE
  5
7BD
330
1F
100
AcDbEntity
  8
Schwunggewicht
  6
GESTRICHELT
 62
     7
370
    18
100
AcDbLine
 10
1035.822536707008
 20
717.2936691297024
 30
0.0
 11
1072.696278473788
 21
692.6020459732277
 31
0.0
  0
ARC
  5
7BE
330
1F
100
AcDbEntity
  8
Schwunggewicht
  6
GESTRICHELT
 62
     7
370
    18
100
AcDbCircle
 10
1000.805745376347
 20
692.6020459732277
 30
0.0
 40
85.0
100
AcDbArc
 50
288.0226240530659
 51
337.385883067209
  0
LINE
  5
7C2
330
1F
100
AcDbEntity
  8
Rüttler
100
AcDbLine
 10
881.805745376347
 20
556.6020459732277
 30
0.0
 11
1119.805745376347
 21
556.6020459732277
 31
0.0
  0
LINE
  5
7C3
330
1F
100
AcDbEntity
  8
ACHSEN
 48
2.0
100
AcDbLine
 10
1000.805745376347
 20
692.6020459732277
 30
0.0
 11
1103.336228648396
 21
795.1325292452772
 31
0.0
  0
LINE
  5
7C4
330
1F
100
AcDbEntity
  8
ACHSEN
 48
3.0
100
AcDbLine
 10
846.346183635523
 20
692.6020459732277
 30
0.0
 11
1155.39879915161
 21
692.6020459732277
 31
0.0
  0
ARC
  5
7C5
330
1F
100
AcDbEntity
  8
Rüttler
100
AcDbCircle
 10
151.4042990016917
 20
253.8260245650415
 30
0.0
 40
500.0
100
AcDbArc
 50
345.9795592558995
 51
14.0204407441004
  0
ARC
  5
7C6
330
1F
100
AcDbEntity
  8
Rüttler
100
AcDbCircle
 10
621.9558370928978
 20
136.3260245650415
 30
0.0
 40
15.0
100
AcDbArc
 50
270.0
 51
345.9795592558995
  0
ARC
  5
7C7
330
1F
100
AcDbEntity
  8
Rüttler
100
AcDbCircle
 10
621.9558370928978
 20
371.3260245650415
 30
0.0
 40
15.0
100
AcDbArc
 50
14.0204407441004
 51
90.0
  0
ARC
  5
7C8
330
1F
100
AcDbEntity
  8
Rüttler
100
AcDbCircle
 10
621.9558370928982
 20
595.3720394273363
 30
0.0
 40
15.0
100
AcDbArc
 50
270.0
 51
345.9795592558995
  0
ARC
  5
7C9
330
1F
100
AcDbEntity
  8
Schwunggewicht
  6
GESTRICHELT
 62
     7
370
    18
100
AcDbCircle
 10
1000.805745376347
 20
692.6020459732277
 30
0.0
 40
85.0
100
AcDbArc
 50
180.0
 51
229.9773759469215
  0
LINE
  5
7CA
330
1F
100
AcDbEntity
  8
Rüttler
100
AcDbLine
 10
826.8656916083135
 20
618.9587152834076
 30
0.0
 11
869.656780402707
 21
673.7288113182228
 31
0.0
  0
LINE
  5
7CE
330
1F
100
AcDbEntity
  8
ACHSEN
 48
2.0
100
AcDbLine
 10
850.805745376347
 20
635.784787816466
 30
0.0
 11
850.805745376347
 21
541.9825515816235
 31
0.0
  0
LINE
  5
7CF
330
1F
100
AcDbEntity
  8
Rüttler
100
AcDbLine
 10
825.805745376347
 20
615.8804079067793
 30
0.0
 11
825.805745376347
 21
552.6020459732277
 31
0.0
  0
LINE
  5
7D0
330
1F
100
AcDbEntity
  8
Rüttler
100
AcDbLine
 10
825.805745376347
 20
552.6020459732277
 30
0.0
 11
877.8057453763469
 21
552.6020459732277
 31
0.0
  0
ARC
  5
7D1
330
1F
100
AcDbEntity
  8
Rüttler
100
AcDbCircle
 10
881.805745376347
 20
552.6020459732277
 30
0.0
 40
4.0
100
AcDbArc
 50
90.0
 51
180.0
  0
LINE
  5
7D2
330
1F
100
AcDbEntity
  8
Rüttler
100
AcDbLine
 10
826.1114975805702
 20
617.6020459732277
 30
0.0
 11
891.5754840015795
 21
617.6020459732277
 31
0.0
  0
ARC
  5
7D3
330
1F
100
AcDbEntity
  8
Rüttler
100
AcDbCircle
 10
830.8057453763469
 20
615.8804079067793
 30
0.0
 40
5.0
100
AcDbArc
 50
141.9999999999975
 51
180.0
  0
LINE
  5
7D4
330
1F
100
AcDbEntity
  8
Schwunggewicht
  6
GESTRICHELT
 62
     7
370
    18
100
AcDbLine
 10
978.2034821993532
 20
613.7785869062859
 30
0.0
 11
974.5073821572134
 21
611.7726200690777
 31
0.0
  0
LINE
  5
7D5
330
1F
100
AcDbEntity
  8
Schwunggewicht
  6
GESTRICHELT
 62
     7
370
    18
100
AcDbLine
 10
950.3215043996425
 20
627.9851641774767
 30
0.0
 11
946.1430917123159
 21
627.5098475589311
 31
0.0
  0
LINE
  5
7D6
330
1F
100
AcDbEntity
  8
Schwunggewicht
  6
GESTRICHELT
 62
     7
370
    18
100
AcDbLine
 10
950.3215043996425
 20
627.9851641774767
 30
0.0
 11
950.8711562339561
 21
623.8158787069771
 31
0.0
  0
ARC
  5
7D7
330
1F
100
AcDbEntity
  8
Schwunggewicht
  6
GESTRICHELT
 62
     7
370
    18
100
AcDbCircle
 10
1000.805745376347
 20
692.6020459732277
 30
0.0
 40
85.0
100
AcDbArc
 50
234.0226240530603
 51
251.977375946934
  0
ARC
  5
7D9
330
1F
100
AcDbEntity
  8
Schwunggewicht
  6
GESTRICHELT
 62
     7
370
    18
100
AcDbCircle
 10
1000.805745376347
 20
692.6020459732277
 30
0.0
 40
85.0
100
AcDbArc
 50
272.0226240530643
 51
283.9773759469272
  0
LINE
  5
7DA
330
1F
100
AcDbEntity
  8
Schwunggewicht
  6
GESTRICHELT
 62
     7
370
    18
100
AcDbLine
 10
1000.805745376347
 20
610.6020459732277
 30
0.0
 11
997.8057453763469
 21
607.6550036468468
 31
0.0
  0
LINE
  5
7DB
330
1F
100
AcDbEntity
  8
Schwunggewicht
  6
GESTRICHELT
 62
     7
370
    18
100
AcDbLine
 10
1000.805745376347
 20
610.6020459732277
 30
0.0
 11
1003.805745376346
 21
607.6550036468468
 31
0.0
  0
LINE
  5
7DC
330
1F
100
AcDbEntity
  8
Schwunggewicht
  6
GESTRICHELT
 62
     7
370
    18
100
AcDbLine
 10
978.2034821993532
 20
613.7785869062859
 30
0.0
 11
980.2749523328431
 21
610.1187959341758
 31
0.0
  0
ARC
  5
7DD
330
1F
100
AcDbEntity
  8
Schwunggewicht
  6
GESTRICHELT
 62
     7
370
    18
100
AcDbCircle
 10
1000.805745376347
 20
692.6020459732277
 30
0.0
 40
85.0
100
AcDbArc
 50
256.0226240530728
 51
267.9773759469357
  0
LINE
  5
7DE
330
1F
100
AcDbEntity
  8
Schwunggewicht
  6
GESTRICHELT
 62
     7
370
    18
100
AcDbLine
 10
1023.40800855334
 20
613.7785869062857
 30
0.0
 11
1021.33653841985
 21
610.1187959341755
 31
0.0
  0
LINE
  5
7DF
330
1F
100
AcDbEntity
  8
Schwunggewicht
  6
GESTRICHELT
 62
     7
370
    18
100
AcDbLine
 10
1023.40800855334
 20
613.7785869062857
 30
0.0
 11
1027.10410859548
 21
611.7726200690774
 31
0.0
  0
ARC
  5
7E1
330
1F
100
AcDbEntity
  8
Rüttler
100
AcDbCircle
 10
906.7605434785361
 20
786.6472478710386
 30
0.0
 40
27.0
100
AcDbArc
 50
38.10862063837324
 51
231.8913793616082
  0
ARC
  5
7E2
330
1F
100
AcDbEntity
  8
Rüttler
100
AcDbCircle
 10
906.7605434785361
 20
786.6472478710386
 30
0.0
 40
15.0
100
AcDbArc
 50
39.8558573934661
 51
230.1441426065241
  0
LINE
  5
7E3
330
1F
100
AcDbEntity
  8
ACHSEN
 48
2.0
100
AcDbLine
 10
1000.805745376347
 20
692.6020459732277
 30
0.0
 11
880.597592574634
 21
812.8101987749408
 31
0.0
  0
LINE
  5
7E5
330
1F
100
AcDbEntity
  8
Schwunggewicht
  6
GESTRICHELT
 62
     7
370
    18
100
AcDbLine
 10
978.5496856274042
 20
725.8385891817431
 30
0.0
 11
960.8034725644081
 21
713.955260167361
 31
0.0
  0
LINE
  5
7E6
330
1F
100
AcDbEntity
  8
Schwunggewicht
  6
GESTRICHELT
 62
     7
370
    18
100
AcDbLine
 10
1023.061805125289
 20
725.8385891817431
 30
0.0
 11
1035.822536707008
 21
717.2936691297024
 31
0.0
  0
LINE
  5
7E8
330
1F
100
AcDbEntity
  8
Schwunggewicht
  6
GESTRICHELT
 62
     7
370
    18
100
AcDbLine
 10
960.8034725644081
 20
713.955260167361
 30
0.0
 11
928.9152122789053
 21
692.6020459732277
 31
0.0
  0
LWPOLYLINE
  5
7E9
330
1F
100
AcDbEntity
  8
Schwunggewicht
  6
GESTRICHELT
 62
     7
370
    18
100
AcDbPolyline
 90
        2
 70
     0
 43
0.0
 10
928.9152122789053
 20
692.6020459732277
 10
915.805745376347
 20
692.6020459732277
  0
LINE
  5
7EA
330
1F
100
AcDbEntity
  8
Schwunggewicht
  6
GESTRICHELT
 62
     7
370
    18
100
AcDbLine
 10
1034.082863848959
 20
690.176476728757
 30
0.0
 11
1022.120231733902
 21
672.3118347541802
 31
0.0
  0
LINE
  5
7EB
330
1F
100
AcDbEntity
  8
Schwunggewicht
  6
GESTRICHELT
 62
     7
370
    18
100
AcDbLine
 10
1034.357375935448
 20
688.7891616548206
 30
0.0
 11
1014.605122908262
 21
659.2917295572634
 31
0.0
  0
LINE
  5
7EC
330
1F
100
AcDbEntity
  8
Schwunggewicht
  6
GESTRICHELT
 62
     7
370
    18
100
AcDbLine
 10
1042.666511737577
 20
683.225146717585
 30
0.0
 11
1022.91425871039
 21
653.7277146200277
 31
0.0
  0
LINE
  5
7ED
330
1F
100
AcDbEntity
  8
Schwunggewicht
  6
GESTRICHELT
 62
     7
370
    18
100
AcDbLine
 10
1044.053826811513
 20
683.4996588040742
 30
0.0
 11
1032.091194696457
 21
665.6350168294973
 31
0.0
  0
CIRCLE
  5
7EE
330
1F
100
AcDbEntity
  8
Schwunggewicht
  6
GESTRICHELT
 62
     7
370
    18
100
AcDbCircle
 10
1000.805745376347
 20
692.6020459732277
 30
0.0
 40
18.0
  0
ARC
  5
7EF
330
1F
100
AcDbEntity
  8
Schwunggewicht
  6
GESTRICHELT
 62
     7
370
    18
100
AcDbCircle
 10
1000.805745376347
 20
692.6020459732277
 30
0.0
 40
22.5
100
AcDbArc
 50
23.80516092843453
 51
13.35927139545438
  0
LINE
  5
7F0
330
1F
100
AcDbEntity
  8
Schwunggewicht
  6
GESTRICHELT
 62
     7
370
    18
100
AcDbLine
 10
1022.120231733902
 20
672.3118347541802
 30
0.0
 11
1032.091194696457
 21
665.6350168294973
 31
0.0
  0
LWPOLYLINE
  5
7F1
330
1F
100
AcDbEntity
  8
Schwunggewicht
  6
GESTRICHELT
 62
     7
370
    18
100
AcDbPolyline
 90
        6
 70
     1
 43
0.0
 10
994.1084822537471
 20
704.2020459732282
 10
987.411219131147
 20
692.6020459732277
 10
994.1084822537471
 20
681.002045973228
 10
1007.503008498946
 20
681.002045973228
 10
1014.200271621545
 20
692.6020459732277
 10
1007.503008498946
 20
704.2020459732282
  0
CIRCLE
  5
7F2
330
1F
100
AcDbEntity
  8
Schwunggewicht
  6
GESTRICHELT
 62
     7
370
    18
100
AcDbCircle
 10
1000.805745376347
 20
692.6020459732277
 30
0.0
 40
11.59999999999999
  0
LINE
  5
7F3
330
1F
100
AcDbEntity
  8
Schwunggewicht
  6
GESTRICHELT
 62
     7
370
    18
100
AcDbLine
 10
1046.186440667633
 20
709.1502330304085
 30
0.0
 11
1035.058410793161
 21
692.5319614261509
 31
0.0
  0
ARC
  5
7F5
330
1F
100
AcDbEntity
  8
Schwunggewicht
  6
GESTRICHELT
 62
     7
370
    18
100
AcDbCircle
 10
1000.805745376347
 20
692.6020459732277
 30
0.0
 40
40.0
100
AcDbArc
 50
56.19269946152238
 51
94.22886632781332
  0
ARC
  5
7F7
330
1F
100
AcDbEntity
  8
Schwunggewicht
  6
GESTRICHELT
 62
     7
370
    18
100
AcDbCircle
 10
1000.805745376347
 20
692.6020459732277
 30
0.0
 40
40.0
100
AcDbArc
 50
94.22886632781332
 51
123.8073005384776
  0
LINE
  5
7F9
330
1F
100
AcDbEntity
  8
Rüttler
100
AcDbLine
 10
1174.74579914438
 20
618.958715283408
 30
0.0
 11
1131.954710349986
 21
673.7288113182228
 31
0.0
  0
LINE
  5
7FA
330
1F
100
AcDbEntity
  8
ACHSEN
 48
2.0
100
AcDbLine
 10
1150.805745376347
 20
636.2624813358113
 30
0.0
 11
1150.805745376347
 21
541.9825515816235
 31
0.0
  0
LINE
  5
7FB
330
1F
100
AcDbEntity
  8
Rüttler
100
AcDbLine
 10
1110.036006751114
 20
617.6020459732277
 30
0.0
 11
1175.499993172123
 21
617.6020459732277
 31
0.0
  0
LINE
  5
7FC
330
1F
100
AcDbEntity
  8
Rüttler
100
AcDbLine
 10
1123.805745376347
 20
552.6020459732277
 30
0.0
 11
1175.805745376347
 21
552.6020459732277
 31
0.0
  0
ARC
  5
7FD
330
1F
100
AcDbEntity
  8
Rüttler
100
AcDbCircle
 10
1119.805745376347
 20
552.6020459732277
 30
0.0
 40
4.0
100
AcDbArc
 50
0.0
 51
90.0
  0
LINE
  5
7FE
330
1F
100
AcDbEntity
  8
Rüttler
100
AcDbLine
 10
1175.805745376347
 20
615.8804079067793
 30
0.0
 11
1175.805745376347
 21
552.6020459732277
 31
0.0
  0
ARC
  5
7FF
330
1F
100
AcDbEntity
  8
Rüttler
100
AcDbCircle
 10
1170.805745376347
 20
615.8804079067793
 30
0.0
 40
5.0
100
AcDbArc
 50
0.0
 51
38.00000000000246
  0
ARC
  5
800
330
1F
100
AcDbEntity
  8
Schwunggewicht
  6
GESTRICHELT
 62
     7
370
    18
100
AcDbCircle
 10
1000.805745376347
 20
692.6020459732277
 30
0.0
 40
85.0
100
AcDbArc
 50
339.1091168090212
 51
0.0
  0
LINE
  5
801
330
1F
100
AcDbEntity
  8
Schwunggewicht
  6
GESTRICHELT
 62
     7
370
    18
100
AcDbLine
 10
1072.696278473788
 20
692.6020459732277
 30
0.0
 11
1085.805745376346
 21
692.6020459732277
 31
0.0
  0
LINE
  5
802
330
1F
100
AcDbEntity
  8
Rüttler
100
AcDbLine
 10
1174.634307974801
 20
807.6020459732277
 30
0.0
 11
1113.144626164397
 21
807.6020459732277
 31
0.0
  0
LINE
  5
803
330
1F
100
AcDbEntity
  8
Rüttler
100
AcDbLine
 10
1177.588086292235
 20
793.6020459732277
 30
0.0
 11
1113.684078325074
 21
793.6020459732277
 31
0.0
  0
LINE
  5
804
330
1F
100
AcDbEntity
  8
ACHSEN
 48
2.0
100
AcDbLine
 10
1063.851707654318
 20
800.6020459732277
 30
0.0
 11
1182.226547427261
 21
800.6020459732277
 31
0.0
  0
LINE
  5
807
330
1F
100
AcDbEntity
  8
Rüttler
100
AcDbLine
 10
1091.635562685449
 20
789.0706641223189
 30
0.0
 11
1112.958667022613
 21
789.520806995318
 31
0.0
  0
LINE
  5
808
330
1F
100
AcDbEntity
  8
Rüttler
100
AcDbLine
 10
1065.805745376347
 20
813.1020459732277
 30
0.0
 11
1111.955002802994
 21
811.7209223593734
 31
0.0
  0
ARC
  5
809
330
1F
100
AcDbEntity
  8
Rüttler
100
AcDbCircle
 10
1059.805745376346
 20
813.6020459732279
 30
0.0
 40
2.0
100
AcDbArc
 50
90.0
 51
180.0
  0
ARC
  5
80A
330
1F
100
AcDbEntity
  8
Rüttler
100
AcDbCircle
 10
1063.805745376346
 20
813.6020459732279
 30
0.0
 40
2.0
100
AcDbArc
 50
0.0
 51
90.0
  0
LINE
  5
80B
330
1F
100
AcDbEntity
  8
Rüttler
100
AcDbLine
 10
1057.805745376347
 20
813.6020459732279
 30
0.0
 11
1057.805745376347
 21
812.2149633358606
 31
0.0
  0
LINE
  5
80C
330
1F
100
AcDbEntity
  8
Rüttler
100
AcDbLine
 10
1065.805745376347
 20
813.6020459732279
 30
0.0
 11
1065.805745376347
 21
808.0630783607828
 31
0.0
  0
LINE
  5
80D
330
1F
100
AcDbEntity
  8
Rüttler
100
AcDbLine
 10
1063.805745376346
 20
815.6020459732277
 30
0.0
 11
1059.805745376346
 21
815.6020459732277
 31
0.0
  0
LINE
  5
80E
330
1F
100
AcDbEntity
  8
Rüttler
100
AcDbLine
 10
1111.955002802994
 20
811.2177526490929
 30
0.0
 11
1112.240340575481
 21
810.0768568134501
 31
0.0
  0
LINE
  5
80F
330
1F
100
AcDbEntity
  8
Rüttler
100
AcDbLine
 10
1112.240340575481
 20
810.0768568134501
 30
0.0
 11
1112.811014288076
 21
808.9359609778073
 31
0.0
  0
LINE
  5
810
330
1F
100
AcDbEntity
  8
Rüttler
100
AcDbLine
 10
1112.811014288076
 20
808.9359609778073
 30
0.0
 11
1113.096352060562
 21
807.7950651421645
 31
0.0
  0
LINE
  5
811
330
1F
100
AcDbEntity
  8
Rüttler
100
AcDbLine
 10
1113.096352060562
 20
807.7950651421645
 30
0.0
 11
1113.381689833048
 21
806.6541706389827
 31
0.0
  0
LINE
  5
812
330
1F
100
AcDbEntity
  8
Rüttler
100
AcDbLine
 10
1113.381689833048
 20
806.6541706389827
 30
0.0
 11
1113.096352060562
 21
805.5132748033399
 31
0.0
  0
LINE
  5
813
330
1F
100
AcDbEntity
  8
Rüttler
100
AcDbLine
 10
1111.955002802994
 20
811.7209223593734
 30
0.0
 11
1111.955002802994
 21
811.2177526490929
 31
0.0
  0
LINE
  5
814
330
1F
100
AcDbEntity
  8
Rüttler
100
AcDbLine
 10
1112.811014288076
 20
804.0871550087866
 30
0.0
 11
1112.525676515589
 21
802.9462591731441
 31
0.0
  0
LINE
  5
815
330
1F
100
AcDbEntity
  8
Rüttler
100
AcDbLine
 10
1112.525676515589
 20
802.9462591731441
 30
0.0
 11
1112.525676515589
 21
801.8053633375014
 31
0.0
  0
LINE
  5
816
330
1F
100
AcDbEntity
  8
Rüttler
100
AcDbLine
 10
1112.525676515589
 20
801.8053633375014
 30
0.0
 11
1112.811014288076
 21
800.6644675018586
 31
0.0
  0
LINE
  5
817
330
1F
100
AcDbEntity
  8
Rüttler
100
AcDbLine
 10
1112.811014288076
 20
800.6644675018586
 30
0.0
 11
1112.811014288076
 21
799.5235716662157
 31
0.0
  0
LINE
  5
818
330
1F
100
AcDbEntity
  8
Rüttler
100
AcDbLine
 10
1112.811014288076
 20
799.5235716662157
 30
0.0
 11
1113.381689833048
 21
798.3826758305728
 31
0.0
  0
LINE
  5
819
330
1F
100
AcDbEntity
  8
Rüttler
100
AcDbLine
 10
1113.381689833048
 20
798.3826758305728
 30
0.0
 11
1113.667027605534
 21
797.2417799949305
 31
0.0
  0
LINE
  5
81A
330
1F
100
AcDbEntity
  8
Rüttler
100
AcDbLine
 10
1113.667027605534
 20
797.2417799949305
 30
0.0
 11
1113.952363545643
 21
795.8156615328382
 31
0.0
  0
LINE
  5
81B
330
1F
100
AcDbEntity
  8
Rüttler
100
AcDbLine
 10
1113.952363545643
 20
795.8156615328382
 30
0.0
 11
1113.952363545643
 21
794.6747656971954
 31
0.0
  0
LINE
  5
81C
330
1F
100
AcDbEntity
  8
Rüttler
100
AcDbLine
 10
1113.952363545643
 20
794.6747656971954
 30
0.0
 11
1113.667027605534
 21
793.5338698615526
 31
0.0
  0
LINE
  5
81D
330
1F
100
AcDbEntity
  8
Rüttler
100
AcDbLine
 10
1113.667027605534
 20
793.5338698615526
 30
0.0
 11
1113.096352060562
 21
792.3929740259097
 31
0.0
  0
LINE
  5
81E
330
1F
100
AcDbEntity
  8
Rüttler
100
AcDbLine
 10
1113.096352060562
 20
792.3929740259097
 30
0.0
 11
1112.811014288076
 21
791.2520781902668
 31
0.0
  0
LINE
  5
81F
330
1F
100
AcDbEntity
  8
Rüttler
100
AcDbLine
 10
1112.811014288076
 20
791.2520781902668
 30
0.0
 11
1112.811014288076
 21
790.1111823546245
 31
0.0
  0
LINE
  5
820
330
1F
100
AcDbEntity
  8
Rüttler
100
AcDbLine
 10
1112.811014288076
 20
790.1111823546245
 30
0.0
 11
1112.958667022613
 21
789.520806995318
 31
0.0
  0
LINE
  5
821
330
1F
100
AcDbEntity
  8
Rüttler
100
AcDbLine
 10
1113.096352060562
 20
805.5132748033399
 30
0.0
 11
1112.811014288076
 21
804.0871550087866
 31
0.0
  0
LINE
  5
822
330
1F
100
AcDbEntity
  8
Rüttler
100
AcDbLine
 10
1174.634307974801
 20
807.6020459732277
 30
0.0
 11
1174.680428618043
 21
807.5098411832538
 31
0.0
  0
LINE
  5
823
330
1F
100
AcDbEntity
  8
Rüttler
100
AcDbLine
 10
1174.680428618043
 20
807.5098411832538
 30
0.0
 11
1175.251104163016
 21
806.3689466800722
 31
0.0
  0
LINE
  5
824
330
1F
100
AcDbEntity
  8
Rüttler
100
AcDbLine
 10
1175.251104163016
 20
806.3689466800722
 30
0.0
 11
1175.821777875611
 21
805.2280508444294
 31
0.0
  0
LINE
  5
825
330
1F
100
AcDbEntity
  8
Rüttler
100
AcDbLine
 10
1176.107115648098
 20
804.0871550087866
 30
0.0
 11
1175.821777875611
 21
802.9462591731441
 31
0.0
  0
LINE
  5
826
330
1F
100
AcDbEntity
  8
Rüttler
100
AcDbLine
 10
1175.821777875611
 20
802.9462591731441
 30
0.0
 11
1175.536441935502
 21
801.8053633375014
 31
0.0
  0
LINE
  5
827
330
1F
100
AcDbEntity
  8
Rüttler
100
AcDbLine
 10
1175.536441935502
 20
801.8053633375014
 30
0.0
 11
1175.536441935502
 21
798.3826758305728
 31
0.0
  0
LINE
  5
828
330
1F
100
AcDbEntity
  8
Rüttler
100
AcDbLine
 10
1175.536441935502
 20
798.3826758305728
 30
0.0
 11
1176.107115648098
 21
797.2417799949305
 31
0.0
  0
LINE
  5
829
330
1F
100
AcDbEntity
  8
Rüttler
100
AcDbLine
 10
1176.107115648098
 20
797.2417799949305
 30
0.0
 11
1176.963128965555
 21
796.1008841592877
 31
0.0
  0
LINE
  5
82A
330
1F
100
AcDbEntity
  8
Rüttler
100
AcDbLine
 10
1176.963128965555
 20
796.1008841592877
 30
0.0
 11
1177.248464905664
 21
794.959989656106
 31
0.0
  0
LINE
  5
82B
330
1F
100
AcDbEntity
  8
Rüttler
100
AcDbLine
 10
1177.248464905664
 20
794.959989656106
 30
0.0
 11
1177.588086292235
 21
793.6020459732277
 31
0.0
  0
LINE
  5
82C
330
1F
100
AcDbEntity
  8
Rüttler
100
AcDbLine
 10
1175.821777875611
 20
805.2280508444294
 30
0.0
 11
1176.107115648098
 21
804.0871550087866
 31
0.0
  0
ARC
  5
82D
330
1F
100
AcDbEntity
  8
Rüttler
100
AcDbCircle
 10
1053.805745376346
 20
827.6020459732277
 30
0.0
 40
4.0
100
AcDbArc
 50
0.0
 51
90.0
  0
LINE
  5
82E
330
1F
100
AcDbEntity
  8
Rüttler
100
AcDbLine
 10
1031.058844391159
 20
821.6020459732279
 30
0.0
 11
1057.805745376347
 21
821.6020459732279
 31
0.0
  0
LINE
  5
82F
330
1F
100
AcDbEntity
  8
Rüttler
100
AcDbLine
 10
1035.043882007887
 20
820.6020459732279
 30
0.0
 11
1057.805745376347
 21
820.6020459732279
 31
0.0
  0
ARC
  5
830
330
1F
100
AcDbEntity
  8
Rüttler
100
AcDbCircle
 10
621.9558370928982
 20
830.3720394273362
 30
0.0
 40
15.0
100
AcDbArc
 50
14.0204407441004
 51
90.0
  0
LINE
  5
831
330
1F
100
AcDbEntity
  8
Rüttler
100
AcDbLine
 10
947.9904179972943
 20
831.6020459732277
 30
0.0
 11
1053.805745376346
 21
831.6020459732277
 31
0.0
  0
ARC
  5
832
330
1F
100
AcDbEntity
  8
Rüttler
100
AcDbCircle
 10
947.9904179972943
 20
827.6020459732277
 30
0.0
 40
4.0
100
AcDbArc
 50
90.0
 51
178.4999999999973
  0
LINE
  5
833
330
1F
100
AcDbEntity
  8
Rüttler
100
AcDbLine
 10
943.805745376347
 20
820.6020459732279
 30
0.0
 11
966.5676087448066
 21
820.6020459732279
 31
0.0
  0
LINE
  5
834
330
1F
100
AcDbEntity
  8
Rüttler
100
AcDbLine
 10
943.805745376347
 20
821.6020459732279
 30
0.0
 11
970.5526463615349
 21
821.6020459732279
 31
0.0
  0
LINE
  5
AAE
330
1F
100
AcDbEntity
  8
Rüttler
  6
GESTRICHELT
 62
     7
 48
2.0
370
    18
100
AcDbLine
 10
456.4042990016912
 20
383.8260245650415
 30
0.0
 11
456.4042990016917
 21
123.8260245650415
 31
0.0
  0
LINE
  5
AAF
330
1F
100
AcDbEntity
  8
Rüttler
  6
GESTRICHELT
 62
     7
 48
2.0
370
    18
100
AcDbLine
 10
444.4042990016908
 20
383.8260245650412
 30
0.0
 11
444.4042990016916
 21
123.8260245650415
 31
0.0
  0
LINE
  5
AB0
330
1F
100
AcDbEntity
  8
Rüttler
  6
GESTRICHELT
 62
     7
 48
2.0
370
    18
100
AcDbLine
 10
444.4042990016908
 20
383.8260245650412
 30
0.0
 11
456.4042990016912
 21
383.8260245650415
 31
0.0
  0
LINE
  5
AB1
330
1F
100
AcDbEntity
  8
Rüttler
  6
GESTRICHELT
 62
     7
 48
2.0
370
    18
100
AcDbLine
 10
441.4042990016912
 20
381.3260245650415
 30
0.0
 11
444.4042990016912
 21
381.3260245650419
 31
0.0
  0
LINE
  5
AB2
330
1F
100
AcDbEntity
  8
Rüttler
  6
GESTRICHELT
 62
     7
 48
2.0
370
    18
100
AcDbLine
 10
444.4042990016916
 20
123.8260245650415
 30
0.0
 11
456.4042990016917
 21
123.8260245650415
 31
0.0
  0
LINE
  5
AB3
330
1F
100
AcDbEntity
  8
Rüttler
  6
GESTRICHELT
 62
     7
 48
2.0
370
    18
100
AcDbLine
 10
441.4042990016916
 20
126.3260245650415
 30
0.0
 11
444.4042990016916
 21
126.3260245650415
 31
0.0
  0
LINE
  5
AB4
330
1F
100
AcDbEntity
  8
Rüttler
  6
GESTRICHELT
 62
     7
 48
2.0
370
    15
100
AcDbLine
 10
214.4042990016917
 20
383.8260245650415
 30
0.0
 11
226.4042990016912
 21
383.8260245650412
 31
0.0
  0
LINE
  5
AB5
330
1F
100
AcDbEntity
  8
Rüttler
  6
GESTRICHELT
 62
     7
 48
2.0
370
    18
100
AcDbLine
 10
226.4042990016912
 20
383.8260245650412
 30
0.0
 11
226.4042990016917
 21
123.8260245650415
 31
0.0
  0
LINE
  5
AB6
330
1F
100
AcDbEntity
  8
Rüttler
  6
GESTRICHELT
 62
     7
 48
2.0
370
    18
100
AcDbLine
 10
214.4042990016917
 20
383.8260245650415
 30
0.0
 11
214.4042990016917
 21
123.8260245650415
 31
0.0
  0
LINE
  5
AB7
330
1F
100
AcDbEntity
  8
Rüttler
  6
GESTRICHELT
 62
     7
 48
2.0
370
    15
100
AcDbLine
 10
226.4042990016917
 20
381.3260245650415
 30
0.0
 11
229.4042990016917
 21
381.3260245650415
 31
0.0
  0
LINE
  5
AB8
330
1F
100
AcDbEntity
  8
Rüttler
  6
GESTRICHELT
 62
     7
 48
2.0
370
    18
100
AcDbLine
 10
214.4042990016917
 20
123.8260245650415
 30
0.0
 11
226.4042990016917
 21
123.8260245650415
 31
0.0
  0
LINE
  5
AB9
330
1F
100
AcDbEntity
  8
Rüttler
  6
GESTRICHELT
 62
     7
 48
2.0
370
    18
100
AcDbLine
 10
226.4042990016917
 20
126.3260245650415
 30
0.0
 11
229.4042990016917
 21
126.3260245650415
 31
0.0
  0
LINE
  5
ABB
330
1F
100
AcDbEntity
  8
Rüttler
100
AcDbLine
 10
307.4042990016916
 20
424.8260245650414
 30
0.0
 11
363.4042990016916
 21
424.8260245650414
 31
0.0
  0
LINE
  5
ABC
330
1F
100
AcDbEntity
  8
Rüttler
100
AcDbLine
 10
267.9042990016916
 20
428.8260245650414
 30
0.0
 11
303.4042990016917
 21
428.8260245650414
 31
0.0
  0
ARC
  5
ABD
330
1F
100
AcDbEntity
  8
Rüttler
100
AcDbCircle
 10
298.4042990016916
 20
423.8260245650415
 30
0.0
 40
3.0
100
AcDbArc
 50
0.0
 51
69.67079773039512
  0
ARC
  5
ABE
330
1F
100
AcDbEntity
  8
Rüttler
100
AcDbCircle
 10
314.4042990016917
 20
420.320484801303
 30
0.0
 40
3.0
100
AcDbArc
 50
111.6182220907276
 51
180.0
  0
ARC
  5
ABF
330
1F
100
AcDbEntity
  8
Rüttler
100
AcDbCircle
 10
303.4042990016917
 20
426.8260245650415
 30
0.0
 40
2.0
100
AcDbArc
 50
0.0
 51
90.00000000000001
  0
ARC
  5
AC0
330
1F
100
AcDbEntity
  8
Rüttler
100
AcDbCircle
 10
307.4042990016916
 20
426.8260245650415
 30
0.0
 40
2.0
100
AcDbArc
 50
180.0
 51
270.0
  0
LINE
  5
AC1
330
1F
100
AcDbEntity
  8
Rüttler
100
AcDbLine
 10
305.4042990016917
 20
426.8260245650415
 30
0.0
 11
305.4042990016917
 21
426.8260245650415
 31
0.0
  0
ARC
  5
AC2
330
1F
100
AcDbEntity
  8
Rüttler
100
AcDbCircle
 10
356.4042990016917
 20
420.320484801303
 30
0.0
 40
3.0
100
AcDbArc
 50
0.0
 51
68.3817779092724
  0
LINE
  5
AC3
330
1F
100
AcDbEntity
  8
Rüttler
100
AcDbLine
 10
367.4042990016903
 20
428.8260245650414
 30
0.0
 11
402.9042990016916
 21
428.8260245650414
 31
0.0
  0
ARC
  5
AC4
330
1F
100
AcDbEntity
  8
Rüttler
100
AcDbCircle
 10
367.4042990016903
 20
426.8260245650415
 30
0.0
 40
2.0
100
AcDbArc
 50
90.00000000000001
 51
180.0
  0
ARC
  5
AC5
330
1F
100
AcDbEntity
  8
Rüttler
100
AcDbCircle
 10
363.4042990016916
 20
426.8260245650415
 30
0.0
 40
2.0
100
AcDbArc
 50
270.0
 51
0.0
  0
ARC
  5
AC6
330
1F
100
AcDbEntity
  8
Rüttler
100
AcDbCircle
 10
372.4042990016917
 20
423.8260245650415
 30
0.0
 40
3.0
100
AcDbArc
 50
110.3292022696049
 51
180.0
  0
LINE
  5
BA8
330
1F
100
AcDbEntity
  8
0
370
    18
100
AcDbLine
 10
351.5151211103073
 20
606.603910923332
 30
0.0
 11
352.507703337237
 21
610.3082782249234
 31
0.0
  0
ARC
  5
BA9
330
1F
100
AcDbEntity
  8
0
370
    18
100
AcDbCircle
 10
360.3298134176428
 20
606.4845162542374
 30
0.0
 40
8.224997010073714
100
AcDbArc
 50
157.3874044007896
 51
171.0200151799442
  0
ARC
  5
BAA
330
1F
100
AcDbEntity
  8
0
370
    18
100
AcDbCircle
 10
353.1526399977236
 20
607.6186988890007
 30
0.0
 40
0.9587608077068694
100
AcDbArc
 50
171.0200151799442
 51
262.0635437036931
  0
LINE
  5
BAB
330
1F
100
AcDbEntity
  8
0
370
    18
100
AcDbLine
 10
352.507703337237
 20
610.3082782249234
 30
0.0
 11
351.192332197679
 21
610.3082782249234
 31
0.0
  0
LWPOLYLINE
  5
BAC
330
1F
100
AcDbEntity
  8
0
370
    18
100
AcDbPolyline
 90
        4
 70
     1
 43
0.0
 10
332.3773514843249
 20
606.0154269962436
 10
331.7818021481669
 20
603.7928066152886
 10
354.8328080662693
 20
603.7928066152886
 10
355.4283574024273
 20
606.0154269962436
  0
LWPOLYLINE
  5
BAD
330
1F
100
AcDbEntity
  8
0
  6
Continuous
100
AcDbPolyline
 90
        4
 70
     1
 43
0.0
 10
310.9256067960603
 20
601.2926397080141
 10
359.8829912073231
 20
601.2926397080141
 10
359.8829912073231
 20
618.2798645384669
 10
310.9256067960603
 20
618.2798645384669
  0
LINE
  5
BAE
330
1F
100
AcDbEntity
  8
0
370
    18
100
AcDbLine
 10
326.0035917991388
 20
606.603910923332
 30
0.0
 11
324.2745474679994
 21
606.603910923332
 31
0.0
  0
ARC
  5
BAF
330
1F
100
AcDbEntity
  8
0
370
    18
100
AcDbCircle
 10
324.4181171213684
 20
607.783324119066
 30
0.0
 40
0.4602051876992975
100
AcDbArc
 50
270.0
 51
334.2263645027608
  0
ARC
  5
BB0
330
1F
100
AcDbEntity
  8
0
370
    18
100
AcDbCircle
 10
325.3956958684219
 20
595.8411821401236
 30
0.0
 40
14.46807838019826
100
AcDbArc
 50
83.51735091136838
 51
95.92334440423626
  0
ARC
  5
BB1
330
1F
100
AcDbEntity
  8
0
370
    18
100
AcDbCircle
 10
324.7878286649946
 20
608.8854291271113
 30
0.0
 40
0.4602051876992975
100
AcDbArc
 50
93.02614479233037
 51
158.0969939507876
  0
LINE
  5
BB2
330
1F
100
AcDbEntity
  8
0
370
    18
100
AcDbLine
 10
325.6916149580573
 20
614.681519882271
 30
0.0
 11
324.4304291107908
 21
614.681519882271
 31
0.0
  0
LINE
  5
BB3
330
1F
100
AcDbEntity
  8
0
370
    18
100
AcDbLine
 10
323.4378468838611
 20
610.9771525806794
 30
0.0
 11
324.7404087255734
 21
610.9771525806794
 31
0.0
  0
LINE
  5
BB4
330
1F
100
AcDbEntity
  8
0
370
    18
100
AcDbLine
 10
320.3400694895151
 20
610.3082782249234
 30
0.0
 11
321.0496595042639
 21
608.5561189933919
 31
0.0
  0
LINE
  5
BB5
330
1F
100
AcDbEntity
  8
0
370
    18
100
AcDbLine
 10
320.5678933276865
 20
606.603910923332
 30
0.0
 11
321.8419380679914
 21
606.603910923332
 31
0.0
  0
LINE
  5
BB6
330
1F
100
AcDbEntity
  8
0
370
    18
100
AcDbLine
 10
321.0184616207641
 20
612.6921742240879
 30
0.0
 11
320.5589229564109
 21
610.9771525806794
 31
0.0
  0
LINE
  5
BB7
330
1F
100
AcDbEntity
  8
0
370
    18
100
AcDbLine
 10
321.5515051833406
 20
614.681519882271
 30
0.0
 11
320.2092400525514
 21
614.681519882271
 31
0.0
  0
LINE
  5
BB8
330
1F
100
AcDbEntity
  8
0
370
    18
100
AcDbLine
 10
319.0788836422487
 20
610.3082782249234
 30
0.0
 11
318.086301415319
 21
606.603910923332
 31
0.0
  0
LINE
  5
BB9
330
1F
100
AcDbEntity
  8
0
370
    18
100
AcDbLine
 10
317.5552955450692
 20
606.603910923332
 30
0.0
 11
317.8280378453717
 21
607.6217990454292
 31
0.0
  0
LINE
  5
BBA
330
1F
100
AcDbEntity
  8
0
370
    18
100
AcDbLine
 10
319.8607580212372
 20
608.3650461591728
 30
0.0
 11
319.3888632570313
 21
606.603910923332
 31
0.0
  0
LINE
  5
BBB
330
1F
100
AcDbEntity
  8
0
370
    18
100
AcDbLine
 10
318.086301415319
 20
606.603910923332
 30
0.0
 11
319.3888632570313
 21
606.603910923332
 31
0.0
  0
LINE
  5
BBC
330
1F
100
AcDbEntity
  8
0
370
    18
100
AcDbLine
 10
317.9523494689909
 20
608.0857363407499
 30
0.0
 11
318.1507435239016
 21
608.8261530335953
 31
0.0
  0
LINE
  5
BBD
330
1F
100
AcDbEntity
  8
0
370
    18
100
AcDbLine
 10
320.5678933276865
 20
606.603910923332
 30
0.0
 11
319.8607580212372
 21
608.3650461591728
 31
0.0
  0
LINE
  5
BBE
330
1F
100
AcDbEntity
  8
0
370
    18
100
AcDbLine
 10
318.2747905986505
 20
609.2891030190908
 30
0.0
 11
318.5478777719989
 21
610.3082782249234
 31
0.0
  0
LINE
  5
BBF
330
1F
100
AcDbEntity
  8
0
370
    18
100
AcDbLine
 10
318.2747905986505
 20
609.2891030190908
 30
0.0
 11
315.7717365312472
 21
609.2891030190908
 31
0.0
  0
LINE
  5
BC0
330
1F
100
AcDbEntity
  8
0
370
    18
100
AcDbLine
 10
320.2092400525514
 20
614.681519882271
 30
0.0
 11
319.2166578256217
 21
610.9771525806794
 31
0.0
  0
LINE
  5
BC1
330
1F
100
AcDbEntity
  8
0
370
    18
100
AcDbLine
 10
320.3400694895151
 20
610.3082782249234
 30
0.0
 11
319.0788836422487
 21
610.3082782249234
 31
0.0
  0
LINE
  5
BC2
330
1F
100
AcDbEntity
  8
0
370
    18
100
AcDbLine
 10
319.2166578256217
 20
610.9771525806794
 30
0.0
 11
320.5589229564109
 21
610.9771525806794
 31
0.0
  0
LINE
  5
BC3
330
1F
100
AcDbEntity
  8
0
370
    18
100
AcDbLine
 10
321.8419380679914
 20
606.603910923332
 30
0.0
 11
322.8345202949211
 21
610.3082782249234
 31
0.0
  0
LINE
  5
BC4
330
1F
100
AcDbEntity
  8
0
370
    18
100
AcDbLine
 10
321.0496595042639
 20
608.5561189933919
 30
0.0
 11
321.5191491553631
 21
610.3082782249234
 31
0.0
  0
ARC
  5
BC5
330
1F
100
AcDbEntity
  8
0
370
    18
100
AcDbCircle
 10
330.7092134028242
 20
606.4845162542374
 30
0.0
 40
8.224997010073714
100
AcDbArc
 50
157.3874044007896
 51
171.0200151799442
  0
ARC
  5
BC6
330
1F
100
AcDbEntity
  8
0
370
    18
100
AcDbCircle
 10
330.1332476050964
 20
606.7362587130223
 30
0.0
 40
6.22149298766157
100
AcDbArc
 50
158.0969939507876
 51
170.4856136403528
  0
ARC
  5
BC7
330
1F
100
AcDbEntity
  8
0
370
    18
100
AcDbCircle
 10
324.3826484862809
 20
613.7201847880164
 30
0.0
 40
7.119253077153191
100
AcDbArc
 50
262.0635437036931
 51
271.6576250419802
  0
LINE
  5
BC8
330
1F
100
AcDbEntity
  8
0
370
    18
100
AcDbLine
 10
324.3764268995326
 20
607.3231189313669
 30
0.0
 11
324.4181171213684
 21
607.3231189313669
 31
0.0
  0
ARC
  5
BC9
330
1F
100
AcDbEntity
  8
0
370
    18
100
AcDbCircle
 10
324.3764268995326
 20
607.7066232544498
 30
0.0
 40
0.3835043230827479
100
AcDbArc
 50
171.2985646492412
 51
270.0
  0
ARC
  5
BCA
330
1F
100
AcDbEntity
  8
0
370
    18
100
AcDbCircle
 10
323.532039982905
 20
607.6186988890007
 30
0.0
 40
0.9587608077068694
100
AcDbArc
 50
171.0200151799442
 51
262.0635437036931
  0
LINE
  5
BCB
330
1F
100
AcDbEntity
  8
0
370
    18
100
AcDbLine
 10
322.4497969735337
 20
614.681519882271
 30
0.0
 11
321.1537057820895
 21
613.1969123055819
 31
0.0
  0
LINE
  5
BCC
330
1F
100
AcDbEntity
  8
0
370
    18
100
AcDbLine
 10
321.5515051833406
 20
614.681519882271
 30
0.0
 11
321.1537057820895
 21
613.1969123055819
 31
0.0
  0
LINE
  5
BCD
330
1F
100
AcDbEntity
  8
0
370
    18
100
AcDbLine
 10
324.0442832833785
 20
614.681519882271
 30
0.0
 11
322.3852852644984
 21
612.7812207020893
 31
0.0
  0
LINE
  5
BCE
330
1F
100
AcDbEntity
  8
0
370
    18
100
AcDbLine
 10
324.0442832833785
 20
614.681519882271
 30
0.0
 11
322.4497969735337
 21
614.681519882271
 31
0.0
  0
LINE
  5
BCF
330
1F
100
AcDbEntity
  8
0
370
    18
100
AcDbLine
 10
322.834520294922
 20
610.3082782249234
 30
0.0
 11
321.5191491553631
 21
610.3082782249234
 31
0.0
  0
LINE
  5
BD0
330
1F
100
AcDbEntity
  8
0
370
    18
100
AcDbLine
 10
321.6111006731551
 20
610.9771525806794
 30
0.0
 11
323.0517010564488
 21
610.9771525806794
 31
0.0
  0
ARC
  5
BD1
330
1F
100
AcDbEntity
  8
0
370
    18
100
AcDbCircle
 10
324.0015639250194
 20
609.2783714816037
 30
0.0
 40
0.9587608077068694
100
AcDbArc
 50
95.92334440423626
 51
157.3874044007896
  0
LINE
  5
BD2
330
1F
100
AcDbEntity
  8
0
370
    18
100
AcDbLine
 10
321.0184616207641
 20
612.6921742240879
 30
0.0
 11
321.647075145095
 21
610.9904414115849
 31
0.0
  0
LINE
  5
BD3
330
1F
100
AcDbEntity
  8
0
370
    18
100
AcDbLine
 10
324.4304291107908
 20
614.681519882271
 30
0.0
 11
323.4378468838611
 21
610.9771525806794
 31
0.0
  0
LINE
  5
BD4
330
1F
100
AcDbEntity
  8
0
370
    18
100
AcDbLine
 10
322.3852852644984
 20
612.7812207020893
 30
0.0
 11
323.0517010564488
 21
610.9771525806794
 31
0.0
  0
LINE
  5
BD5
330
1F
100
AcDbEntity
  8
0
370
    18
100
AcDbLine
 10
314.7525378302496
 20
610.3082782249234
 30
0.0
 11
313.759955603319
 21
606.603910923332
 31
0.0
  0
LINE
  5
BD6
330
1F
100
AcDbEntity
  8
0
370
    18
100
AcDbLine
 10
315.459571368953
 20
608.0857363407499
 30
0.0
 11
315.3352597453338
 21
607.6217990454292
 31
0.0
  0
LINE
  5
BD7
330
1F
100
AcDbEntity
  8
0
370
    18
100
AcDbLine
 10
315.459571368953
 20
608.0857363407499
 30
0.0
 11
315.3455357126993
 21
607.6601494777382
 31
0.0
  0
LINE
  5
BD8
330
1F
100
AcDbEntity
  8
0
370
    18
100
AcDbLine
 10
315.7820124986126
 20
609.2891030190908
 30
0.0
 11
315.6579654238628
 21
608.8261530335953
 31
0.0
  0
LINE
  5
BD9
330
1F
100
AcDbEntity
  8
0
370
    18
100
AcDbLine
 10
313.7599556033199
 20
606.603910923332
 30
0.0
 11
317.5552955450692
 21
606.603910923332
 31
0.0
  0
LINE
  5
BDA
330
1F
100
AcDbEntity
  8
0
370
    18
100
AcDbLine
 10
318.1507435239016
 20
608.8261530335953
 30
0.0
 11
315.6579654238628
 21
608.8261530335953
 31
0.0
  0
LINE
  5
BDB
330
1F
100
AcDbEntity
  8
0
370
    18
100
AcDbLine
 10
315.3352597453338
 20
607.6217990454292
 30
0.0
 11
317.8383138127372
 21
607.6217990454292
 31
0.0
  0
LINE
  5
BDC
330
1F
100
AcDbEntity
  8
0
370
    18
100
AcDbLine
 10
315.459571368953
 20
608.0857363407499
 30
0.0
 11
317.9523494689909
 21
608.0857363407499
 31
0.0
  0
LINE
  5
BDD
330
1F
100
AcDbEntity
  8
0
370
    18
100
AcDbLine
 10
318.5478777719989
 20
610.3082782249234
 30
0.0
 11
314.7525378302496
 21
610.3082782249234
 31
0.0
  0
LWPOLYLINE
  5
BDE
330
1F
100
AcDbEntity
  8
0
370
    18
100
AcDbPolyline
 90
        4
 70
     1
 43
0.0
 10
315.6051946126761
 20
613.2595222629393
 10
315.0096452765181
 20
611.0369018819842
 10
318.4611841842632
 20
611.0369018819842
 10
319.0567335204212
 20
613.2595222629393
  0
LINE
  5
BDF
330
1F
100
AcDbEntity
  8
0
370
    18
100
AcDbLine
 10
336.7364915404894
 20
606.603910923332
 30
0.0
 11
340.5318314822405
 21
606.603910923332
 31
0.0
  0
LINE
  5
BE0
330
1F
100
AcDbEntity
  8
0
370
    18
100
AcDbLine
 10
338.3117956825033
 20
607.6217990454292
 30
0.0
 11
340.8148497499076
 21
607.6217990454292
 31
0.0
  0
LINE
  5
BE1
330
1F
100
AcDbEntity
  8
0
370
    18
100
AcDbLine
 10
338.4361073061234
 20
608.0857363407499
 30
0.0
 11
340.9288854061613
 21
608.0857363407499
 31
0.0
  0
LINE
  5
BE2
330
1F
100
AcDbEntity
  8
0
370
    18
100
AcDbLine
 10
338.1533974170723
 20
611.9950407027777
 30
0.0
 11
340.6564514844765
 21
611.9950407027777
 31
0.0
  0
LINE
  5
BE3
330
1F
100
AcDbEntity
  8
0
370
    18
100
AcDbLine
 10
341.3660154437382
 20
614.681519882271
 30
0.0
 11
337.570675501988
 21
614.681519882271
 31
0.0
  0
LINE
  5
BE4
330
1F
100
AcDbEntity
  8
0
370
    18
100
AcDbLine
 10
341.5244137091693
 20
610.3082782249234
 30
0.0
 11
337.72907376742
 21
610.3082782249234
 31
0.0
  0
LINE
  5
BE5
330
1F
100
AcDbEntity
  8
0
370
    18
100
AcDbLine
 10
336.5780932750583
 20
610.9771525806794
 30
0.0
 11
340.3734332168085
 21
610.9771525806794
 31
0.0
  0
LINE
  5
BE6
330
1F
100
AcDbEntity
  8
0
370
    18
100
AcDbLine
 10
338.2777090406914
 20
612.4589779980975
 30
0.0
 11
340.7704871407293
 21
612.4589779980975
 31
0.0
  0
LINE
  5
BE7
330
1F
100
AcDbEntity
  8
0
370
    18
100
AcDbLine
 10
332.022395540175
 20
606.603910923332
 30
0.0
 11
333.0149777671056
 21
610.3082782249234
 31
0.0
  0
ARC
  5
BE8
330
1F
100
AcDbEntity
  8
0
370
    18
100
AcDbCircle
 10
333.426353370606
 20
611.9976425652953
 30
0.0
 40
0.9587608077068694
100
AcDbArc
 50
165.0000000000055
 51
261.6882763531171
  0
LINE
  5
BE9
330
1F
100
AcDbEntity
  8
0
370
    18
100
AcDbLine
 10
333.0149777671056
 20
610.3082782249234
 30
0.0
 11
331.6996066275476
 21
610.3082782249234
 31
0.0
  0
LINE
  5
BEA
330
1F
100
AcDbEntity
  8
0
370
    18
100
AcDbLine
 10
330.5205269616988
 20
610.3082782249234
 30
0.0
 11
331.2301169764476
 21
608.5561189933919
 31
0.0
  0
LINE
  5
BEB
330
1F
100
AcDbEntity
  8
0
370
    18
100
AcDbLine
 10
331.2301169764476
 20
608.5561189933919
 30
0.0
 11
331.6996066275476
 21
610.3082782249234
 31
0.0
  0
LINE
  5
BEC
330
1F
100
AcDbEntity
  8
0
370
    18
100
AcDbLine
 10
330.0412154934209
 20
608.3650461591728
 30
0.0
 11
329.569320729215
 21
606.603910923332
 31
0.0
  0
LINE
  5
BED
330
1F
100
AcDbEntity
  8
0
370
    18
100
AcDbLine
 10
330.7483507998702
 20
606.603910923332
 30
0.0
 11
330.0412154934209
 21
608.3650461591728
 31
0.0
  0
LINE
  5
BEE
330
1F
100
AcDbEntity
  8
0
370
    18
100
AcDbLine
 10
330.7483507998702
 20
606.603910923332
 30
0.0
 11
332.022395540175
 21
606.603910923332
 31
0.0
  0
LINE
  5
BEF
330
1F
100
AcDbEntity
  8
0
370
    18
100
AcDbLine
 10
332.2208256567308
 20
610.9752167124702
 30
0.0
 11
332.0334986140204
 21
614.681519882271
 31
0.0
  0
LINE
  5
BF0
330
1F
100
AcDbEntity
  8
0
370
    18
100
AcDbLine
 10
329.8258367703636
 20
612.309600312968
 30
0.0
 11
330.8495163911046
 21
612.309600312968
 31
0.0
  0
LINE
  5
BF1
330
1F
100
AcDbEntity
  8
0
370
    18
100
AcDbLine
 10
329.8258367703636
 20
612.309600312968
 30
0.0
 11
330.7627931526156
 21
614.0254370072093
 31
0.0
  0
LINE
  5
BF2
330
1F
100
AcDbEntity
  8
0
370
    18
100
AcDbLine
 10
330.8495163911046
 20
612.309600312968
 30
0.0
 11
330.7627931526156
 21
614.0254370072093
 31
0.0
  0
LINE
  5
BF3
330
1F
100
AcDbEntity
  8
0
370
    18
100
AcDbLine
 10
330.916862067327
 20
610.9771525806794
 30
0.0
 11
330.8901559779604
 21
611.5055379234568
 31
0.0
  0
LINE
  5
BF4
330
1F
100
AcDbEntity
  8
0
370
    18
100
AcDbLine
 10
332.0334986140204
 20
614.681519882271
 30
0.0
 11
329.5230597744183
 21
614.681519882271
 31
0.0
  0
LINE
  5
BF5
330
1F
100
AcDbEntity
  8
0
370
    18
100
AcDbLine
 10
330.916862067327
 20
610.9771525806794
 30
0.0
 11
332.2207278124777
 21
610.9771525806794
 31
0.0
  0
LINE
  5
BF6
330
1F
100
AcDbEntity
  8
0
370
    18
100
AcDbLine
 10
333.4933383938649
 20
610.3082782249234
 30
0.0
 11
332.5007561669352
 21
606.603910923332
 31
0.0
  0
LINE
  5
BF7
330
1F
100
AcDbEntity
  8
0
370
    18
100
AcDbLine
 10
337.72907376742
 20
610.3082782249234
 30
0.0
 11
336.7364915404894
 21
606.603910923332
 31
0.0
  0
LINE
  5
BF8
330
1F
100
AcDbEntity
  8
0
370
    18
100
AcDbLine
 10
334.5228130622288
 20
609.2891030190908
 30
0.0
 11
334.3987659874799
 21
608.8261530335953
 31
0.0
  0
LINE
  5
BF9
330
1F
100
AcDbEntity
  8
0
370
    18
100
AcDbLine
 10
332.5007561669352
 20
606.603910923332
 30
0.0
 11
336.2960961086853
 21
606.603910923332
 31
0.0
  0
LINE
  5
BFA
330
1F
100
AcDbEntity
  8
0
370
    18
100
AcDbLine
 10
336.2960961086853
 20
606.603910923332
 30
0.0
 11
336.568838408987
 21
607.6217990454292
 31
0.0
  0
LINE
  5
BFB
330
1F
100
AcDbEntity
  8
0
370
    18
100
AcDbLine
 10
334.0760603089491
 20
607.6217990454292
 30
0.0
 11
336.5791143763534
 21
607.6217990454292
 31
0.0
  0
LINE
  5
BFC
330
1F
100
AcDbEntity
  8
0
370
    18
100
AcDbLine
 10
334.2003719325692
 20
608.0857363407499
 30
0.0
 11
334.0760603089491
 21
607.6217990454292
 31
0.0
  0
LINE
  5
BFD
330
1F
100
AcDbEntity
  8
0
370
    18
100
AcDbLine
 10
334.2003719325692
 20
608.0857363407499
 30
0.0
 11
336.693150032607
 21
608.0857363407499
 31
0.0
  0
LINE
  5
BFE
330
1F
100
AcDbEntity
  8
0
370
    18
100
AcDbLine
 10
336.693150032607
 20
608.0857363407499
 30
0.0
 11
336.8915440875178
 21
608.8261530335953
 31
0.0
  0
LINE
  5
BFF
330
1F
100
AcDbEntity
  8
0
370
    18
100
AcDbLine
 10
336.8915440875178
 20
608.8261530335953
 30
0.0
 11
334.3987659874799
 21
608.8261530335953
 31
0.0
  0
LINE
  5
C00
330
1F
100
AcDbEntity
  8
0
370
    18
100
AcDbLine
 10
334.2003719325692
 20
608.0857363407499
 30
0.0
 11
334.0863362763155
 21
607.6601494777382
 31
0.0
  0
LINE
  5
C01
330
1F
100
AcDbEntity
  8
0
370
    18
100
AcDbLine
 10
338.4361073061234
 20
608.0857363407499
 30
0.0
 11
338.3117956825033
 21
607.6217990454292
 31
0.0
  0
LINE
  5
C02
330
1F
100
AcDbEntity
  8
0
370
    18
100
AcDbLine
 10
338.4361073061234
 20
608.0857363407499
 30
0.0
 11
338.3220716498706
 21
607.6601494777382
 31
0.0
  0
LINE
  5
C03
330
1F
100
AcDbEntity
  8
0
370
    18
100
AcDbLine
 10
338.2777090406914
 20
612.4589779980975
 30
0.0
 11
338.1533974170723
 21
611.9950407027777
 31
0.0
  0
LINE
  5
C04
330
1F
100
AcDbEntity
  8
0
370
    18
100
AcDbLine
 10
338.2777090406914
 20
612.4589779980975
 30
0.0
 11
338.1636733844387
 21
612.0333911350858
 31
0.0
  0
LINE
  5
C05
330
1F
100
AcDbEntity
  8
0
370
    18
100
AcDbLine
 10
337.0155911622667
 20
609.2891030190908
 30
0.0
 11
337.288678335616
 21
610.3082782249234
 31
0.0
  0
LINE
  5
C06
330
1F
100
AcDbEntity
  8
0
370
    18
100
AcDbLine
 10
337.0155911622667
 20
609.2891030190908
 30
0.0
 11
334.5125370948624
 21
609.2891030190908
 31
0.0
  0
LINE
  5
C07
330
1F
100
AcDbEntity
  8
0
370
    18
100
AcDbLine
 10
333.1529139033444
 20
614.681519882271
 30
0.0
 11
332.5002615452083
 21
612.2457881220275
 31
0.0
  0
LINE
  5
C08
330
1F
100
AcDbEntity
  8
0
370
    18
100
AcDbLine
 10
334.5871096377157
 20
614.681519882271
 30
0.0
 11
333.1529139033444
 21
614.681519882271
 31
0.0
  0
LINE
  5
C09
330
1F
100
AcDbEntity
  8
0
370
    18
100
AcDbLine
 10
336.2181989240487
 20
611.808743132548
 30
0.0
 11
336.9879571341714
 21
614.681519882271
 31
0.0
  0
LINE
  5
C0A
330
1F
100
AcDbEntity
  8
0
370
    18
100
AcDbLine
 10
336.9879571341714
 20
614.681519882271
 30
0.0
 11
335.5229407350159
 21
614.681519882271
 31
0.0
  0
LINE
  5
C0B
330
1F
100
AcDbEntity
  8
0
370
    18
100
AcDbLine
 10
334.791616874775
 20
611.9521820790656
 30
0.0
 11
335.5229407350159
 21
614.681519882271
 31
0.0
  0
ARC
  5
C0C
330
1F
100
AcDbEntity
  8
0
370
    18
100
AcDbCircle
 10
334.4582238176315
 20
612.0415144794893
 30
0.0
 40
0.3451538907744731
100
AcDbArc
 50
270.0
 51
345.0000000000055
  0
LINE
  5
C0D
330
1F
100
AcDbEntity
  8
0
370
    18
100
AcDbLine
 10
334.4582238176315
 20
611.6963605887145
 30
0.0
 11
334.2370519237209
 21
611.6963605887145
 31
0.0
  0
ARC
  5
C0E
330
1F
100
AcDbEntity
  8
0
370
    18
100
AcDbCircle
 10
334.2370519237209
 20
612.0415144794893
 30
0.0
 40
0.3451538907744731
100
AcDbArc
 50
165.0000000000055
 51
270.0
  0
LINE
  5
C0F
330
1F
100
AcDbEntity
  8
0
370
    18
100
AcDbLine
 10
334.5871096377157
 20
614.681519882271
 30
0.0
 11
333.9036588665774
 21
612.130846879913
 31
0.0
  0
LINE
  5
C10
330
1F
100
AcDbEntity
  8
0
370
    18
100
AcDbLine
 10
337.288678335616
 20
610.3082782249234
 30
0.0
 11
333.4933383938649
 21
610.3082782249234
 31
0.0
  0
ARC
  5
C11
330
1F
100
AcDbEntity
  8
0
370
    18
100
AcDbCircle
 10
334.3169059459222
 20
618.093426445364
 30
0.0
 40
7.119253077153191
100
AcDbArc
 50
261.6882763531171
 51
278.5178280220953
  0
ARC
  5
C12
330
1F
100
AcDbEntity
  8
0
370
    18
100
AcDbCircle
 10
335.2180197526184
 20
612.0767403338191
 30
0.0
 40
1.035461672323419
100
AcDbArc
 50
278.5178280220953
 51
345.0000000000055
  0
LINE
  5
C13
330
1F
100
AcDbEntity
  8
0
370
    18
100
AcDbLine
 10
337.570675501988
 20
614.681519882271
 30
0.0
 11
336.5780932750583
 21
610.9771525806794
 31
0.0
  0
LINE
  5
C14
330
1F
100
AcDbEntity
  8
0
370
    18
100
AcDbLine
 10
327.4551994165456
 20
610.3082782249234
 30
0.0
 11
326.4626171896159
 21
606.603910923332
 31
0.0
  0
LINE
  5
C15
330
1F
100
AcDbEntity
  8
0
370
    18
100
AcDbLine
 10
328.7974645473348
 20
610.3082782249234
 30
0.0
 11
327.804882320406
 21
606.603910923332
 31
0.0
  0
LINE
  5
C16
330
1F
100
AcDbEntity
  8
0
370
    18
100
AcDbLine
 10
329.2593411144324
 20
610.3082782249234
 30
0.0
 11
328.2667588875026
 21
606.603910923332
 31
0.0
  0
LINE
  5
C17
330
1F
100
AcDbEntity
  8
0
370
    18
100
AcDbLine
 10
326.4626171896159
 20
606.603910923332
 30
0.0
 11
327.804882320406
 21
606.603910923332
 31
0.0
  0
ARC
  5
C18
330
1F
100
AcDbEntity
  8
0
370
    18
100
AcDbCircle
 10
325.1782977962764
 20
607.7544238925797
 30
0.0
 40
1.150512969248243
100
AcDbArc
 50
270.0
 51
270.0
  0
ARC
  5
C19
330
1F
100
AcDbEntity
  8
0
370
    18
100
AcDbCircle
 10
323.5512118347931
 20
608.2019104925279
 30
0.0
 40
1.422878199650913
100
AcDbArc
 50
334.2263645027608
 51
11.71383119334136
  0
LINE
  5
C1A
330
1F
100
AcDbEntity
  8
0
370
    18
100
AcDbLine
 10
326.0035917991388
 20
606.603910923332
 30
0.0
 11
326.5091791091206
 21
608.4907884518456
 31
0.0
  0
LINE
  5
C1B
330
1F
100
AcDbEntity
  8
0
370
    18
100
AcDbLine
 10
324.9444569301238
 20
608.4907884518456
 30
0.0
 11
326.5091791091206
 21
608.4907884518456
 31
0.0
  0
ARC
  5
C1C
330
1F
100
AcDbEntity
  8
0
370
    18
100
AcDbCircle
 10
325.2311433539769
 20
600.4996975191557
 30
0.0
 40
8.85764661435673
100
AcDbArc
 50
80.02650671627761
 51
93.02614479233037
  0
LINE
  5
C1D
330
1F
100
AcDbEntity
  8
0
370
    18
100
AcDbLine
 10
326.401204972806
 20
612.9293606507395
 30
0.0
 11
326.8706946239061
 21
614.681519882271
 31
0.0
  0
LINE
  5
C1E
330
1F
100
AcDbEntity
  8
0
370
    18
100
AcDbLine
 10
325.9194387962287
 20
610.9771525806794
 30
0.0
 11
327.1934835365344
 21
610.9771525806794
 31
0.0
  0
LINE
  5
C1F
330
1F
100
AcDbEntity
  8
0
370
    18
100
AcDbLine
 10
325.6916149580573
 20
614.681519882271
 30
0.0
 11
326.401204972806
 21
612.9293606507395
 31
0.0
  0
LINE
  5
C20
330
1F
100
AcDbEntity
  8
0
370
    18
100
AcDbLine
 10
325.2123034897793
 20
612.7382878165203
 30
0.0
 11
324.7404087255734
 21
610.9771525806794
 31
0.0
  0
LINE
  5
C21
330
1F
100
AcDbEntity
  8
0
370
    18
100
AcDbLine
 10
325.9194387962287
 20
610.9771525806794
 30
0.0
 11
325.2123034897793
 21
612.7382878165203
 31
0.0
  0
LINE
  5
C22
330
1F
100
AcDbEntity
  8
0
370
    18
100
AcDbLine
 10
326.7652218290566
 20
609.2234872218664
 30
0.0
 11
327.0291755513197
 21
610.2167529510903
 31
0.0
  0
LINE
  5
C23
330
1F
100
AcDbEntity
  8
0
370
    18
100
AcDbLine
 10
328.1860657634641
 20
614.681519882271
 30
0.0
 11
326.8706946239061
 21
614.681519882271
 31
0.0
  0
LINE
  5
C24
330
1F
100
AcDbEntity
  8
0
370
    18
100
AcDbLine
 10
328.7974645473348
 20
610.3082782249234
 30
0.0
 11
327.4551994165456
 21
610.3082782249234
 31
0.0
  0
LINE
  5
C25
330
1F
100
AcDbEntity
  8
0
370
    18
100
AcDbLine
 10
327.5002387232769
 20
610.9771525806794
 30
0.0
 11
329.098235238718
 21
610.9771525806794
 31
0.0
  0
LINE
  5
C26
330
1F
100
AcDbEntity
  8
0
370
    18
100
AcDbLine
 10
327.1934835365344
 20
610.9771525806794
 30
0.0
 11
328.1860657634641
 21
614.681519882271
 31
0.0
  0
LINE
  5
C27
330
1F
100
AcDbEntity
  8
0
370
    18
100
AcDbLine
 10
329.098235238718
 20
610.9771525806794
 30
0.0
 11
329.3867673705142
 21
611.5055379234568
 31
0.0
  0
LINE
  5
C28
330
1F
100
AcDbEntity
  8
0
370
    18
100
AcDbLine
 10
328.2667588875026
 20
606.603910923332
 30
0.0
 11
329.569320729215
 21
606.603910923332
 31
0.0
  0
LINE
  5
C29
330
1F
100
AcDbEntity
  8
0
370
    18
100
AcDbLine
 10
329.3867673705142
 20
611.5055379234568
 30
0.0
 11
330.8901559779604
 21
611.5055379234568
 31
0.0
  0
LINE
  5
C2A
330
1F
100
AcDbEntity
  8
0
370
    18
100
AcDbLine
 10
330.5205269616988
 20
610.3082782249234
 30
0.0
 11
329.2593411144324
 21
610.3082782249234
 31
0.0
  0
LINE
  5
C2B
330
1F
100
AcDbEntity
  8
0
370
    18
100
AcDbLine
 10
327.5002387232769
 20
610.9771525806794
 30
0.0
 11
329.5230597744183
 21
614.681519882271
 31
0.0
  0
ARC
  5
C2C
330
1F
100
AcDbEntity
  8
0
370
    18
100
AcDbCircle
 10
343.8909437043619
 20
613.6690586651516
 30
0.0
 40
0.7682193793950698
100
AcDbArc
 50
270.1852188608381
 51
291.3103783431897
  0
LINE
  5
C2D
330
1F
100
AcDbEntity
  8
0
370
    18
100
AcDbLine
 10
343.7765294597664
 20
606.613836745601
 30
0.0
 11
345.4855339466719
 21
606.613836745601
 31
0.0
  0
LINE
  5
C2E
330
1F
100
AcDbEntity
  8
0
370
    18
100
AcDbLine
 10
343.6394271839843
 20
610.9771525806794
 30
0.0
 11
345.3484316708898
 21
610.9771525806794
 31
0.0
  0
LINE
  5
C2F
330
1F
100
AcDbEntity
  8
0
370
    18
100
AcDbLine
 10
350.722842546579
 20
608.5561189933919
 30
0.0
 11
351.192332197679
 21
610.3082782249234
 31
0.0
  0
LINE
  5
C30
330
1F
100
AcDbEntity
  8
0
370
    18
100
AcDbLine
 10
350.0132525318302
 20
610.3082782249234
 30
0.0
 11
350.722842546579
 21
608.5561189933919
 31
0.0
  0
LINE
  5
C31
330
1F
100
AcDbEntity
  8
0
370
    18
100
AcDbLine
 10
346.9479249866779
 20
610.3082782249234
 30
0.0
 11
345.9553427597482
 21
606.603910923332
 31
0.0
  0
LINE
  5
C32
330
1F
100
AcDbEntity
  8
0
370
    18
100
AcDbLine
 10
348.2901901174671
 20
610.3082782249234
 30
0.0
 11
347.2976078905374
 21
606.603910923332
 31
0.0
  0
LINE
  5
C33
330
1F
100
AcDbEntity
  8
0
370
    18
100
AcDbLine
 10
348.7520666845647
 20
610.3082782249234
 30
0.0
 11
347.759484457634
 21
606.603910923332
 31
0.0
  0
LINE
  5
C34
330
1F
100
AcDbEntity
  8
0
370
    18
100
AcDbLine
 10
346.0773846090877
 20
608.822653488231
 30
0.0
 11
346.1935333381932
 21
609.2561264464862
 31
0.0
  0
ARC
  5
C35
330
1F
100
AcDbEntity
  8
0
370
    18
100
AcDbCircle
 10
344.0624896070065
 20
609.0807271953422
 30
0.0
 40
0.5483274067590241
100
AcDbArc
 50
296.5093598874458
 51
350.9662004601285
  0
LINE
  5
C36
330
1F
100
AcDbEntity
  8
0
370
    18
100
AcDbLine
 10
350.2410763700016
 20
606.603910923332
 30
0.0
 11
349.5339410635522
 21
608.3650461591728
 31
0.0
  0
LINE
  5
C37
330
1F
100
AcDbEntity
  8
0
370
    18
100
AcDbLine
 10
344.4820056513989
 20
608.1973120673742
 30
0.0
 11
345.4855339466719
 21
606.613836745601
 31
0.0
  0
LINE
  5
C38
330
1F
100
AcDbEntity
  8
0
370
    18
100
AcDbLine
 10
345.2624238027381
 20
608.1973120673742
 30
0.0
 11
344.4820056513989
 21
608.1973120673742
 31
0.0
  0
ARC
  5
C39
330
1F
100
AcDbEntity
  8
0
370
    18
100
AcDbCircle
 10
344.028045980144
 20
609.305742830073
 30
0.0
 40
0.7682193793950698
100
AcDbArc
 50
270.1852188608381
 51
291.3103783431897
  0
LINE
  5
C3A
330
1F
100
AcDbEntity
  8
0
370
    18
100
AcDbLine
 10
345.9553427597482
 20
606.603910923332
 30
0.0
 11
347.2976078905374
 21
606.603910923332
 31
0.0
  0
ARC
  5
C3B
330
1F
100
AcDbEntity
  8
0
370
    18
100
AcDbCircle
 10
345.2624238027381
 20
609.0410215781562
 30
0.0
 40
0.8437095107820451
100
AcDbArc
 50
270.0
 51
345.0438139040687
  0
LINE
  5
C3C
330
1F
100
AcDbEntity
  8
0
370
    18
100
AcDbLine
 10
347.759484457634
 20
606.603910923332
 30
0.0
 11
349.0620462993463
 21
606.603910923332
 31
0.0
  0
LINE
  5
C3D
330
1F
100
AcDbEntity
  8
0
370
    18
100
AcDbLine
 10
349.5339410635522
 20
608.3650461591728
 30
0.0
 11
349.0620462993463
 21
606.603910923332
 31
0.0
  0
LINE
  5
C3E
330
1F
100
AcDbEntity
  8
0
370
    18
100
AcDbLine
 10
350.2410763700016
 20
606.603910923332
 30
0.0
 11
351.5151211103073
 21
606.603910923332
 31
0.0
  0
LINE
  5
C3F
330
1F
100
AcDbEntity
  8
0
370
    18
100
AcDbLine
 10
350.0132525318302
 20
610.3082782249234
 30
0.0
 11
348.7520666845647
 21
610.3082782249234
 31
0.0
  0
ARC
  5
C40
330
1F
100
AcDbEntity
  8
0
370
    18
100
AcDbCircle
 10
344.2224732227776
 20
609.0552915268967
 30
0.0
 40
0.386334411403646
100
AcDbArc
 50
350.9662004601285
 51
90.19530426564624
  0
ARC
  5
C41
330
1F
100
AcDbEntity
  8
0
370
    18
100
AcDbCircle
 10
345.3785725318428
 20
609.4744945364104
 30
0.0
 40
0.8437095107820451
100
AcDbArc
 50
344.9999529879121
 51
90.0
  0
LINE
  5
C42
330
1F
100
AcDbEntity
  8
0
370
    18
100
AcDbLine
 10
345.125321526956
 20
612.5606279024528
 30
0.0
 11
344.3449033756176
 21
612.5606279024528
 31
0.0
  0
ARC
  5
C43
330
1F
100
AcDbEntity
  8
0
370
    18
100
AcDbCircle
 10
344.0853709469955
 20
613.4186073619753
 30
0.0
 40
0.386334411403646
100
AcDbArc
 50
350.9662004601285
 51
90.19530426564624
  0
ARC
  5
C44
330
1F
100
AcDbEntity
  8
0
370
    18
100
AcDbCircle
 10
343.9253873312253
 20
613.4440430304198
 30
0.0
 40
0.5483274067590241
100
AcDbArc
 50
296.5093598874458
 51
350.9662004601285
  0
ARC
  5
C45
330
1F
100
AcDbEntity
  8
0
370
    18
100
AcDbCircle
 10
345.125321526956
 20
613.4043374132337
 30
0.0
 40
0.8437095107820451
100
AcDbArc
 50
270.0
 51
345.0438139040687
  0
LINE
  5
C46
330
1F
100
AcDbEntity
  8
0
370
    18
100
AcDbLine
 10
345.9402823333064
 20
613.1859693233096
 30
0.0
 11
346.0564310624111
 21
613.6194422815638
 31
0.0
  0
ARC
  5
C47
330
1F
100
AcDbEntity
  8
0
370
    18
100
AcDbCircle
 10
345.2414702560616
 20
613.837810371489
 30
0.0
 40
0.8437095107820451
100
AcDbArc
 50
344.9999529879121
 51
90.0
  0
LINE
  5
C48
330
1F
100
AcDbEntity
  8
0
370
    18
100
AcDbLine
 10
348.2901901174671
 20
610.3082782249234
 30
0.0
 11
346.9479249866779
 21
610.3082782249234
 31
0.0
  0
LINE
  5
C49
330
1F
100
AcDbEntity
  8
0
370
    18
100
AcDbLine
 10
344.3449033756176
 20
612.5606279024528
 30
0.0
 11
345.3484316708898
 21
610.9771525806794
 31
0.0
  0
LINE
  5
C4A
330
1F
100
AcDbEntity
  8
0
370
    18
100
AcDbLine
 10
342.0387306160071
 20
610.3182040471924
 30
0.0
 11
341.0434887730169
 21
606.603910923332
 31
0.0
  0
LINE
  5
C4B
330
1F
100
AcDbEntity
  8
0
370
    18
100
AcDbLine
 10
342.8641616054608
 20
608.5375274647026
 30
0.0
 11
343.1064134599389
 21
609.4416236938445
 31
0.0
  0
LINE
  5
C4C
330
1F
100
AcDbEntity
  8
0
370
    18
100
AcDbLine
 10
338.7585484357831
 20
609.2891030190908
 30
0.0
 11
338.6345013610333
 21
608.8261530335953
 31
0.0
  0
LINE
  5
C4D
330
1F
100
AcDbEntity
  8
0
370
    18
100
AcDbLine
 10
341.127279461072
 20
608.8261530335953
 30
0.0
 11
338.6345013610333
 21
608.8261530335953
 31
0.0
  0
LINE
  5
C4E
330
1F
100
AcDbEntity
  8
0
370
    18
100
AcDbLine
 10
340.5318314822405
 20
606.603910923332
 30
0.0
 11
340.8045737825412
 21
607.6217990454292
 31
0.0
  0
LINE
  5
C4F
330
1F
100
AcDbEntity
  8
0
370
    18
100
AcDbLine
 10
342.7730011644942
 20
608.1973120673742
 30
0.0
 11
342.3487102307897
 21
606.613836745601
 31
0.0
  0
LINE
  5
C50
330
1F
100
AcDbEntity
  8
0
370
    18
100
AcDbLine
 10
341.0461483890774
 20
606.613836745601
 30
0.0
 11
342.3487102307897
 21
606.613836745601
 31
0.0
  0
LINE
  5
C51
330
1F
100
AcDbEntity
  8
0
370
    18
100
AcDbLine
 10
340.9288854061613
 20
608.0857363407499
 30
0.0
 11
341.127279461072
 21
608.8261530335953
 31
0.0
  0
LINE
  5
C52
330
1F
100
AcDbEntity
  8
0
370
    18
100
AcDbLine
 10
341.2513265358209
 20
609.2891030190908
 30
0.0
 11
341.5244137091693
 21
610.3082782249234
 31
0.0
  0
LINE
  5
C53
330
1F
100
AcDbEntity
  8
0
370
    18
100
AcDbLine
 10
341.2513265358209
 20
609.2891030190908
 30
0.0
 11
338.7482724684167
 21
609.2891030190908
 31
0.0
  0
LINE
  5
C54
330
1F
100
AcDbEntity
  8
0
370
    18
100
AcDbLine
 10
340.9688811956401
 20
613.1993946909428
 30
0.0
 11
338.4761030956022
 21
613.1993946909428
 31
0.0
  0
LINE
  5
C55
330
1F
100
AcDbEntity
  8
0
370
    18
100
AcDbLine
 10
341.0929282703889
 20
613.6623446764384
 30
0.0
 11
338.5898742029856
 21
613.6623446764384
 31
0.0
  0
LINE
  5
C56
330
1F
100
AcDbEntity
  8
0
370
    18
100
AcDbLine
 10
338.6001501703511
 20
613.6623446764384
 30
0.0
 11
338.4761030956022
 21
613.1993946909428
 31
0.0
  0
LINE
  5
C57
330
1F
100
AcDbEntity
  8
0
370
    18
100
AcDbLine
 10
341.0929282703889
 20
613.6623446764384
 30
0.0
 11
341.3660154437382
 21
614.681519882271
 31
0.0
  0
LINE
  5
C58
330
1F
100
AcDbEntity
  8
0
370
    18
100
AcDbLine
 10
340.7704871407293
 20
612.4589779980975
 30
0.0
 11
340.9688811956401
 21
613.1993946909428
 31
0.0
  0
LINE
  5
C59
330
1F
100
AcDbEntity
  8
0
370
    18
100
AcDbLine
 10
342.7270593296787
 20
612.9008432997811
 30
0.0
 11
342.9693111841578
 21
613.8049395289231
 31
0.0
  0
LINE
  5
C5A
330
1F
100
AcDbEntity
  8
0
370
    18
100
AcDbLine
 10
340.9090461132962
 20
610.9771525806794
 30
0.0
 11
342.2116079550085
 21
610.9771525806794
 31
0.0
  0
LINE
  5
C5B
330
1F
100
AcDbEntity
  8
0
370
    18
100
AcDbLine
 10
340.3734332168085
 20
610.9771525806794
 30
0.0
 11
340.6461755171101
 21
611.9950407027777
 31
0.0
  0
LINE
  5
C5C
330
1F
100
AcDbEntity
  8
0
370
    18
100
AcDbLine
 10
341.901628340225
 20
614.681519882271
 30
0.0
 11
340.9090461132962
 21
610.9771525806794
 31
0.0
  0
LINE
  5
C5D
330
1F
100
AcDbEntity
  8
0
370
    18
100
AcDbLine
 10
342.6358988887121
 20
612.5606279024528
 30
0.0
 11
342.2116079550085
 21
610.9771525806794
 31
0.0
  0
LINE
  5
C5E
330
1F
100
AcDbEntity
  8
0
370
    18
100
AcDbLine
 10
344.0305293796298
 20
608.5375274647026
 30
0.0
 11
342.8641616054608
 21
608.5375274647026
 31
0.0
  0
LINE
  5
C5F
330
1F
100
AcDbEntity
  8
0
370
    18
100
AcDbLine
 10
345.3785725318428
 20
610.3182040471924
 30
0.0
 11
342.0387306160071
 21
610.3182040471924
 31
0.0
  0
LINE
  5
C60
330
1F
100
AcDbEntity
  8
0
370
    18
100
AcDbLine
 10
345.2414702560616
 20
614.681519882271
 30
0.0
 11
341.901628340225
 21
614.681519882271
 31
0.0
  0
LINE
  5
C61
330
1F
100
AcDbEntity
  8
0
370
    18
100
AcDbLine
 10
344.2211563262615
 20
609.4416236938445
 30
0.0
 11
343.1064134599389
 21
609.4416236938445
 31
0.0
  0
LINE
  5
C62
330
1F
100
AcDbEntity
  8
0
370
    18
100
AcDbLine
 10
344.0840540504803
 20
613.8049395289231
 30
0.0
 11
342.9693111841578
 21
613.8049395289231
 31
0.0
  0
LINE
  5
C63
330
1F
100
AcDbEntity
  8
0
370
    18
100
AcDbLine
 10
342.7730011644942
 20
608.1973120673742
 30
0.0
 11
343.7765294597664
 21
606.613836745601
 31
0.0
  0
LINE
  5
C64
330
1F
100
AcDbEntity
  8
0
370
    18
100
AcDbLine
 10
342.6358988887121
 20
612.5606279024528
 30
0.0
 11
343.6394271839843
 21
610.9771525806794
 31
0.0
  0
LINE
  5
C65
330
1F
100
AcDbEntity
  8
0
370
    18
100
AcDbLine
 10
343.8934271038486
 20
612.9008432997811
 30
0.0
 11
342.7270593296787
 21
612.9008432997811
 31
0.0
  0
LINE
  5
C66
330
1F
100
AcDbEntity
  8
0
370
    18
100
AcDbLine
 10
355.6241918139565
 20
606.603910923332
 30
0.0
 11
353.797310016668
 21
606.603910923332
 31
0.0
  0
LINE
  5
C67
330
1F
100
AcDbEntity
  8
0
370
    18
100
AcDbLine
 10
354.5650569449415
 20
608.4907884518456
 30
0.0
 11
356.1297791239383
 21
608.4907884518456
 31
0.0
  0
ARC
  5
C68
330
1F
100
AcDbEntity
  8
0
370
    18
100
AcDbCircle
 10
354.8517433687946
 20
600.4996975191557
 30
0.0
 40
8.85764661435673
100
AcDbArc
 50
80.02650671627761
 51
93.02614479233037
  0
ARC
  5
C69
330
1F
100
AcDbEntity
  8
0
370
    18
100
AcDbCircle
 10
355.0162958832405
 20
595.8411821401236
 30
0.0
 40
14.46807838019826
100
AcDbArc
 50
83.51735091136838
 51
95.92334440423626
  0
ARC
  5
C6A
330
1F
100
AcDbEntity
  8
0
370
    18
100
AcDbCircle
 10
359.7538476199141
 20
606.7362587130223
 30
0.0
 40
6.22149298766157
100
AcDbArc
 50
158.0969939507876
 51
170.4856136403528
  0
ARC
  5
C6B
330
1F
100
AcDbEntity
  8
0
370
    18
100
AcDbCircle
 10
354.0032485010986
 20
613.7201847880164
 30
0.0
 40
7.119253077153191
100
AcDbArc
 50
262.0635437036931
 51
268.3423749580197
  0
ARC
  5
C6C
330
1F
100
AcDbEntity
  8
0
370
    18
100
AcDbCircle
 10
354.798897811095
 20
607.7544238925797
 30
0.0
 40
1.150512969248243
100
AcDbArc
 50
270.0
 51
270.0
  0
ARC
  5
C6D
330
1F
100
AcDbEntity
  8
0
370
    18
100
AcDbCircle
 10
353.1718118496117
 20
608.2019104925279
 30
0.0
 40
1.422878199650913
100
AcDbArc
 50
334.2263645027608
 51
11.71383119334136
  0
ARC
  5
C6E
330
1F
100
AcDbEntity
  8
0
370
    18
100
AcDbCircle
 10
354.038717136187
 20
607.783324119066
 30
0.0
 40
0.4602051876992975
100
AcDbArc
 50
270.0
 51
334.2263645027608
  0
LINE
  5
C6F
330
1F
100
AcDbEntity
  8
0
370
    18
100
AcDbLine
 10
353.9970269143512
 20
607.3231189313669
 30
0.0
 11
354.038717136187
 21
607.3231189313669
 31
0.0
  0
ARC
  5
C70
330
1F
100
AcDbEntity
  8
0
370
    18
100
AcDbCircle
 10
353.9970269143512
 20
607.7066232544498
 30
0.0
 40
0.3835043230827479
100
AcDbArc
 50
171.2985646492412
 51
270.0
  0
ARC
  5
C71
330
1F
100
AcDbEntity
  8
0
370
    18
100
AcDbCircle
 10
354.4084286798122
 20
608.8854291271113
 30
0.0
 40
0.4602051876992975
100
AcDbArc
 50
93.02614479233037
 51
158.0969939507876
  0
ARC
  5
C72
330
1F
100
AcDbEntity
  8
0
370
    18
100
AcDbCircle
 10
353.622163939837
 20
609.2783714816037
 30
0.0
 40
0.9587608077068694
100
AcDbArc
 50
95.92334440423626
 51
157.3874044007896
  0
LINE
  5
C73
330
1F
100
AcDbEntity
  8
0
370
    18
100
AcDbLine
 10
355.6241918139565
 20
606.603910923332
 30
0.0
 11
356.1297791239383
 21
608.4907884518456
 31
0.0
  0
LINE
  5
C74
330
1F
100
AcDbEntity
  8
0
370
    18
100
AcDbLine
 10
356.3858218438743
 20
609.2234872218664
 30
0.0
 11
356.6497755661383
 21
610.2167529510903
 31
0.0
  0
LINE
  5
C76
330
1F
100
AcDbEntity
  8
ACHSEN
 48
3.0
100
AcDbLine
 10
335.4042990016917
 20
601.2926397080141
 30
0.0
 11
335.4042990016917
 21
557.2244281567727
 31
0.0
  0
VIEWPORT
  5
83C
330
1B
100
AcDbEntity
 67
     1
  8
0
100
AcDbViewport
 10
203.5913085390585
 20
130.2349454874185
 30
0.0
 40
561.0606995058183
 41
318.407865331361
 68
     1
 69
     1
 12
203.5913085390585
 22
130.2349454874185
 13
0.0
 23
0.0
 14
10.0
 24
10.0
 15
10.0
 25
10.0
 16
0.0
 26
0.0
 36
1.0
 17
0.0
 27
0.0
 37
0.0
 42
50.0
 43
0.0
 44
0.0
 45
318.407865331361
 50
0.0
 51
0.0
 72
   100
 90
    32800
  1

281
     0
 71
     1
 74
     0
110
0.0
120
0.0
130
0.0
111
1.0
121
0.0
131
0.0
112
0.0
122
1.0
132
0.0
 79
     0
146
0.0
  0
VIEWPORT
  5
83E
330
1B
100
AcDbEntity
 67
     1
  8
DEFPOINTS
100
AcDbViewport
 10
211.5653446523137
 20
133.8574814232077
 30
0.0
 40
387.7053912469268
 41
264.4517213290762
 68
     2
 69
     2
 12
629.6503782584642
 22
466.7730192133243
 13
0.0
 23
0.0
 14
10.0
 24
10.0
 15
10.0
 25
10.0
 16
0.0
 26
0.0
 36
1.0
 17
0.0
 27
0.0
 37
0.0
 42
50.0
 43
0.0
 44
0.0
 45
860.0748577764374
 50
0.0
 51
0.0
 72
   100
 90
    32864
  1

281
     0
 71
     1
 74
     0
110
0.0
120
0.0
130
0.0
111
1.0
121
0.0
131
0.0
112
0.0
122
1.0
132
0.0
 79
     0
146
0.0
  0
LINE
  5
95B
330
1B
100
AcDbEntity
 67
     1
  8
RAHMEN07
100
AcDbLine
 10
408.5958122333253
 20
270.7465548882004
 30
0.0
 11
11.39581223332561
 21
270.7465548882004
 31
0.0
  0
LINE
  5
95C
330
1B
100
AcDbEntity
 67
     1
  8
RAHMEN025
100
AcDbLine
 10
413.5958122333254
 20
275.7465548882005
 30
0.0
 11
-6.404187766674681
 21
275.7465548882005
 31
0.0
  0
LINE
  5
95D
330
1B
100
AcDbEntity
 67
     1
  8
RAHMEN025
100
AcDbLine
 10
413.5958122333254
 20
-21.25344511179946
 30
0.0
 11
413.5958122333254
 21
275.7465548882005
 31
0.0
  0
LINE
  5
95E
330
1B
100
AcDbEntity
 67
     1
  8
RAHMEN07
100
AcDbLine
 10
408.5958122333253
 20
-16.25344511179946
 30
0.0
 11
408.5958122333253
 21
270.7465548882004
 31
0.0
  0
LINE
  5
95F
330
1B
100
AcDbEntity
 67
     1
  8
RAHMEN07
100
AcDbLine
 10
11.39581223332561
 20
-16.25344511179946
 30
0.0
 11
408.5958122333253
 21
-16.25344511179946
 31
0.0
  0
LINE
  5
960
330
1B
100
AcDbEntity
 67
     1
  8
RAHMEN025
100
AcDbLine
 10
-6.404187766674681
 20
-21.25344511179946
 30
0.0
 11
413.5958122333254
 21
-21.25344511179946
 31
0.0
  0
LINE
  5
961
330
1B
100
AcDbEntity
 67
     1
  8
RAHMEN025
100
AcDbLine
 10
320.1958122333256
 20
32.62155488820053
 30
0.0
 11
408.5958122333256
 21
32.62155488820053
 31
0.0
  0
LINE
  5
962
330
1B
100
AcDbEntity
 67
     1
  8
RAHMEN025
100
AcDbLine
 10
221.3958122333256
 20
-12.00344511179946
 30
0.0
 11
408.5958122333253
 21
-12.00344511179946
 31
0.0
  0
LINE
  5
963
330
1B
100
AcDbEntity
 67
     1
  8
RAHMEN07
100
AcDbLine
 10
221.3958122333256
 20
38.99655488820053
 30
0.0
 11
408.5958122333256
 21
38.99655488820053
 31
0.0
  0
LINE
  5
964
330
1B
100
AcDbEntity
 67
     1
  8
RAHMEN07
100
AcDbLine
 10
221.3958122333256
 20
0.7465548882005351
 30
0.0
 11
408.5958122333253
 21
0.7465548882005351
 31
0.0
  0
LINE
  5
965
330
1B
100
AcDbEntity
 67
     1
  8
RAHMEN07
100
AcDbLine
 10
221.3958122333256
 20
21.99655488820047
 30
0.0
 11
408.5958122333256
 21
21.99655488820047
 31
0.0
  0
LINE
  5
966
330
1B
100
AcDbEntity
 67
     1
  8
RAHMEN07
100
AcDbLine
 10
221.3958122333256
 20
-16.25344511179946
 30
0.0
 11
408.5958122333253
 21
-16.25344511179946
 31
0.0
  0
LINE
  5
967
330
1B
100
AcDbEntity
 67
     1
  8
RAHMEN025
100
AcDbLine
 10
301.9958122333257
 20
38.99655488820053
 30
0.0
 11
301.9958122333255
 21
0.7465548882005351
 31
0.0
  0
LINE
  5
968
330
1B
100
AcDbEntity
 67
     1
  8
RAHMEN025
100
AcDbLine
 10
320.1958122333256
 20
38.99655488820053
 30
0.0
 11
320.1958122333255
 21
-16.25344511179946
 31
0.0
  0
LINE
  5
969
330
1B
100
AcDbEntity
 67
     1
  8
RAHMEN025
100
AcDbLine
 10
275.9958122333255
 20
38.99655488820053
 30
0.0
 11
275.9958122333255
 21
-16.25344511179946
 31
0.0
  0
LINE
  5
96A
330
1B
100
AcDbEntity
 67
     1
  8
RAHMEN07
100
AcDbLine
 10
221.3958122333256
 20
38.99655488820053
 30
0.0
 11
221.3958122333256
 21
-16.25344511179946
 31
0.0
  0
TEXT
  5
96B
330
1B
100
AcDbEntity
 67
     1
  8
RAHMEN025
 48
1.5
100
AcDbText
 10
271.4649545737553
 20
-19.74941738624323
 30
0.0
 40
2.5
  1
"Schutzvermerk DIN 34 beachten"
 41
0.8
  7
Stil1
100
AcDbText
  0
TEXT
  5
96D
330
1B
100
AcDbEntity
 67
     1
  8
RAHMEN025
100
AcDbText
 10
268.2708440818077
 20
-15.37844511179946
 30
0.0
 40
2.5
  1
Name
  7
ISO Proportional
100
AcDbText
  0
LINE
  5
96E
330
1B
100
AcDbEntity
 67
     1
  8
RAHMEN025
100
AcDbLine
 10
221.3958122333256
 20
17.74655488820053
 30
0.0
 11
320.1958122333255
 21
17.74655488820053
 31
0.0
  0
LINE
  5
96F
330
1B
100
AcDbEntity
 67
     1
  8
RAHMEN025
100
AcDbLine
 10
221.3958122333256
 20
13.49655488820053
 30
0.0
 11
320.1958122333255
 21
13.49655488820053
 31
0.0
  0
LINE
  5
970
330
1B
100
AcDbEntity
 67
     1
  8
RAHMEN025
100
AcDbLine
 10
221.3958122333256
 20
9.246554888200535
 30
0.0
 11
320.1958122333255
 21
9.246554888200535
 31
0.0
  0
LINE
  5
971
330
1B
100
AcDbEntity
 67
     1
  8
RAHMEN025
100
AcDbLine
 10
221.3958122333256
 20
4.996554888200535
 30
0.0
 11
320.1958122333255
 21
4.996554888200535
 31
0.0
  0
LINE
  5
972
330
1B
100
AcDbEntity
 67
     1
  8
RAHMEN025
100
AcDbLine
 10
221.3958122333256
 20
-7.753445111799464
 30
0.0
 11
275.9958122333255
 21
-7.753445111799464
 31
0.0
  0
LINE
  5
973
330
1B
100
AcDbEntity
 67
     1
  8
RAHMEN025
100
AcDbLine
 10
221.3958122333256
 20
-3.503445111799464
 30
0.0
 11
275.9958122333255
 21
-3.503445111799464
 31
0.0
  0
TEXT
  5
974
330
1B
100
AcDbEntity
 67
     1
  8
RAHMEN025
100
AcDbText
 10
234.7812512737414
 20
-15.37844511179946
 30
0.0
 40
2.5
  1
Änderung
  7
ISO Proportional
100
AcDbText
  0
LINE
  5
975
330
1B
100
AcDbEntity
 67
     1
  8
RAHMEN025
100
AcDbLine
 10
229.1958122333255
 20
21.99655488820053
 30
0.0
 11
229.1958122333255
 21
-16.25344511179946
 31
0.0
  0
TEXT
  5
976
330
1B
100
AcDbEntity
 67
     1
  8
RAHMEN025
100
AcDbText
 10
221.7105422107515
 20
-15.37844511179946
 30
0.0
 40
2.5
  1
Zust.
  7
ISO Proportional
100
AcDbText
  0
LINE
  5
977
330
1B
100
AcDbEntity
 67
     1
  8
RAHMEN025
100
AcDbLine
 10
268.1958122333256
 20
21.99655488820053
 30
0.0
 11
268.1958122333256
 21
-16.25344511179946
 31
0.0
  0
LINE
  5
978
330
1B
100
AcDbEntity
 67
     1
  8
RAHMEN025
100
AcDbLine
 10
255.1958122333256
 20
21.99655488820053
 30
0.0
 11
255.1958122333256
 21
-16.25344511179946
 31
0.0
  0
TEXT
  5
979
330
1B
100
AcDbEntity
 67
     1
  8
RAHMEN025
100
AcDbText
 10
257.0074408140499
 20
-15.37844511179946
 30
0.0
 40
2.5
  1
Datum
  7
ISO Proportional
100
AcDbText
  0
TEXT
  5
97B
330
1B
100
AcDbEntity
 67
     1
  8
RAHMEN025
 48
1.5
100
AcDbText
 10
303.8820886310032
 20
14.28343238346519
 30
0.0
 40
2.5
  1
Hornung
 41
0.8
  7
Stil1
100
AcDbText
  0
TEXT
  5
97C
330
1B
100
AcDbEntity
 67
     1
  8
RAHMEN025
100
AcDbText
 10
306.769134384714
 20
18.62155488820053
 30
0.0
 40
2.5
  1
Name
  7
ISO Proportional
100
AcDbText
  0
ARC
  5
97D
330
1B
100
AcDbEntity
 67
     1
  8
RAHMEN025
370
     9
100
AcDbCircle
 10
306.9476794681588
 20
-1.141145925979913
 30
0.0
 40
0.7682193793950698
100
AcDbArc
 50
270.1852188608381
 51
291.3103783431899
  0
ARC
  5
97E
330
1B
100
AcDbEntity
 67
     1
  8
RAHMEN025
370
     9
100
AcDbCircle
 10
307.1421067107919
 20
-1.391597229155877
 30
0.0
 40
0.386334411403646
100
AcDbArc
 50
350.9662004601523
 51
90.1953042656462
  0
LINE
  5
97F
330
1B
100
AcDbEntity
 67
     1
  8
RAHMEN025
370
     9
100
AcDbLine
 10
306.696162947781
 20
-3.833052010451808
 30
0.0
 11
308.4051674346866
 21
-3.833052010451808
 31
0.0
  0
LINE
  5
980
330
1B
100
AcDbEntity
 67
     1
  8
RAHMEN025
370
     9
100
AcDbLine
 10
308.2982060198578
 20
-0.128684708860419
 30
0.0
 11
304.9583641040219
 21
-0.128684708860419
 31
0.0
  0
LINE
  5
981
330
1B
100
AcDbEntity
 67
     1
  8
DEFPOINTS
370
    13
100
AcDbLine
 10
308.4353082956394
 20
-4.4920005439389
 30
0.0
 11
305.0954663798037
 21
-4.4920005439389
 31
0.0
  0
ARC
  5
982
330
1B
100
AcDbEntity
 67
     1
  8
DEFPOINTS
370
    13
100
AcDbCircle
 10
307.0847817439407
 20
-5.504461761058394
 30
0.0
 40
0.7682193793950698
100
AcDbArc
 50
270.1852188608381
 51
291.3103783431899
  0
LINE
  5
983
330
1B
100
AcDbEntity
 67
     1
  8
DEFPOINTS
370
    13
100
AcDbLine
 10
307.2778920900584
 20
-5.368580897286904
 30
0.0
 11
306.1631492237355
 21
-5.368580897286904
 31
0.0
  0
LINE
  5
984
330
1B
100
AcDbEntity
 67
     1
  8
DEFPOINTS
370
    13
100
AcDbLine
 10
306.8332652235629
 20
-8.196367845530062
 30
0.0
 11
308.5422697104683
 21
-8.196367845530062
 31
0.0
  0
LWPOLYLINE
  5
985
102
{ACAD_REACTORS
330
986
102
}
330
1B
100
AcDbEntity
 67
     1
  8
RAHMEN025
370
     9
100
AcDbPolyline
 90
        4
 70
     1
 43
0.0
 10
295.4340872481213
 20
-8.794777594887517
 10
294.8385379119633
 20
-11.01739797584242
 10
317.889543830066
 20
-11.01739797584242
 10
318.4850931662241
 20
-8.794777594887517
  0
HATCH
  5
986
330
1B
100
AcDbEntity
 67
     1
  8
RAHMEN025
 62
   154
370
     9
100
AcDbHatch
 10
0.0
 20
0.0
 30
0.0
210
0.0
220
0.0
230
1.0
  2
SOLID
 70
     1
 71
     1
 91
        1
 92
        7
 72
     0
 73
     1
 93
        4
 10
317.889543830066
 20
-11.01739797584242
 10
318.4850931662241
 20
-8.794777594887515
 10
295.4340872481213
 20
-8.794777594887517
 10
294.8385379119633
 20
-11.01739797584242
 97
        1
330
985
 75
     0
 76
     1
 47
0.0579061006172788
 98
        1
 10
304.6505321021117
 20
-9.9689892638611
  0
HATCH
  5
987
330
1B
100
AcDbEntity
 67
     1
  8
RAHMEN025
370
     9
100
AcDbHatch
 10
0.0
 20
0.0
 30
0.0
210
0.0
220
0.0
230
1.0
  2
SOLID
 70
     1
 71
     0
 91
        8
 92
        7
 72
     0
 73
     1
 93
       11
 10
284.7087197516716
 20
-3.833052010451819
 10
286.1084368202452
 20
-3.833052010451819
 10
285.4420210282949
 20
-2.028983889041761
 10
287.101019047175
 20
-0.1286847088604013
 10
285.5065327373302
 20
-0.1286847088604013
 10
284.2104415458861
 20
-1.613292285549544
 10
284.6082409471372
 20
-0.1286847088604013
 10
283.2659758163476
 20
-0.1286847088604013
 10
282.2733935894177
 20
-3.833052010451819
 10
283.6156587202072
 20
-3.833052010451819
 10
284.0751973845609
 20
-2.11803036704282
 97
        0
 92
        7
 72
     0
 73
     1
 93
       10
 10
288.7483507218539
 20
-0.1286847088604013
 10
287.4871648745873
 20
-0.1286847088604013
 10
286.4945826476577
 20
-3.833052010451819
 10
287.7971444893701
 20
-3.833052010451819
 10
288.2690392535754
 20
-2.071916774610581
 10
288.9761745600253
 20
-3.833052010451819
 10
290.2502193003307
 20
-3.833052010451819
 10
291.2428015272602
 20
-0.1286847088604013
 10
289.9274303877023
 20
-0.1286847088604013
 10
289.4579407366029
 20
-1.880843940391613
 97
        0
 92
        7
 72
     0
 73
     1
 93
        8
 10
290.5569744870735
 20
-3.833052010451819
 10
292.1549710025142
 20
-3.833052010451819
 10
292.4435031343103
 20
-3.304666667674535
 10
293.9468917417563
 20
-3.304666667674535
 10
293.9735978311233
 20
-3.833052010451819
 10
295.277463576274
 20
-3.833052010451819
 10
295.0902343778171
 20
-0.1286847088604013
 10
292.5797955382147
 20
-0.1286847088604013
 97
        0
 92
       22
 72
     0
 73
     1
 93
        3
 10
293.8195289164124
 20
-0.784767583922161
 10
293.9062521549011
 20
-2.500604278163404
 10
292.8825725341604
 20
-2.500604278163404
 97
        0
 92
        7
 72
     1
 73
     1
 93
       12
 10
297.6438454015119
 20
-0.1286847088604013
 42
0.0
 10
296.2096496671404
 20
-0.1286847088604013
 42
0.0
 10
295.5569973090047
 20
-2.564416469103559
 42
0.4488320008137725
 10
296.3444919462121
 20
-3.761252231235037
 42
0.0735650496629369
 10
298.4281251418918
 20
-3.757504604579857
 42
0.2985033964043282
 10
299.2749346878452
 20
-3.0014614585832
 42
0.0
 10
300.044692897968
 20
-0.1286847088604013
 42
0.0
 10
298.5796764988124
 20
-0.1286847088604013
 42
0.0
 10
297.8483526385717
 20
-2.858022512065819
 42
-0.3394542588632696
 10
297.5149595814285
 20
-3.113844002416453
 42
0.0
 10
297.2937876875177
 20
-3.113844002416453
 42
-0.4931454260315976
 10
296.9603946303743
 20
-2.679357711218234
 42
0.0
 97
        0
 92
        7
 72
     0
 73
     1
 93
       12
 10
299.6348290388547
 20
-3.833052010451819
 10
303.4301689806046
 20
-3.833052010451819
 10
303.7029112809062
 20
-2.815163888353804
 10
301.2101331808684
 20
-2.815163888353804
 10
301.3344448044881
 20
-2.351226593033356
 10
303.8272229045261
 20
-2.351226593033356
 10
304.0256169594365
 20
-1.610809900188325
 10
301.5328388593987
 20
-1.610809900188325
 10
301.6568859341478
 20
-1.147859914692627
 10
304.1496640341857
 20
-1.147859914692627
 10
304.4227512075346
 20
-0.1286847088604013
 10
300.6274112657842
 20
-0.1286847088604013
 97
        0
 92
        7
 72
     1
 73
     1
 93
       11
 10
303.9657818770925
 20
-3.833052010451819
 42
0.0
 10
305.268343718805
 20
-3.833052010451819
 42
0.0
 10
305.6926346525084
 20
-2.249576688678789
 42
0.0
 10
306.696162947781
 20
-3.833052010451819
 42
0.0
 10
308.4051674346866
 20
-3.833052010451819
 42
0.0
 10
307.4016391394138
 20
-2.249576688678825
 42
0.0
 10
308.1820572907525
 20
-2.249576688678825
 42
0.3394542588635565
 10
308.9970180971028
 20
-1.624235267820896
 42
0.0
 10
309.1131668262075
 20
-1.190762309566586
 42
0.4931454260311626
 10
308.2982060198574
 20
-0.1286847088604013
 42
0.0
 10
304.9583641040219
 20
-0.1286847088604013
 42
0.0
 97
        0
 92
       22
 72
     1
 73
     1
 93
        6
 10
306.0260469479543
 20
-1.005265062208348
 42
0.0
 10
307.1407898143487
 20
-1.005265062208348
 42
-0.4622189808356573
 10
307.5236489861065
 20
-1.452258333518713
 42
-0.2421880062385626
 10
307.2268657454764
 20
-1.856838623606261
 42
-0.0940682372810069
 10
306.9451960658996
 20
-1.909361291350418
 42
0.0
 10
305.7837950934753
 20
-1.909361291350418
 42
0.0
 97
        0
 75
     0
 76
     1
 47
0.0617673955459683
 98
        8
 10
284.68951620044
 20
-2.304255595414939
 10
288.7694381434732
 20
-1.68658146576298
 10
292.6020922279416
 20
-1.624814138935004
 10
292.6020922279416
 20
-1.624814138935004
 10
296.6201968268812
 20
-1.68658146576298
 10
300.8237534581016
 20
-1.748348792590842
 10
305.2745764300772
 20
-1.377743970250559
 10
305.2745764300772
 20
-1.377743970250559
  0
HATCH
  5
988
330
1B
100
AcDbEntity
 67
     1
  8
RAHMEN025
370
    13
100
AcDbHatch
 10
0.0
 20
0.0
 30
0.0
210
0.0
220
0.0
230
1.0
  2
ANSI31
 70
     0
 71
     0
 91
       12
 92
        7
 72
     0
 73
     1
 93
       12
 10
278.5163071327497
 20
-6.724468250381288
 10
281.0090852327876
 20
-6.724468250381288
 10
281.2074792876975
 20
-5.984051557535988
 10
278.7147011876597
 20
-5.984051557535988
 10
278.8387482624094
 20
-5.521101572040333
 10
281.3315263624472
 20
-5.521101572040329
 10
281.6046135357957
 20
-4.501926366208049
 10
277.8092735940456
 20
-4.501926366208049
 10
276.8166913671155
 20
-8.206293667799407
 10
280.6120313088661
 20
-8.20629366779941
 10
280.8847736091678
 20
-7.18840554570151
 10
278.3919955091298
 20
-7.18840554570151
 97
        0
 92
        7
 72
     0
 73
     1
 93
       10
 10
283.3968052533117
 20
-4.501926366208049
 10
282.1356194060451
 20
-4.501926366208049
 10
281.1430371791152
 20
-8.20629366779941
 10
282.4455990208278
 20
-8.20629366779941
 10
282.9174937850337
 20
-6.445158431958255
 10
283.6246290914829
 20
-8.20629366779941
 10
284.8986738317883
 20
-8.20629366779941
 10
285.8912560587179
 20
-4.501926366208049
 10
284.5758849191599
 20
-4.501926366208049
 10
284.1063952680604
 20
-6.254085597739191
 97
        0
 92
        7
 72
     1
 73
     1
 93
       16
 10
287.417578377742
 20
-5.753102149275409
 42
-0.2918088509345686
 10
287.8202694430579
 20
-5.465212009800474
 42
-0.0567825308446797
 10
289.8219575928528
 20
-5.586717369264725
 42
0.0
 10
290.0859113151165
 20
-4.593451640041102
 42
0.0541842923752296
 10
286.9593576763167
 20
-4.578191266612414
 42
0.2748078422990356
 10
286.1732429342521
 20
-5.163191240503248
 42
0.0595537418813009
 10
285.6417665395288
 20
-7.041853278412659
 42
0.4195581459998819
 10
286.4563950764452
 20
-8.141083315881986
 42
0.0274034260658982
 10
287.233445765667
 20
-8.20629366779941
 42
0.0
 10
289.0603275629352
 20
-8.20629366779941
 42
0.0
 10
289.5659148729169
 20
-6.319416139285163
 42
0.0
 10
288.0011926939197
 20
-6.319416139285163
 42
-0.1650444911529426
 10
287.889276375979
 20
-7.226985407152469
 42
-0.2878146020947726
 10
287.4748528851644
 20
-7.487085659764371
 42
0.0
 10
287.4331626633292
 20
-7.487085659764371
 42
-0.4686158958349675
 10
287.0560000707206
 20
-7.03412671437379
 42
-0.0536408936041017
 97
        0
 92
        7
 72
     0
 73
     1
 93
        4
 10
289.5193529534124
 20
-8.20629366779941
 10
290.861618084202
 20
-8.20629366779941
 10
291.8542003111316
 20
-4.501926366208049
 10
290.5119351803421
 20
-4.501926366208049
 97
        0
 92
        7
 72
     0
 73
     1
 93
       10
 10
293.097951257217
 20
-6.445158431958205
 10
293.8050865636666
 20
-8.20629366779941
 10
295.0791313039719
 20
-8.20629366779941
 10
296.0717135309017
 20
-4.501926366208049
 10
294.7563423913437
 20
-4.501926366208049
 10
294.2868527402442
 20
-6.254085597739241
 10
293.5772627254954
 20
-4.501926366208049
 10
292.3160768782287
 20
-4.501926366208049
 10
291.3234946512988
 20
-8.20629366779941
 10
292.6260564930112
 20
-8.20629366779941
 97
        0
 92
        7
 72
     0
 73
     1
 93
       12
 10
297.4555017512762
 20
-5.984051557535988
 10
297.5795488260255
 20
-5.521101572040333
 10
300.0723269260633
 20
-5.521101572040329
 10
300.345414099412
 20
-4.501926366208049
 10
296.5500741576618
 20
-4.501926366208049
 10
295.557491930732
 20
-8.20629366779941
 10
299.3528318724821
 20
-8.20629366779941
 10
299.6255741727837
 20
-7.18840554570151
 10
297.1327960727458
 20
-7.18840554570151
 10
297.2571076963656
 20
-6.724468250381288
 10
299.7498857964034
 20
-6.724468250381288
 10
299.948279851314
 20
-5.984051557535988
 97
        0
 92
        7
 72
     0
 73
     1
 93
       12
 10
301.6912371248301
 20
-5.984051557535988
 10
301.8152841995798
 20
-5.521101572040333
 10
304.3080622996177
 20
-5.521101572040333
 10
304.5811494729662
 20
-4.501926366208049
 10
300.7858095312161
 20
-4.501926366208049
 10
299.793227304286
 20
-8.206293667799407
 10
303.5885672460366
 20
-8.20629366779941
 10
303.8613095463378
 20
-7.18840554570151
 10
301.3685314463
 20
-7.18840554570151
 10
301.4928430699196
 20
-6.724468250381288
 10
303.9856211699573
 20
-6.724468250381288
 10
304.1840152248681
 20
-5.984051557535988
 97
        0
 92
        7
 72
     1
 73
     1
 93
       11
 10
305.8297369282903
 20
-6.612892523757288
 42
0.0
 10
306.8332652235629
 20
-8.196367845530087
 42
0.0
 10
308.5422697104683
 20
-8.196367845530084
 42
0.0
 10
307.5387414151956
 20
-6.612892523757349
 42
0.0
 10
308.3191595665342
 20
-6.612892523757349
 42
0.3394542588634887
 10
309.1341203728844
 20
-5.987551102899612
 42
0.0
 10
309.2502691019893
 20
-5.55407814464511
 42
0.4931454260311745
 10
308.4353082956391
 20
-4.492000543938896
 42
0.0
 10
305.0954663798037
 20
-4.492000543938896
 42
0.0
 10
304.1028841528741
 20
-8.196367845530087
 42
0.0
 10
305.4054459945866
 20
-8.196367845530087
 42
0.0
 97
        0
 92
       22
 72
     1
 73
     1
 93
        6
 10
305.920897369257
 20
-6.272677126428732
 42
0.0
 10
306.1631492237356
 20
-5.368580897286886
 42
0.0
 10
307.2778920900472
 20
-5.368580897286886
 42
-0.462218980900382
 10
307.6607512618879
 20
-5.815574168596619
 42
-0.2421880062400708
 10
307.3639680212554
 20
-6.220154458685907
 42
-0.0940682372986285
 10
307.0822983416247
 20
-6.272677126428742
 42
0.0
 97
        0
 92
        7
 72
     0
 73
     1
 93
        4
 10
311.3469258812636
 20
-4.501926366208049
 10
310.004660750474
 20
-4.501926366208049
 10
309.0120785235445
 20
-8.20629366779941
 10
310.354343654334
 20
-8.20629366779941
 97
        0
 92
        7
 72
     0
 73
     1
 93
       10
 10
312.5906768273484
 20
-6.445158431957796
 10
313.2978121337982
 20
-8.20629366779941
 10
314.571856874104
 20
-8.20629366779941
 10
315.5644391010336
 20
-4.501926366208049
 10
314.2490679614752
 20
-4.501926366208049
 10
313.7795783103757
 20
-6.254085597739241
 10
313.0699882956269
 20
-4.501926366208049
 10
311.8088024483607
 20
-4.501926366208049
 10
310.8162202214306
 20
-8.20629366779941
 10
312.1187820631432
 20
-8.20629366779941
 97
        0
 92
        7
 72
     1
 73
     1
 93
       16
 10
317.0381783925603
 20
-5.753102149275353
 42
-0.2918088509345139
 10
317.4408694578762
 20
-5.465212009800474
 42
-0.0567825308446765
 10
319.442557607671
 20
-5.586717369264697
 42
0.0
 10
319.7065113299347
 20
-4.593451640041063
 42
0.0541842923752316
 10
316.5799576911347
 20
-4.578191266612464
 42
0.2748078422989353
 10
315.7938429490708
 20
-5.163191240503543
 42
0.0595537418812928
 10
315.2623665543474
 20
-7.041853278412684
 42
0.4195581459999278
 10
316.0769950912639
 20
-8.141083315882057
 42
0.0274034260658874
 10
316.8540457804855
 20
-8.20629366779941
 42
0.0
 10
318.6809275777532
 20
-8.20629366779941
 42
0.0
 10
319.1865148877349
 20
-6.319416139285163
 42
0.0
 10
317.6217927087382
 20
-6.319416139285163
 42
-0.1650444911529743
 10
317.5098763907975
 20
-7.226985407152639
 42
-0.287814602094675
 10
317.095452899983
 20
-7.487085659764371
 42
0.0
 10
317.0537626781473
 20
-7.487085659764371
 42
-0.4686158958349675
 10
316.6766000855387
 20
-7.03412671437379
 42
-0.0536408936041064
 97
        0
 75
     0
 76
     1
 52
0.0
 41
0.1
 77
     0
 78
     1
 53
45.0
 43
-0.7559509631702213
 44
-90.75187176966567
 45
-0.2245064030267288
 46
0.2245064030267288
 79
     0
 47
0.0661482101908399
 98
       12
 10
278.3179493606723
 20
-6.299876709760734
 10
283.4154517532394
 20
-6.101431901799752
 10
286.9241218172921
 20
-6.3660249790811
 10
290.6975980283354
 20
-5.969135363159022
 10
293.5442557605308
 20
-6.101431901799752
 10
296.8543219732454
 20
-5.969135363159022
 10
301.1574074426507
 20
-6.035283632479387
 10
305.6590982812035
 20
-6.035283632479387
 10
305.6590982812035
 20
-6.035283632479387
 10
310.3593929710943
 20
-6.035283632479387
 10
312.4116337801278
 20
-6.035283632479387
 10
316.7809230629949
 20
-5.77069055519804
  0
LWPOLYLINE
  5
989
330
1B
100
AcDbEntity
 67
     1
  8
RAHMEN025
100
AcDbPolyline
 90
        4
 70
     1
 43
0.0
 10
275.9958122333255
 20
-12.00344511179948
 10
320.1958122333255
 20
-12.00344511179948
 10
320.1958122333255
 20
0.7465548882005244
 10
275.9958122333255
 20
0.7465548882005244
  0
TEXT
  5
98A
330
1B
100
AcDbEntity
 67
     1
  8
RAHMEN025
100
AcDbText
 10
276.4947457972097
 20
5.871554888200535
 30
0.0
 40
2.5
  1
Norm
  7
ISO Proportional
100
AcDbText
  0
LINE
  5
98B
330
1B
100
AcDbEntity
 67
     1
  8
RAHMEN025
100
AcDbLine
 10
286.3958122333256
 20
21.99655488820047
 30
0.0
 11
286.3958122333255
 21
0.7465548882005351
 31
0.0
  0
LINE
  5
98C
330
1B
100
AcDbEntity
 67
     1
  8
RAHMEN025
370
     9
100
AcDbLine
 10
291.2428015272603
 20
-0.128684708860419
 30
0.0
 11
289.9274303877023
 21
-0.128684708860419
 31
0.0
  0
LINE
  5
98D
330
1B
100
AcDbEntity
 67
     1
  8
RAHMEN025
370
     9
100
AcDbLine
 10
290.2502193003306
 20
-3.833052010451808
 30
0.0
 11
291.2428015272603
 21
-0.128684708860419
 31
0.0
  0
LINE
  5
98E
330
1B
100
AcDbEntity
 67
     1
  8
DEFPOINTS
370
    13
100
AcDbLine
 10
289.5193529534124
 20
-8.2062936677994
 30
0.0
 11
290.861618084202
 21
-8.2062936677994
 31
0.0
  0
LINE
  5
98F
330
1B
100
AcDbEntity
 67
     1
  8
DEFPOINTS
370
    13
100
AcDbLine
 10
290.511935180342
 20
-4.501926366208067
 30
0.0
 11
289.5193529534124
 21
-8.2062936677994
 31
0.0
  0
TEXT
  5
990
330
1B
100
AcDbEntity
 67
     1
  8
RAHMEN025
100
AcDbText
 10
277.2481247607192
 20
-15.37844511179946
 30
0.0
 40
2.5
  1
Ursprung
  7
ISO Proportional
100
AcDbText
  0
LINE
  5
991
330
1B
100
AcDbEntity
 67
     1
  8
DEFPOINTS
370
    13
100
AcDbLine
 10
281.1430371791153
 20
-8.2062936677994
 30
0.0
 11
282.4455990208278
 21
-8.2062936677994
 31
0.0
  0
LINE
  5
992
330
1B
100
AcDbEntity
 67
     1
  8
DEFPOINTS
370
    13
100
AcDbLine
 10
282.135619406045
 20
-4.501926366208067
 30
0.0
 11
281.1430371791153
 21
-8.2062936677994
 31
0.0
  0
LINE
  5
993
330
1B
100
AcDbEntity
 67
     1
  8
DEFPOINTS
100
AcDbLine
 10
278.5163071327497
 20
-6.724468250381278
 30
0.0
 11
278.402271476496
 21
-7.150055113393307
 31
0.0
  0
LINE
  5
994
330
1B
100
AcDbEntity
 67
     1
  8
DEFPOINTS
370
    13
100
AcDbLine
 10
281.0090852327876
 20
-6.724468250381278
 30
0.0
 11
281.2074792876976
 21
-5.984051557535963
 31
0.0
  0
LINE
  5
995
330
1B
100
AcDbEntity
 67
     1
  8
DEFPOINTS
370
    13
100
AcDbLine
 10
278.5163071327497
 20
-6.724468250381278
 30
0.0
 11
281.0090852327876
 21
-6.724468250381278
 31
0.0
  0
LINE
  5
996
330
1B
100
AcDbEntity
 67
     1
  8
DEFPOINTS
370
    13
100
AcDbLine
 10
278.5163071327497
 20
-6.724468250381278
 30
0.0
 11
278.3919955091298
 21
-7.188405545701527
 31
0.0
  0
LINE
  5
997
330
1B
100
AcDbEntity
 67
     1
  8
DEFPOINTS
370
    13
100
AcDbLine
 10
278.3919955091298
 20
-7.188405545701527
 30
0.0
 11
280.895049576534
 21
-7.188405545701527
 31
0.0
  0
LINE
  5
998
330
1B
100
AcDbEntity
 67
     1
  8
DEFPOINTS
370
    13
100
AcDbLine
 10
280.612031308866
 20
-8.2062936677994
 30
0.0
 11
280.8847736091678
 21
-7.188405545701527
 31
0.0
  0
LINE
  5
999
330
1B
100
AcDbEntity
 67
     1
  8
DEFPOINTS
370
    13
100
AcDbLine
 10
281.3315263624472
 20
-5.521101572040322
 30
0.0
 11
278.8284722950431
 21
-5.521101572040322
 31
0.0
  0
LINE
  5
99A
330
1B
100
AcDbEntity
 67
     1
  8
DEFPOINTS
370
    13
100
AcDbLine
 10
278.8387482624094
 20
-5.521101572040322
 30
0.0
 11
278.7147011876597
 21
-5.984051557535963
 31
0.0
  0
LINE
  5
99B
330
1B
100
AcDbEntity
 67
     1
  8
DEFPOINTS
370
    13
100
AcDbLine
 10
281.2074792876976
 20
-5.984051557535963
 30
0.0
 11
278.7147011876597
 21
-5.984051557535963
 31
0.0
  0
LINE
  5
99C
330
1B
100
AcDbEntity
 67
     1
  8
DEFPOINTS
370
    13
100
AcDbLine
 10
281.3315263624472
 20
-5.521101572040322
 30
0.0
 11
281.6046135357956
 21
-4.501926366208067
 31
0.0
  0
LINE
  5
99D
330
1B
100
AcDbEntity
 67
     1
  8
DEFPOINTS
370
    13
100
AcDbLine
 10
277.8092735940457
 20
-4.501926366208067
 30
0.0
 11
276.8166913671155
 21
-8.2062936677994
 31
0.0
  0
LINE
  5
99E
330
1B
100
AcDbEntity
 67
     1
  8
DEFPOINTS
370
    13
100
AcDbLine
 10
281.6046135357956
 20
-4.501926366208067
 30
0.0
 11
277.8092735940457
 21
-4.501926366208067
 31
0.0
  0
LINE
  5
99F
330
1B
100
AcDbEntity
 67
     1
  8
DEFPOINTS
370
    13
100
AcDbLine
 10
276.816691367116
 20
-8.2062936677994
 30
0.0
 11
280.612031308866
 21
-8.2062936677994
 31
0.0
  0
ARC
  5
9A0
330
1B
100
AcDbEntity
 67
     1
  8
DEFPOINTS
100
AcDbCircle
 10
288.2350335600731
 20
-7.055780698551188
 30
0.0
 40
1.150512969248243
100
AcDbArc
 50
270.0
 51
270.0
  0
ARC
  5
9A1
330
1B
100
AcDbEntity
 67
     1
  8
DEFPOINTS
370
    13
100
AcDbCircle
 10
293.1899833688925
 20
-8.073945878108532
 30
0.0
 40
6.22149298766157
100
AcDbArc
 50
158.0969939507943
 51
170.4856136403676
  0
ARC
  5
9A2
330
1B
100
AcDbEntity
 67
     1
  8
DEFPOINTS
370
    13
100
AcDbCircle
 10
287.4331626633292
 20
-7.1035813366816
 30
0.0
 40
0.3835043230827479
100
AcDbArc
 50
171.2985646492635
 51
270.0
  0
LINE
  5
9A3
330
1B
100
AcDbEntity
 67
     1
  8
DEFPOINTS
370
    13
100
AcDbLine
 10
287.4331626633292
 20
-7.487085659764375
 30
0.0
 11
287.4748528851648
 21
-7.487085659764375
 31
0.0
  0
ARC
  5
9A4
330
1B
100
AcDbEntity
 67
     1
  8
DEFPOINTS
370
    13
100
AcDbCircle
 10
287.4748528851648
 20
-7.026880472064874
 30
0.0
 40
0.4602051876992975
100
AcDbArc
 50
270.0
 51
334.2263645027491
  0
ARC
  5
9A5
330
1B
100
AcDbEntity
 67
     1
  8
DEFPOINTS
370
    13
100
AcDbCircle
 10
286.6079475985894
 20
-6.608294098603039
 30
0.0
 40
1.422878199650913
100
AcDbArc
 50
334.2263645027383
 51
11.71383119333059
  0
LINE
  5
9A6
330
1B
100
AcDbEntity
 67
     1
  8
DEFPOINTS
370
    13
100
AcDbLine
 10
288.00119269392
 20
-6.319416139285181
 30
0.0
 11
289.5659148729169
 21
-6.319416139285181
 31
0.0
  0
LINE
  5
9A7
330
1B
100
AcDbEntity
 67
     1
  8
DEFPOINTS
370
    13
100
AcDbLine
 10
289.0603275629351
 20
-8.2062936677994
 30
0.0
 11
289.5659148729169
 21
-6.319416139285181
 31
0.0
  0
LINE
  5
9A8
330
1B
100
AcDbEntity
 67
     1
  8
DEFPOINTS
370
    13
100
AcDbLine
 10
289.0603275629351
 20
-8.2062936677994
 30
0.0
 11
287.3312832317957
 21
-8.2062936677994
 31
0.0
  0
ARC
  5
9A9
330
1B
100
AcDbEntity
 67
     1
  8
DEFPOINTS
370
    13
100
AcDbCircle
 10
287.4393842500773
 20
-1.090019803114728
 30
0.0
 40
7.119253077153191
100
AcDbArc
 50
262.0635437036931
 51
271.6576250419802
  0
LINE
  5
9AA
330
1B
100
AcDbEntity
 67
     1
  8
DEFPOINTS
370
    13
100
AcDbLine
 10
289.8219575928528
 20
-5.586717369264817
 30
0.0
 11
290.0859113151165
 21
-4.593451640041109
 31
0.0
  0
ARC
  5
9AB
330
1B
100
AcDbEntity
 67
     1
  8
DEFPOINTS
370
    13
100
AcDbCircle
 10
288.2878791177731
 20
-14.3105070719755
 30
0.0
 40
8.85764661435673
100
AcDbArc
 50
80.0265067162775
 51
93.02614479233048
  0
ARC
  5
9AC
330
1B
100
AcDbEntity
 67
     1
  8
DEFPOINTS
370
    13
100
AcDbCircle
 10
287.8445644287907
 20
-5.924775464019376
 30
0.0
 40
0.4602051876992975
100
AcDbArc
 50
93.02614479233048
 51
158.0969939507943
  0
ARC
  5
9AD
330
1B
100
AcDbEntity
 67
     1
  8
DEFPOINTS
370
    13
100
AcDbCircle
 10
287.0582996888154
 20
-5.531833109527156
 30
0.0
 40
0.9587608077068694
100
AcDbArc
 50
95.92334440423654
 51
157.3874044007997
  0
ARC
  5
9AE
330
1B
100
AcDbEntity
 67
     1
  8
DEFPOINTS
370
    13
100
AcDbCircle
 10
288.4524316322184
 20
-18.96902245100784
 30
0.0
 40
14.46807838019826
100
AcDbArc
 50
83.51735091136808
 51
95.92334440423654
  0
LINE
  5
9AF
330
1B
100
AcDbEntity
 67
     1
  8
DEFPOINTS
370
    13
100
AcDbLine
 10
285.8912560587183
 20
-4.501926366208067
 30
0.0
 11
284.57588491916
 21
-4.501926366208067
 31
0.0
  0
LINE
  5
9B0
330
1B
100
AcDbEntity
 67
     1
  8
DEFPOINTS
370
    13
100
AcDbLine
 10
283.3968052533117
 20
-4.501926366208067
 30
0.0
 11
282.135619406045
 21
-4.501926366208067
 31
0.0
  0
LINE
  5
9B1
330
1B
100
AcDbEntity
 67
     1
  8
DEFPOINTS
370
    13
100
AcDbLine
 10
283.6246290914829
 20
-8.2062936677994
 30
0.0
 11
284.8986738317882
 21
-8.2062936677994
 31
0.0
  0
LINE
  5
9B2
330
1B
100
AcDbEntity
 67
     1
  8
DEFPOINTS
370
    13
100
AcDbLine
 10
283.6246290914829
 20
-8.2062936677994
 30
0.0
 11
282.9174937850337
 21
-6.445158431958248
 31
0.0
  0
LINE
  5
9B3
330
1B
100
AcDbEntity
 67
     1
  8
DEFPOINTS
370
    13
100
AcDbLine
 10
282.9174937850337
 20
-6.445158431958248
 30
0.0
 11
282.4455990208278
 21
-8.2062936677994
 31
0.0
  0
LINE
  5
9B4
330
1B
100
AcDbEntity
 67
     1
  8
DEFPOINTS
370
    13
100
AcDbLine
 10
283.3968052533117
 20
-4.501926366208067
 30
0.0
 11
284.1063952680604
 21
-6.254085597739219
 31
0.0
  0
LINE
  5
9B5
330
1B
100
AcDbEntity
 67
     1
  8
DEFPOINTS
370
    13
100
AcDbLine
 10
284.1063952680604
 20
-6.254085597739219
 30
0.0
 11
284.57588491916
 21
-4.501926366208067
 31
0.0
  0
LINE
  5
9B6
330
1B
100
AcDbEntity
 67
     1
  8
DEFPOINTS
370
    13
100
AcDbLine
 10
284.8986738317882
 20
-8.2062936677994
 30
0.0
 11
285.8912560587179
 21
-4.501926366208067
 31
0.0
  0
ARC
  5
9B7
330
1B
100
AcDbEntity
 67
     1
  8
DEFPOINTS
370
    13
100
AcDbCircle
 10
286.5887757467016
 20
-7.191505702130768
 30
0.0
 40
0.9587608077068694
100
AcDbArc
 50
171.0200151799534
 51
262.0635437036931
  0
ARC
  5
9B8
330
1B
100
AcDbEntity
 67
     1
  8
DEFPOINTS
370
    13
100
AcDbCircle
 10
293.7659491666203
 20
-8.325688336893847
 30
0.0
 40
8.224997010073714
100
AcDbArc
 50
157.3874044007953
 51
171.0200151799534
  0
LWPOLYLINE
  5
9B9
102
{ACAD_REACTORS
330
9BA
102
}
330
1B
100
AcDbEntity
 67
     1
  8
RAHMEN025
 62
   154
370
     9
100
AcDbPolyline
 90
        4
 70
     1
 43
0.0
 10
278.6619303764727
 20
-1.550682328191523
 10
278.0663810403144
 20
-3.773302709146488
 10
281.5179199480592
 20
-3.773302709146488
 10
282.1134692842174
 20
-1.550682328191523
  0
HATCH
  5
9BA
330
1B
100
AcDbEntity
 67
     1
  8
RAHMEN025
 62
   154
370
     9
100
AcDbHatch
 10
0.0
 20
0.0
 30
0.0
210
0.0
220
0.0
230
1.0
  2
SOLID
 70
     1
 71
     1
 91
        1
 92
        7
 72
     0
 73
     1
 93
        4
 10
281.5179199480592
 20
-3.773302709146488
 10
282.1134692842174
 20
-1.550682328191523
 10
278.6619303764727
 20
-1.550682328191523
 10
278.0663810403145
 20
-3.773302709146488
 97
        1
330
9B9
 75
     0
 76
     1
 47
0.0587514446152511
 98
        1
 10
279.869873116305
 20
-2.967317185116154
  0
LINE
  5
9BB
330
1B
100
AcDbEntity
 67
     1
  8
RAHMEN025
370
     9
100
AcDbLine
 10
288.748350721854
 20
-0.128684708860419
 30
0.0
 11
289.4579407366029
 21
-1.880843940391571
 31
0.0
  0
LINE
  5
9BC
330
1B
100
AcDbEntity
 67
     1
  8
RAHMEN025
370
     9
100
AcDbLine
 10
289.4579407366029
 20
-1.880843940391571
 30
0.0
 11
289.9274303877023
 21
-0.128684708860419
 31
0.0
  0
LINE
  5
9BD
330
1B
100
AcDbEntity
 67
     1
  8
RAHMEN025
370
     9
100
AcDbLine
 10
288.9761745600253
 20
-3.833052010451808
 30
0.0
 11
290.2502193003306
 21
-3.833052010451808
 31
0.0
  0
LINE
  5
9BE
330
1B
100
AcDbEntity
 67
     1
  8
RAHMEN025
370
     9
100
AcDbLine
 10
288.9761745600253
 20
-3.833052010451808
 30
0.0
 11
288.2690392535755
 21
-2.071916774610599
 31
0.0
  0
LINE
  5
9BF
330
1B
100
AcDbEntity
 67
     1
  8
RAHMEN025
370
     9
100
AcDbLine
 10
288.2690392535755
 20
-2.071916774610599
 30
0.0
 11
287.7971444893701
 21
-3.833052010451808
 31
0.0
  0
LINE
  5
9C0
330
1B
100
AcDbEntity
 67
     1
  8
RAHMEN025
370
     9
100
AcDbLine
 10
286.4945826476576
 20
-3.833052010451808
 30
0.0
 11
287.7971444893701
 21
-3.833052010451808
 31
0.0
  0
LINE
  5
9C1
330
1B
100
AcDbEntity
 67
     1
  8
RAHMEN025
370
     9
100
AcDbLine
 10
287.4871648745873
 20
-0.128684708860419
 30
0.0
 11
286.4945826476576
 21
-3.833052010451808
 31
0.0
  0
LINE
  5
9C2
330
1B
100
AcDbEntity
 67
     1
  8
RAHMEN025
370
     9
100
AcDbLine
 10
288.748350721854
 20
-0.128684708860419
 30
0.0
 11
287.4871648745873
 21
-0.128684708860419
 31
0.0
  0
LINE
  5
9C3
330
1B
100
AcDbEntity
 67
     1
  8
RAHMEN025
370
     9
100
AcDbLine
 10
284.0751973845609
 20
-2.118030367042877
 30
0.0
 11
284.7038109088916
 21
-3.819763179545816
 31
0.0
  0
LINE
  5
9C4
330
1B
100
AcDbEntity
 67
     1
  8
RAHMEN025
370
     9
100
AcDbLine
 10
284.0751973845609
 20
-2.118030367042877
 30
0.0
 11
283.6156587202072
 21
-3.833052010451808
 31
0.0
  0
LINE
  5
9C5
330
1B
100
AcDbEntity
 67
     1
  8
RAHMEN025
370
     9
100
AcDbLine
 10
282.2733935894177
 20
-3.833052010451808
 30
0.0
 11
283.6156587202072
 21
-3.833052010451808
 31
0.0
  0
LINE
  5
9C6
330
1B
100
AcDbEntity
 67
     1
  8
RAHMEN025
370
     9
100
AcDbLine
 10
283.2659758163476
 20
-0.128684708860419
 30
0.0
 11
282.2733935894177
 21
-3.833052010451808
 31
0.0
  0
LINE
  5
9C7
330
1B
100
AcDbEntity
 67
     1
  8
RAHMEN025
370
     9
100
AcDbLine
 10
284.6082409471372
 20
-0.128684708860419
 30
0.0
 11
283.2659758163476
 21
-0.128684708860419
 31
0.0
  0
LINE
  5
9C8
330
1B
100
AcDbEntity
 67
     1
  8
RAHMEN025
370
     9
100
AcDbLine
 10
284.6082409471372
 20
-0.128684708860419
 30
0.0
 11
284.2104415458862
 21
-1.613292285549619
 31
0.0
  0
LINE
  5
9C9
330
1B
100
AcDbEntity
 67
     1
  8
RAHMEN025
370
     9
100
AcDbLine
 10
285.5065327373302
 20
-0.128684708860419
 30
0.0
 11
284.2104415458862
 21
-1.613292285549619
 31
0.0
  0
LINE
  5
9CA
330
1B
100
AcDbEntity
 67
     1
  8
RAHMEN025
370
     9
100
AcDbLine
 10
285.4420210282949
 20
-2.028983889041739
 30
0.0
 11
286.1084368202451
 21
-3.833052010451808
 31
0.0
  0
LINE
  5
9CB
330
1B
100
AcDbEntity
 67
     1
  8
RAHMEN025
370
     9
100
AcDbLine
 10
284.6678364369513
 20
-3.833052010451808
 30
0.0
 11
286.1084368202451
 21
-3.833052010451808
 31
0.0
  0
LINE
  5
9CC
330
1B
100
AcDbEntity
 67
     1
  8
RAHMEN025
370
     9
100
AcDbLine
 10
287.101019047175
 20
-0.128684708860419
 30
0.0
 11
285.5065327373302
 21
-0.128684708860419
 31
0.0
  0
LINE
  5
9CD
330
1B
100
AcDbEntity
 67
     1
  8
RAHMEN025
370
     9
100
AcDbLine
 10
287.101019047175
 20
-0.128684708860419
 30
0.0
 11
285.4420210282949
 21
-2.028983889041739
 31
0.0
  0
LINE
  5
9CE
330
1B
100
AcDbEntity
 67
     1
  8
DEFPOINTS
370
    13
100
AcDbLine
 10
299.9482798513141
 20
-5.984051557535963
 30
0.0
 11
297.4555017512762
 21
-5.984051557535963
 31
0.0
  0
LINE
  5
9CF
330
1B
100
AcDbEntity
 67
     1
  8
DEFPOINTS
370
    13
100
AcDbLine
 10
297.2571076963656
 20
-6.724468250381278
 30
0.0
 11
299.7498857964034
 21
-6.724468250381278
 31
0.0
  0
LINE
  5
9D0
330
1B
100
AcDbEntity
 67
     1
  8
DEFPOINTS
370
    13
100
AcDbLine
 10
297.1327960727459
 20
-7.188405545701527
 30
0.0
 11
299.6358501401499
 21
-7.188405545701527
 31
0.0
  0
LINE
  5
9D1
330
1B
100
AcDbEntity
 67
     1
  8
DEFPOINTS
370
    13
100
AcDbLine
 10
295.557491930732
 20
-8.2062936677994
 30
0.0
 11
299.3528318724821
 21
-8.2062936677994
 31
0.0
  0
LINE
  5
9D2
330
1B
100
AcDbEntity
 67
     1
  8
DEFPOINTS
370
    13
100
AcDbLine
 10
300.0723269260633
 20
-5.521101572040322
 30
0.0
 11
297.569272858659
 21
-5.521101572040322
 31
0.0
  0
LINE
  5
9D3
330
1B
100
AcDbEntity
 67
     1
  8
DEFPOINTS
370
    13
100
AcDbLine
 10
300.345414099412
 20
-4.501926366208067
 30
0.0
 11
296.5500741576617
 21
-4.501926366208067
 31
0.0
  0
LINE
  5
9D4
330
1B
100
AcDbEntity
 67
     1
  8
DEFPOINTS
370
    13
100
AcDbLine
 10
296.0717135309017
 20
-4.501926366208067
 30
0.0
 11
294.7563423913438
 21
-4.501926366208067
 31
0.0
  0
LINE
  5
9D5
330
1B
100
AcDbEntity
 67
     1
  8
DEFPOINTS
100
AcDbLine
 10
297.2571076963656
 20
-6.724468250381278
 30
0.0
 11
297.1430720401121
 21
-7.150055113393307
 31
0.0
  0
LINE
  5
9D6
330
1B
100
AcDbEntity
 67
     1
  8
DEFPOINTS
370
    13
100
AcDbLine
 10
297.5795488260255
 20
-5.521101572040322
 30
0.0
 11
297.4555017512762
 21
-5.984051557535963
 31
0.0
  0
LINE
  5
9D7
330
1B
100
AcDbEntity
 67
     1
  8
DEFPOINTS
370
    13
100
AcDbLine
 10
297.2571076963656
 20
-6.724468250381278
 30
0.0
 11
297.1327960727459
 21
-7.188405545701527
 31
0.0
  0
LINE
  5
9D8
330
1B
100
AcDbEntity
 67
     1
  8
DEFPOINTS
370
    13
100
AcDbLine
 10
296.5500741576617
 20
-4.501926366208067
 30
0.0
 11
295.557491930732
 21
-8.2062936677994
 31
0.0
  0
LINE
  5
9D9
330
1B
100
AcDbEntity
 67
     1
  8
DEFPOINTS
370
    13
100
AcDbLine
 10
295.0791313039719
 20
-8.2062936677994
 30
0.0
 11
296.0717135309017
 21
-4.501926366208067
 31
0.0
  0
LINE
  5
9DA
330
1B
100
AcDbEntity
 67
     1
  8
DEFPOINTS
370
    13
100
AcDbLine
 10
293.5772627254954
 20
-4.501926366208067
 30
0.0
 11
292.3160768782287
 21
-4.501926366208067
 31
0.0
  0
LINE
  5
9DB
330
1B
100
AcDbEntity
 67
     1
  8
DEFPOINTS
370
    13
100
AcDbLine
 10
291.8542003111316
 20
-4.501926366208067
 30
0.0
 11
290.511935180342
 21
-4.501926366208067
 31
0.0
  0
LINE
  5
9DC
330
1B
100
AcDbEntity
 67
     1
  8
DEFPOINTS
370
    13
100
AcDbLine
 10
293.8050865636666
 20
-8.2062936677994
 30
0.0
 11
293.0979512572169
 21
-6.445158431958248
 31
0.0
  0
LINE
  5
9DD
330
1B
100
AcDbEntity
 67
     1
  8
DEFPOINTS
370
    13
100
AcDbLine
 10
293.0979512572169
 20
-6.445158431958248
 30
0.0
 11
292.6260564930112
 21
-8.2062936677994
 31
0.0
  0
LINE
  5
9DE
330
1B
100
AcDbEntity
 67
     1
  8
DEFPOINTS
370
    13
100
AcDbLine
 10
291.3234946512989
 20
-8.2062936677994
 30
0.0
 11
292.6260564930112
 21
-8.2062936677994
 31
0.0
  0
LINE
  5
9DF
330
1B
100
AcDbEntity
 67
     1
  8
DEFPOINTS
370
    13
100
AcDbLine
 10
293.5772627254954
 20
-4.501926366208067
 30
0.0
 11
294.2868527402442
 21
-6.254085597739219
 31
0.0
  0
LINE
  5
9E0
330
1B
100
AcDbEntity
 67
     1
  8
DEFPOINTS
370
    13
100
AcDbLine
 10
292.3160768782287
 20
-4.501926366208067
 30
0.0
 11
291.3234946512989
 21
-8.2062936677994
 31
0.0
  0
LINE
  5
9E1
330
1B
100
AcDbEntity
 67
     1
  8
DEFPOINTS
370
    13
100
AcDbLine
 10
291.8542003111316
 20
-4.501926366208067
 30
0.0
 11
290.861618084202
 21
-8.2062936677994
 31
0.0
  0
LINE
  5
9E2
330
1B
100
AcDbEntity
 67
     1
  8
DEFPOINTS
370
    13
100
AcDbLine
 10
293.8050865636666
 20
-8.2062936677994
 30
0.0
 11
295.0791313039719
 21
-8.2062936677994
 31
0.0
  0
LINE
  5
9E3
330
1B
100
AcDbEntity
 67
     1
  8
DEFPOINTS
370
    13
100
AcDbLine
 10
294.2868527402442
 20
-6.254085597739219
 30
0.0
 11
294.7563423913438
 21
-4.501926366208067
 31
0.0
  0
LINE
  5
9E4
330
1B
100
AcDbEntity
 67
     1
  8
DEFPOINTS
370
    13
100
AcDbLine
 10
305.920897369257
 20
-6.272677126428732
 30
0.0
 11
306.1631492237355
 21
-5.368580897286904
 31
0.0
  0
LINE
  5
9E5
330
1B
100
AcDbEntity
 67
     1
  8
DEFPOINTS
370
    13
100
AcDbLine
 10
307.0872651434264
 20
-6.272677126428732
 30
0.0
 11
305.920897369257
 21
-6.272677126428732
 31
0.0
  0
LINE
  5
9E6
330
1B
100
AcDbEntity
 67
     1
  8
DEFPOINTS
370
    13
100
AcDbLine
 10
305.8297369282904
 20
-6.612892523757352
 30
0.0
 11
306.8332652235629
 21
-8.196367845530062
 31
0.0
  0
LINE
  5
9E7
330
1B
100
AcDbEntity
 67
     1
  8
DEFPOINTS
370
    13
100
AcDbLine
 10
305.8297369282904
 20
-6.612892523757352
 30
0.0
 11
305.4054459945866
 21
-8.196367845530062
 31
0.0
  0
LINE
  5
9E8
330
1B
100
AcDbEntity
 67
     1
  8
DEFPOINTS
370
    13
100
AcDbLine
 10
304.1028841528742
 20
-8.196367845530062
 30
0.0
 11
305.4054459945866
 21
-8.196367845530062
 31
0.0
  0
LINE
  5
9E9
330
1B
100
AcDbEntity
 67
     1
  8
DEFPOINTS
370
    13
100
AcDbLine
 10
303.9856211699574
 20
-6.724468250381278
 30
0.0
 11
304.1840152248681
 21
-5.984051557535963
 31
0.0
  0
LINE
  5
9EA
330
1B
100
AcDbEntity
 67
     1
  8
DEFPOINTS
370
    13
100
AcDbLine
 10
303.5885672460366
 20
-8.2062936677994
 30
0.0
 11
303.8613095463378
 21
-7.188405545701527
 31
0.0
  0
LINE
  5
9EB
330
1B
100
AcDbEntity
 67
     1
  8
DEFPOINTS
370
    13
100
AcDbLine
 10
305.0954663798037
 20
-4.4920005439389
 30
0.0
 11
304.1002245368129
 21
-8.2062936677994
 31
0.0
  0
LINE
  5
9EC
330
1B
100
AcDbEntity
 67
     1
  8
DEFPOINTS
370
    13
100
AcDbLine
 10
304.3080622996177
 20
-5.521101572040322
 30
0.0
 11
304.5811494729661
 21
-4.501926366208067
 31
0.0
  0
LINE
  5
9ED
330
1B
100
AcDbEntity
 67
     1
  8
DEFPOINTS
100
AcDbLine
 10
301.4928430699196
 20
-6.724468250381278
 30
0.0
 11
301.3788074136666
 21
-7.150055113393307
 31
0.0
  0
LINE
  5
9EE
330
1B
100
AcDbEntity
 67
     1
  8
DEFPOINTS
370
    13
100
AcDbLine
 10
301.4928430699196
 20
-6.724468250381278
 30
0.0
 11
301.3685314463
 21
-7.188405545701527
 31
0.0
  0
LINE
  5
9EF
330
1B
100
AcDbEntity
 67
     1
  8
DEFPOINTS
370
    13
100
AcDbLine
 10
301.8152841995798
 20
-5.521101572040322
 30
0.0
 11
301.6912371248301
 21
-5.984051557535963
 31
0.0
  0
LINE
  5
9F0
330
1B
100
AcDbEntity
 67
     1
  8
DEFPOINTS
370
    13
100
AcDbLine
 10
299.7498857964034
 20
-6.724468250381278
 30
0.0
 11
299.9482798513141
 21
-5.984051557535963
 31
0.0
  0
LINE
  5
9F1
330
1B
100
AcDbEntity
 67
     1
  8
DEFPOINTS
370
    13
100
AcDbLine
 10
299.3528318724821
 20
-8.2062936677994
 30
0.0
 11
299.6255741727837
 21
-7.188405545701527
 31
0.0
  0
LINE
  5
9F2
330
1B
100
AcDbEntity
 67
     1
  8
DEFPOINTS
370
    13
100
AcDbLine
 10
300.7858095312161
 20
-4.501926366208067
 30
0.0
 11
299.793227304286
 21
-8.2062936677994
 31
0.0
  0
LINE
  5
9F3
330
1B
100
AcDbEntity
 67
     1
  8
DEFPOINTS
370
    13
100
AcDbLine
 10
300.0723269260633
 20
-5.521101572040322
 30
0.0
 11
300.345414099412
 21
-4.501926366208067
 31
0.0
  0
LINE
  5
9F4
330
1B
100
AcDbEntity
 67
     1
  8
DEFPOINTS
370
    13
100
AcDbLine
 10
304.5811494729661
 20
-4.501926366208067
 30
0.0
 11
300.7858095312161
 21
-4.501926366208067
 31
0.0
  0
LINE
  5
9F5
330
1B
100
AcDbEntity
 67
     1
  8
DEFPOINTS
370
    13
100
AcDbLine
 10
301.4928430699196
 20
-6.724468250381278
 30
0.0
 11
303.9856211699574
 21
-6.724468250381278
 31
0.0
  0
LINE
  5
9F6
330
1B
100
AcDbEntity
 67
     1
  8
DEFPOINTS
370
    13
100
AcDbLine
 10
301.3685314463
 20
-7.188405545701527
 30
0.0
 11
303.8715855137045
 21
-7.188405545701527
 31
0.0
  0
LINE
  5
9F7
330
1B
100
AcDbEntity
 67
     1
  8
DEFPOINTS
370
    13
100
AcDbLine
 10
304.3080622996177
 20
-5.521101572040322
 30
0.0
 11
301.8050082322135
 21
-5.521101572040322
 31
0.0
  0
LINE
  5
9F8
330
1B
100
AcDbEntity
 67
     1
  8
DEFPOINTS
370
    13
100
AcDbLine
 10
304.1840152248681
 20
-5.984051557535963
 30
0.0
 11
301.6912371248301
 21
-5.984051557535963
 31
0.0
  0
LINE
  5
9F9
330
1B
100
AcDbEntity
 67
     1
  8
DEFPOINTS
370
    13
100
AcDbLine
 10
299.793227304286
 20
-8.2062936677994
 30
0.0
 11
303.5885672460366
 21
-8.2062936677994
 31
0.0
  0
LINE
  5
9FA
330
1B
100
AcDbEntity
 67
     1
  8
RAHMEN025
370
     9
100
AcDbLine
 10
300.044692897968
 20
-0.128684708860419
 30
0.0
 11
298.5796764988124
 21
-0.128684708860419
 31
0.0
  0
ARC
  5
9FB
330
1B
100
AcDbEntity
 67
     1
  8
RAHMEN025
370
     9
100
AcDbCircle
 10
298.2747555164152
 20
-2.73346425731222
 30
0.0
 40
1.035461672323419
100
AcDbArc
 50
278.5178280220953
 51
344.9999999999992
  0
LINE
  5
9FC
330
1B
100
AcDbEntity
 67
     1
  8
RAHMEN025
370
     9
100
AcDbLine
 10
297.6438454015119
 20
-0.128684708860419
 30
0.0
 11
296.9603946303742
 21
-2.679357711218415
 31
0.0
  0
ARC
  5
9FD
330
1B
100
AcDbEntity
 67
     1
  8
RAHMEN025
370
     9
100
AcDbCircle
 10
297.2937876875177
 20
-2.768690111642115
 30
0.0
 40
0.3451538907744731
100
AcDbArc
 50
164.9999999999992
 51
270.0
  0
LINE
  5
9FE
330
1B
100
AcDbEntity
 67
     1
  8
RAHMEN025
370
     9
100
AcDbLine
 10
297.5149595814284
 20
-3.113844002416442
 30
0.0
 11
297.2937876875177
 21
-3.113844002416442
 31
0.0
  0
ARC
  5
9FF
330
1B
100
AcDbEntity
 67
     1
  8
RAHMEN025
370
     9
100
AcDbCircle
 10
297.5149595814284
 20
-2.768690111642115
 30
0.0
 40
0.3451538907744731
100
AcDbArc
 50
270.0
 51
344.9999999999992
  0
LINE
  5
A00
330
1B
100
AcDbEntity
 67
     1
  8
RAHMEN025
370
     9
100
AcDbLine
 10
297.8483526385717
 20
-2.858022512065872
 30
0.0
 11
298.5796764988124
 21
-0.128684708860419
 31
0.0
  0
ARC
  5
A01
330
1B
100
AcDbEntity
 67
     1
  8
RAHMEN025
370
     9
100
AcDbCircle
 10
297.3736417097183
 20
3.283221854232976
 30
0.0
 40
7.119253077153191
100
AcDbArc
 50
261.6882763531174
 51
278.5178280220953
  0
ARC
  5
A02
330
1B
100
AcDbEntity
 67
     1
  8
RAHMEN025
370
     9
100
AcDbCircle
 10
296.4830891344024
 20
-2.812562025835802
 30
0.0
 40
0.9587608077068694
100
AcDbArc
 50
164.9999999999992
 51
261.6882763531174
  0
LINE
  5
A03
330
1B
100
AcDbEntity
 67
     1
  8
RAHMEN025
370
     9
100
AcDbLine
 10
296.2096496671404
 20
-0.128684708860419
 30
0.0
 11
295.5569973090048
 21
-2.564416469103377
 31
0.0
  0
LINE
  5
A04
330
1B
100
AcDbEntity
 67
     1
  8
RAHMEN025
370
     9
100
AcDbLine
 10
297.6438454015119
 20
-0.128684708860419
 30
0.0
 11
296.2096496671404
 21
-0.128684708860419
 31
0.0
  0
LINE
  5
A05
330
1B
100
AcDbEntity
 67
     1
  8
RAHMEN025
370
     9
100
AcDbLine
 10
295.2775614205275
 20
-3.83498787866057
 30
0.0
 11
295.0902343778171
 21
-0.128684708860419
 31
0.0
  0
LINE
  5
A06
330
1B
100
AcDbEntity
 67
     1
  8
RAHMEN025
370
     9
100
AcDbLine
 10
292.8825725341603
 20
-2.500604278163393
 30
0.0
 11
293.8195289164124
 21
-0.7847675839220756
 31
0.0
  0
LINE
  5
A07
330
1B
100
AcDbEntity
 67
     1
  8
RAHMEN025
370
     9
100
AcDbLine
 10
292.8825725341603
 20
-2.500604278163393
 30
0.0
 11
293.906252154901
 21
-2.500604278163393
 31
0.0
  0
LINE
  5
A08
330
1B
100
AcDbEntity
 67
     1
  8
RAHMEN025
370
     9
100
AcDbLine
 10
293.906252154901
 20
-2.500604278163393
 30
0.0
 11
293.8195289164124
 21
-0.7847675839220756
 31
0.0
  0
LINE
  5
A09
330
1B
100
AcDbEntity
 67
     1
  8
RAHMEN025
370
     9
100
AcDbLine
 10
293.9735978311233
 20
-3.833052010451808
 30
0.0
 11
293.9468917417564
 21
-3.304666667674553
 31
0.0
  0
LINE
  5
A0A
330
1B
100
AcDbEntity
 67
     1
  8
RAHMEN025
370
     9
100
AcDbLine
 10
292.4435031343103
 20
-3.304666667674553
 30
0.0
 11
293.9468917417564
 21
-3.304666667674553
 31
0.0
  0
LINE
  5
A0B
330
1B
100
AcDbEntity
 67
     1
  8
RAHMEN025
370
     9
100
AcDbLine
 10
292.1549710025142
 20
-3.833052010451808
 30
0.0
 11
292.4435031343103
 21
-3.304666667674553
 31
0.0
  0
LINE
  5
A0C
330
1B
100
AcDbEntity
 67
     1
  8
RAHMEN025
370
     9
100
AcDbLine
 10
290.5569744870735
 20
-3.833052010451808
 30
0.0
 11
292.1549710025142
 21
-3.833052010451808
 31
0.0
  0
LINE
  5
A0D
330
1B
100
AcDbEntity
 67
     1
  8
RAHMEN025
370
     9
100
AcDbLine
 10
290.5569744870735
 20
-3.833052010451808
 30
0.0
 11
292.5797955382147
 21
-0.128684708860419
 31
0.0
  0
LINE
  5
A0E
330
1B
100
AcDbEntity
 67
     1
  8
RAHMEN025
370
     9
100
AcDbLine
 10
293.9735978311233
 20
-3.833052010451808
 30
0.0
 11
295.277463576274
 21
-3.833052010451808
 31
0.0
  0
LINE
  5
A0F
330
1B
100
AcDbEntity
 67
     1
  8
RAHMEN025
370
     9
100
AcDbLine
 10
295.0902343778171
 20
-0.128684708860419
 30
0.0
 11
292.5797955382147
 21
-0.128684708860419
 31
0.0
  0
LINE
  5
A10
330
1B
100
AcDbEntity
 67
     1
  8
RAHMEN025
370
     9
100
AcDbLine
 10
305.7837950934752
 20
-1.909361291350421
 30
0.0
 11
306.0260469479542
 21
-1.005265062208366
 31
0.0
  0
LINE
  5
A11
330
1B
100
AcDbEntity
 67
     1
  8
RAHMEN025
370
     9
100
AcDbLine
 10
306.9501628676447
 20
-1.909361291350421
 30
0.0
 11
305.7837950934752
 21
-1.909361291350421
 31
0.0
  0
LINE
  5
A12
330
1B
100
AcDbEntity
 67
     1
  8
RAHMEN025
370
     9
100
AcDbLine
 10
307.1407898142766
 20
-1.005265062208366
 30
0.0
 11
306.0260469479542
 21
-1.005265062208366
 31
0.0
  0
LINE
  5
A13
330
1B
100
AcDbEntity
 67
     1
  8
RAHMEN025
370
     9
100
AcDbLine
 10
305.6926346525084
 20
-2.249576688678814
 30
0.0
 11
306.696162947781
 21
-3.833052010451808
 31
0.0
  0
LINE
  5
A14
330
1B
100
AcDbEntity
 67
     1
  8
RAHMEN025
370
     9
100
AcDbLine
 10
305.6926346525084
 20
-2.249576688678814
 30
0.0
 11
305.2683437188049
 21
-3.833052010451808
 31
0.0
  0
LINE
  5
A15
330
1B
100
AcDbEntity
 67
     1
  8
RAHMEN025
370
     9
100
AcDbLine
 10
303.9657818770924
 20
-3.833052010451808
 30
0.0
 11
305.2683437188049
 21
-3.833052010451808
 31
0.0
  0
LINE
  5
A16
330
1B
100
AcDbEntity
 67
     1
  8
RAHMEN025
370
     9
100
AcDbLine
 10
304.9583641040219
 20
-0.128684708860419
 30
0.0
 11
303.9657818770924
 21
-3.833052010451808
 31
0.0
  0
LINE
  5
A17
330
1B
100
AcDbEntity
 67
     1
  8
RAHMEN025
370
     9
100
AcDbLine
 10
303.8272229045261
 20
-2.351226593033345
 30
0.0
 11
304.0256169594365
 21
-1.610809900188314
 31
0.0
  0
LINE
  5
A18
330
1B
100
AcDbEntity
 67
     1
  8
RAHMEN025
370
     9
100
AcDbLine
 10
303.4301689806046
 20
-3.833052010451808
 30
0.0
 11
303.7029112809062
 21
-2.815163888353822
 31
0.0
  0
LINE
  5
A19
330
1B
100
AcDbEntity
 67
     1
  8
RAHMEN025
370
     9
100
AcDbLine
 10
304.1496640341857
 20
-1.147859914692617
 30
0.0
 11
304.4227512075347
 21
-0.128684708860419
 31
0.0
  0
LINE
  5
A1A
330
1B
100
AcDbEntity
 67
     1
  8
RAHMEN025
370
     9
100
AcDbLine
 10
301.3344448044881
 20
-2.351226593033345
 30
0.0
 11
301.2204091482348
 21
-2.776813456045545
 31
0.0
  0
LINE
  5
A1B
330
1B
100
AcDbEntity
 67
     1
  8
RAHMEN025
370
     9
100
AcDbLine
 10
301.3344448044881
 20
-2.351226593033345
 30
0.0
 11
301.2101331808684
 21
-2.815163888353822
 31
0.0
  0
LINE
  5
A1C
330
1B
100
AcDbEntity
 67
     1
  8
RAHMEN025
370
     9
100
AcDbLine
 10
301.6568859341478
 20
-1.147859914692617
 30
0.0
 11
301.5328388593987
 21
-1.610809900188314
 31
0.0
  0
LINE
  5
A1D
330
1B
100
AcDbEntity
 67
     1
  8
RAHMEN025
370
     9
100
AcDbLine
 10
299.2749346878452
 20
-3.001461458583094
 30
0.0
 11
300.044692897968
 21
-0.128684708860419
 31
0.0
  0
LINE
  5
A1E
330
1B
100
AcDbEntity
 67
     1
  8
RAHMEN025
370
     9
100
AcDbLine
 10
300.6274112657842
 20
-0.128684708860419
 30
0.0
 11
299.6348290388546
 21
-3.833052010451808
 31
0.0
  0
LINE
  5
A1F
330
1B
100
AcDbEntity
 67
     1
  8
RAHMEN025
370
     9
100
AcDbLine
 10
301.3344448044881
 20
-2.351226593033345
 30
0.0
 11
303.8272229045261
 21
-2.351226593033345
 31
0.0
  0
LINE
  5
A20
330
1B
100
AcDbEntity
 67
     1
  8
RAHMEN025
370
     9
100
AcDbLine
 10
301.2101331808684
 20
-2.815163888353822
 30
0.0
 11
303.7131872482726
 21
-2.815163888353822
 31
0.0
  0
LINE
  5
A21
330
1B
100
AcDbEntity
 67
     1
  8
RAHMEN025
370
     9
100
AcDbLine
 10
304.4227512075347
 20
-0.128684708860419
 30
0.0
 11
300.6274112657842
 21
-0.128684708860419
 31
0.0
  0
LINE
  5
A22
330
1B
100
AcDbEntity
 67
     1
  8
RAHMEN025
370
     9
100
AcDbLine
 10
304.1496640341857
 20
-1.147859914692617
 30
0.0
 11
301.6466099667817
 21
-1.147859914692617
 31
0.0
  0
LINE
  5
A23
330
1B
100
AcDbEntity
 67
     1
  8
RAHMEN025
370
     9
100
AcDbLine
 10
304.0256169594365
 20
-1.610809900188314
 30
0.0
 11
301.5328388593987
 21
-1.610809900188314
 31
0.0
  0
LINE
  5
A24
330
1B
100
AcDbEntity
 67
     1
  8
RAHMEN025
370
     9
100
AcDbLine
 10
299.6348290388546
 20
-3.833052010451808
 30
0.0
 11
303.4301689806046
 21
-3.833052010451808
 31
0.0
  0
TEXT
  5
A25
330
1B
100
AcDbEntity
 67
     1
  8
RAHMEN025
 48
1.5
100
AcDbText
 10
287.3561916862154
 20
14.28343238346519
 30
0.0
 40
2.5
  1
12.10.2006
 41
0.65
  7
Stil1
100
AcDbText
  0
TEXT
  5
A26
330
1B
100
AcDbEntity
 67
     1
  8
RAHMEN025
 48
1.5
100
AcDbText
 10
278.2462416213269
 20
24.87877055260474
 30
0.0
 40
2.5
  1
DIN ISO 2768-m
 41
0.65
  7
Stil1
100
AcDbText
  0
TEXT
  5
A27
330
1B
100
AcDbEntity
 67
     1
  8
RAHMEN025
100
AcDbText
 10
276.4947457972097
 20
14.37155488820053
 30
0.0
 40
2.5
  1
Bearb.
  7
ISO Proportional
100
AcDbText
  0
TEXT
  5
A28
330
1B
100
AcDbEntity
 67
     1
  8
RAHMEN025
100
AcDbText
 10
276.4947457972097
 20
10.12155488820053
 30
0.0
 40
2.5
  1
Gepr.
  7
ISO Proportional
100
AcDbText
  0
TEXT
  5
A29
330
1B
100
AcDbEntity
 67
     1
  8
RAHMEN025
100
AcDbText
 10
290.223723088243
 20
18.62155488820053
 30
0.0
 40
2.5
  1
Datum
  7
ISO Proportional
100
AcDbText
  0
TEXT
  5
A2A
330
1B
100
AcDbEntity
 67
     1
  8
RAHMEN025
100
AcDbText
 10
321.8725122773182
 20
-15.37844511179946
 30
0.0
 40
2.5
  1
Ersatz für:
  7
ISO Proportional
100
AcDbText
  0
ARC
  5
A2B
330
1B
100
AcDbEntity
 67
     1
  8
DEFPOINTS
370
    13
100
AcDbCircle
 10
308.4353082956394
 20
-5.335710054720834
 30
0.0
 40
0.8437095107820451
100
AcDbArc
 50
344.9999529879283
 51
90.0
  0
ARC
  5
A2C
330
1B
100
AcDbEntity
 67
     1
  8
DEFPOINTS
370
    13
100
AcDbCircle
 10
316.2093757615198
 20
-7.191505702130768
 30
0.0
 40
0.9587608077068694
100
AcDbArc
 50
171.0200151799534
 51
262.0635437036931
  0
ARC
  5
A2D
330
1B
100
AcDbEntity
 67
     1
  8
DEFPOINTS
370
    13
100
AcDbCircle
 10
323.386549181439
 20
-8.325688336893847
 30
0.0
 40
8.224997010073714
100
AcDbArc
 50
157.3874044007953
 51
171.0200151799534
  0
LINE
  5
A2E
330
1B
100
AcDbEntity
 67
     1
  8
DEFPOINTS
370
    13
100
AcDbLine
 10
315.5644391010336
 20
-4.501926366208067
 30
0.0
 11
314.2490679614752
 21
-4.501926366208067
 31
0.0
  0
LINE
  5
A2F
330
1B
100
AcDbEntity
 67
     1
  8
DEFPOINTS
370
    13
100
AcDbLine
 10
313.0699882956269
 20
-4.501926366208067
 30
0.0
 11
311.8088024483607
 21
-4.501926366208067
 31
0.0
  0
LINE
  5
A30
330
1B
100
AcDbEntity
 67
     1
  8
DEFPOINTS
370
    13
100
AcDbLine
 10
313.2978121337981
 20
-8.2062936677994
 30
0.0
 11
314.5718568741039
 21
-8.2062936677994
 31
0.0
  0
LINE
  5
A31
330
1B
100
AcDbEntity
 67
     1
  8
DEFPOINTS
370
    13
100
AcDbLine
 10
313.2978121337981
 20
-8.2062936677994
 30
0.0
 11
312.5906768273488
 21
-6.445158431958248
 31
0.0
  0
LINE
  5
A32
330
1B
100
AcDbEntity
 67
     1
  8
DEFPOINTS
370
    13
100
AcDbLine
 10
312.5906768273488
 20
-6.445158431958248
 30
0.0
 11
312.1187820631432
 21
-8.2062936677994
 31
0.0
  0
LINE
  5
A33
330
1B
100
AcDbEntity
 67
     1
  8
DEFPOINTS
370
    13
100
AcDbLine
 10
310.8162202214306
 20
-8.2062936677994
 30
0.0
 11
312.1187820631432
 21
-8.2062936677994
 31
0.0
  0
LINE
  5
A34
330
1B
100
AcDbEntity
 67
     1
  8
DEFPOINTS
370
    13
100
AcDbLine
 10
313.0699882956269
 20
-4.501926366208067
 30
0.0
 11
313.7795783103757
 21
-6.254085597739219
 31
0.0
  0
LINE
  5
A35
330
1B
100
AcDbEntity
 67
     1
  8
DEFPOINTS
370
    13
100
AcDbLine
 10
313.7795783103757
 20
-6.254085597739219
 30
0.0
 11
314.2490679614752
 21
-4.501926366208067
 31
0.0
  0
LINE
  5
A36
330
1B
100
AcDbEntity
 67
     1
  8
DEFPOINTS
370
    13
100
AcDbLine
 10
314.5718568741039
 20
-8.2062936677994
 30
0.0
 11
315.5644391010336
 21
-4.501926366208067
 31
0.0
  0
LINE
  5
A37
330
1B
100
AcDbEntity
 67
     1
  8
DEFPOINTS
370
    13
100
AcDbLine
 10
311.8088024483607
 20
-4.501926366208067
 30
0.0
 11
310.8162202214306
 21
-8.2062936677994
 31
0.0
  0
ARC
  5
A38
330
1B
100
AcDbEntity
 67
     1
  8
DEFPOINTS
370
    13
100
AcDbCircle
 10
307.1192253708033
 20
-5.729477395789388
 30
0.0
 40
0.5483274067590241
100
AcDbArc
 50
296.5093598874432
 51
350.9662004601523
  0
ARC
  5
A39
330
1B
100
AcDbEntity
 67
     1
  8
DEFPOINTS
370
    13
100
AcDbCircle
 10
307.2792089865738
 20
-5.754913064234131
 30
0.0
 40
0.386334411403646
100
AcDbArc
 50
350.9662004601523
 51
90.1953042656462
  0
ARC
  5
A3A
330
1B
100
AcDbEntity
 67
     1
  8
DEFPOINTS
370
    13
100
AcDbCircle
 10
308.3191595665342
 20
-5.769183012975247
 30
0.0
 40
0.8437095107820451
100
AcDbArc
 50
270.0
 51
345.043813904056
  0
LINE
  5
A3B
330
1B
100
AcDbEntity
 67
     1
  8
DEFPOINTS
370
    13
100
AcDbLine
 10
308.3191595665342
 20
-6.612892523757352
 30
0.0
 11
307.5387414151956
 21
-6.612892523757352
 31
0.0
  0
LINE
  5
A3C
330
1B
100
AcDbEntity
 67
     1
  8
DEFPOINTS
370
    13
100
AcDbLine
 10
307.5387414151956
 20
-6.612892523757352
 30
0.0
 11
308.5422697104683
 21
-8.196367845530062
 31
0.0
  0
LINE
  5
A3D
330
1B
100
AcDbEntity
 67
     1
  8
DEFPOINTS
370
    13
100
AcDbLine
 10
309.1341203728844
 20
-5.987551102899942
 30
0.0
 11
309.2502691019893
 21
-5.554078144645302
 31
0.0
  0
LINE
  5
A3E
330
1B
100
AcDbEntity
 67
     1
  8
DEFPOINTS
370
    13
100
AcDbLine
 10
309.0120785235445
 20
-8.2062936677994
 30
0.0
 11
310.354343654334
 21
-8.2062936677994
 31
0.0
  0
LINE
  5
A3F
330
1B
100
AcDbEntity
 67
     1
  8
DEFPOINTS
370
    13
100
AcDbLine
 10
310.004660750474
 20
-4.501926366208067
 30
0.0
 11
309.0120785235445
 21
-8.2062936677994
 31
0.0
  0
LINE
  5
A40
330
1B
100
AcDbEntity
 67
     1
  8
DEFPOINTS
370
    13
100
AcDbLine
 10
311.3469258812636
 20
-4.501926366208067
 30
0.0
 11
310.004660750474
 21
-4.501926366208067
 31
0.0
  0
LINE
  5
A41
330
1B
100
AcDbEntity
 67
     1
  8
DEFPOINTS
370
    13
100
AcDbLine
 10
311.3469258812636
 20
-4.501926366208067
 30
0.0
 11
310.354343654334
 21
-8.2062936677994
 31
0.0
  0
LINE
  5
A42
330
1B
100
AcDbEntity
 67
     1
  8
DEFPOINTS
370
    13
100
AcDbLine
 10
319.4425576076709
 20
-5.586717369264817
 30
0.0
 11
319.7065113299347
 21
-4.593451640041109
 31
0.0
  0
ARC
  5
A43
330
1B
100
AcDbEntity
 67
     1
  8
DEFPOINTS
100
AcDbCircle
 10
317.8556335748916
 20
-7.055780698551188
 30
0.0
 40
1.150512969248243
100
AcDbArc
 50
270.0
 51
270.0
  0
ARC
  5
A44
330
1B
100
AcDbEntity
 67
     1
  8
DEFPOINTS
370
    13
100
AcDbCircle
 10
322.8105833837106
 20
-8.073945878108532
 30
0.0
 40
6.22149298766157
100
AcDbArc
 50
158.0969939507943
 51
170.4856136403676
  0
ARC
  5
A45
330
1B
100
AcDbEntity
 67
     1
  8
DEFPOINTS
370
    13
100
AcDbCircle
 10
317.0537626781473
 20
-7.1035813366816
 30
0.0
 40
0.3835043230827479
100
AcDbArc
 50
171.2985646492635
 51
270.0
  0
LINE
  5
A46
330
1B
100
AcDbEntity
 67
     1
  8
DEFPOINTS
370
    13
100
AcDbLine
 10
317.0537626781473
 20
-7.487085659764375
 30
0.0
 11
317.0954528999831
 21
-7.487085659764375
 31
0.0
  0
ARC
  5
A47
330
1B
100
AcDbEntity
 67
     1
  8
DEFPOINTS
370
    13
100
AcDbCircle
 10
317.0954528999831
 20
-7.026880472064874
 30
0.0
 40
0.4602051876992975
100
AcDbArc
 50
270.0
 51
334.2263645027491
  0
ARC
  5
A48
330
1B
100
AcDbEntity
 67
     1
  8
DEFPOINTS
370
    13
100
AcDbCircle
 10
316.2285476134079
 20
-6.608294098603039
 30
0.0
 40
1.422878199650913
100
AcDbArc
 50
334.2263645027383
 51
11.71383119333059
  0
LINE
  5
A49
330
1B
100
AcDbEntity
 67
     1
  8
DEFPOINTS
370
    13
100
AcDbLine
 10
318.6809275777532
 20
-8.2062936677994
 30
0.0
 11
316.8540457804648
 21
-8.2062936677994
 31
0.0
  0
ARC
  5
A4A
330
1B
100
AcDbEntity
 67
     1
  8
DEFPOINTS
370
    13
100
AcDbCircle
 10
317.0599842648954
 20
-1.090019803114728
 30
0.0
 40
7.119253077153191
100
AcDbArc
 50
262.0635437036931
 51
268.3423749580197
  0
ARC
  5
A4B
330
1B
100
AcDbEntity
 67
     1
  8
DEFPOINTS
370
    13
100
AcDbCircle
 10
317.465164443609
 20
-5.924775464019376
 30
0.0
 40
0.4602051876992975
100
AcDbArc
 50
93.02614479233048
 51
158.0969939507943
  0
ARC
  5
A4C
330
1B
100
AcDbEntity
 67
     1
  8
DEFPOINTS
370
    13
100
AcDbCircle
 10
316.6788997036336
 20
-5.531833109527156
 30
0.0
 40
0.9587608077068694
100
AcDbArc
 50
95.92334440423654
 51
157.3874044007997
  0
LINE
  5
A4D
330
1B
100
AcDbEntity
 67
     1
  8
DEFPOINTS
370
    13
100
AcDbLine
 10
317.621792708738
 20
-6.319416139285181
 30
0.0
 11
319.1865148877349
 21
-6.319416139285181
 31
0.0
  0
LINE
  5
A4E
330
1B
100
AcDbEntity
 67
     1
  8
DEFPOINTS
370
    13
100
AcDbLine
 10
318.6809275777532
 20
-8.2062936677994
 30
0.0
 11
319.1865148877349
 21
-6.319416139285181
 31
0.0
  0
ARC
  5
A4F
330
1B
100
AcDbEntity
 67
     1
  8
DEFPOINTS
370
    13
100
AcDbCircle
 10
317.9084791325914
 20
-14.3105070719755
 30
0.0
 40
8.85764661435673
100
AcDbArc
 50
80.0265067162775
 51
93.02614479233048
  0
ARC
  5
A50
330
1B
100
AcDbEntity
 67
     1
  8
DEFPOINTS
370
    13
100
AcDbCircle
 10
318.0730316470369
 20
-18.96902245100784
 30
0.0
 40
14.46807838019826
100
AcDbArc
 50
83.51735091136808
 51
95.92334440423654
  0
ARC
  5
A51
330
1B
100
AcDbEntity
 67
     1
  8
RAHMEN025
370
     9
100
AcDbCircle
 10
306.9821230950216
 20
-1.366161560711077
 30
0.0
 40
0.5483274067590241
100
AcDbArc
 50
296.5093598874432
 51
350.9662004601523
  0
LINE
  5
A52
330
1B
100
AcDbEntity
 67
     1
  8
RAHMEN025
370
     9
100
AcDbLine
 10
308.9970180971027
 20
-1.624235267821404
 30
0.0
 11
309.1131668262074
 21
-1.190762309566991
 31
0.0
  0
ARC
  5
A53
330
1B
100
AcDbEntity
 67
     1
  8
RAHMEN025
370
     9
100
AcDbCircle
 10
308.1820572907525
 20
-1.40586717789688
 30
0.0
 40
0.8437095107820451
100
AcDbArc
 50
270.0
 51
345.043813904056
  0
LINE
  5
A54
330
1B
100
AcDbEntity
 67
     1
  8
RAHMEN025
370
     9
100
AcDbLine
 10
308.1820572907525
 20
-2.249576688678814
 30
0.0
 11
307.4016391394138
 21
-2.249576688678814
 31
0.0
  0
LINE
  5
A55
330
1B
100
AcDbEntity
 67
     1
  8
RAHMEN025
370
     9
100
AcDbLine
 10
307.4016391394138
 20
-2.249576688678814
 30
0.0
 11
308.4051674346866
 21
-3.833052010451808
 31
0.0
  0
ARC
  5
A56
330
1B
100
AcDbEntity
 67
     1
  8
RAHMEN025
370
     9
100
AcDbCircle
 10
308.2982060198578
 20
-0.9723942196425809
 30
0.0
 40
0.8437095107820451
100
AcDbArc
 50
344.9999529879283
 51
90.0
  0
TEXT
  5
A57
330
1B
100
AcDbEntity
 67
     1
  8
RAHMEN025
100
AcDbText
 10
320.9613167453066
 20
26.43202522832871
 30
0.0
 40
2.5
  1
Werkstoff:
  7
ISO Proportional
100
AcDbText
  0
TEXT
  5
A58
330
1B
100
AcDbEntity
 67
     1
  8
RAHMEN025
100
AcDbText
 10
321.0118937915717
 20
17.42237282247276
 30
0.0
 40
2.5
  1
Benennung:
  7
ISO Proportional
100
AcDbText
  0
TEXT
  5
A59
330
1B
100
AcDbEntity
 67
     1
  8
RAHMEN025
100
AcDbText
 10
222.9994781884324
 20
34.55905488820053
 30
0.0
 40
2.5
  1
Verwendungsbereich
  7
ISO Proportional
100
AcDbText
  0
TEXT
  5
A5A
330
1B
100
AcDbEntity
 67
     1
  8
RAHMEN025
100
AcDbText
 10
303.4419103864817
 20
34.55905488820053
 30
0.0
 40
2.5
  1
Oberfl.
  7
ISO Proportional
100
AcDbText
  0
TEXT
  5
A5B
330
1B
100
AcDbEntity
 67
     1
  8
RAHMEN025
100
AcDbText
 10
277.5994781884324
 20
34.55905488820053
 30
0.0
 40
2.5
  1
Zul. Abw.
  7
ISO Proportional
100
AcDbText
  0
TEXT
  5
A5C
330
1B
100
AcDbEntity
 67
     1
  8
RAHMEN025
100
AcDbText
 10
321.3220721358171
 20
34.55905488820053
 30
0.0
 40
2.5
  1
Maßstab:
  7
ISO Proportional
100
AcDbText
  0
TEXT
  5
A5D
330
1B
100
AcDbEntity
 67
     1
  8
RAHMEN05
 62
     6
 48
1.5
100
AcDbText
 10
343.7375340762876
 20
7.586980016245092
 30
0.0
 40
5.0
  1
Rüttler VS 250
 41
0.7
  7
Stil1
100
AcDbText
  0
TEXT
  5
A5E
330
1B
100
AcDbEntity
 67
     1
  8
RAHMEN025
100
AcDbText
 10
366.0725122773181
 20
-15.37844511179946
 30
0.0
 40
2.5
  1
Ersatz durch:
  7
ISO Proportional
100
AcDbText
  0
TEXT
  5
A5F
330
1B
100
AcDbEntity
 67
     1
  8
RAHMEN05
 62
     6
 48
1.5
100
AcDbText
 10
346.2665899593726
 20
-8.212578461946578
 30
0.0
 40
5.0
  1
514065
 41
0.8
  7
Stil1
100
AcDbText
  0
LINE
  5
A60
330
1B
100
AcDbEntity
 67
     1
  8
RAHMEN025
100
AcDbLine
 10
364.3958122333254
 20
-12.00344511179946
 30
0.0
 11
364.3958122333254
 21
-16.25344511179958
 31
0.0
  0
LINE
  5
A61
330
1B
100
AcDbEntity
 67
     1
  8
RAHMEN025
100
AcDbLine
 10
395.5958122333255
 20
0.7465548882004783
 30
0.0
 11
395.5958122333255
 21
-12.00344511179946
 31
0.0
  0
LINE
  5
A62
330
1B
100
AcDbEntity
 67
     1
  8
RAHMEN025
100
AcDbLine
 10
395.5958122333253
 20
-7.753445111799464
 30
0.0
 11
408.5958122333253
 21
-7.753445111799464
 31
0.0
  0
TEXT
  5
A63
330
1B
100
AcDbEntity
 67
     1
  8
RAHMEN025
100
AcDbText
 10
396.5080717166474
 20
-10.99765427624555
 30
0.0
 40
2.5
  1
Blätter
  7
ISO Proportional
100
AcDbText
  0
TEXT
  5
A64
330
1B
100
AcDbEntity
 67
     1
  8
RAHMEN025
100
AcDbText
 10
396.5042717244479
 20
-2.621250661705744
 30
0.0
 40
2.5
  1
Blatt
  7
ISO Proportional
100
AcDbText
  0
TEXT
  5
A65
330
1B
100
AcDbEntity
 67
     1
  8
RAHMEN025
100
AcDbText
 10
373.3220721358171
 20
34.55905488820053
 30
0.0
 40
2.5
  1
Gewicht:
  7
ISO Proportional
100
AcDbText
  0
TEXT
  5
A66
330
1B
100
AcDbEntity
 67
     1
  8
RAHMEN025
 62
     7
 48
1.5
370
    35
100
AcDbText
 10
343.0482339828677
 20
34.54231653081421
 30
0.0
 40
2.5
  1
1:1
 41
0.8
  7
Stil1
100
AcDbText
  0
LINE
  5
A67
330
1B
100
AcDbEntity
 67
     1
  8
RAHMEN025
100
AcDbLine
 10
372.1958122333256
 20
38.99655488820048
 30
0.0
 11
372.1958122333256
 21
32.62155488820053
 31
0.0
  0
TEXT
  5
A68
330
1B
100
AcDbEntity
 67
     1
  8
RAHMEN025
 62
     7
 48
1.5
370
    35
100
AcDbText
 10
389.0182600604099
 20
34.54231653081421
 30
0.0
 40
2.5
  1
ca. 133 kg
 41
0.8
  7
Stil1
100
AcDbText
  0
LINE
  5
A69
330
1B
100
AcDbEntity
 67
     1
  8
RAHMEN07
100
AcDbLine
 10
11.39581223332561
 20
-16.25344511179946
 30
0.0
 11
11.39581223332561
 21
270.7465548882004
 31
0.0
  0
LINE
  5
A6A
330
1B
100
AcDbEntity
 67
     1
  8
RAHMEN025
100
AcDbLine
 10
-6.404187766674681
 20
275.7465548882005
 30
0.0
 11
-6.404187766674681
 21
-21.25344511179946
 31
0.0
  0
ENDSEC
  0
SECTION
  2
OBJECTS
  0
DICTIONARY
  5
C
330
0
100
AcDbDictionary
281
     1
  3
ACAD_GROUP
350
D
  3
ACAD_IMAGE_VARS
350
D0F
  3
ACAD_LAYOUT
350
1A
  3
ACAD_MLINESTYLE
350
17
  3
ACAD_PLOTSETTINGS
350
19
  3
ACAD_PLOTSTYLENAME
350
E
  3
ACAD_SCALELIST
350
CCA
  3
AcDbVariableDictionary
350
A6B
  3
APPDATA
350
D0D
  3
DWGPROPS
350
D11
  0
DICTIONARY
  5
6C
330
2
100
AcDbDictionary
280
     1
281
     1
  3
ACAD_LAYERFILTERS
360
836
  3
ACAD_LAYERSTATES
360
6D
  0
DICTIONARY
  5
D
102
{ACAD_REACTORS
330
C
102
}
330
C
100
AcDbDictionary
281
     1
  0
RASTERVARIABLES
  5
D0F
102
{ACAD_REACTORS
330
C
102
}
330
C
100
AcDbRasterVariables
 90
        0
 70
     1
 71
     1
 72
     1
  0
DICTIONARY
  5
1A
102
{ACAD_REACTORS
330
C
102
}
330
C
100
AcDbDictionary
281
     1
  3
Layout1
350
1E
  3
Model
350
22
  0
DICTIONARY
  5
17
102
{ACAD_REACTORS
330
C
102
}
330
C
100
AcDbDictionary
281
     1
  3
Standard
350
18
  0
DICTIONARY
  5
19
102
{ACAD_REACTORS
330
C
102
}
330
C
100
AcDbDictionary
281
     1
  0
ACDBDICTIONARYWDFLT
  5
E
102
{ACAD_REACTORS
330
C
102
}
330
C
100
AcDbDictionary
281
     1
  3
Normal
350
F
100
AcDbDictionaryWithDefault
340
F
  0
DICTIONARY
  5
CCA
102
{ACAD_REACTORS
330
C
102
}
330
C
100
AcDbDictionary
281
     1
  3
A0
350
CCB
  3
A1
350
CCC
  3
A2
350
CCD
  3
A3
350
CCE
  3
A4
350
CCF
  3
A5
350
CD0
  3
A6
350
CD1
  3
A7
350
CD2
  3
A8
350
CD3
  3
A9
350
CD4
  3
B0
350
CD5
  3
B1
350
CD6
  3
B2
350
CD7
  3
B3
350
CD8
  3
B4
350
CD9
  3
B5
350
CDA
  3
B6
350
CDB
  3
B7
350
CDC
  3
B8
350
CDD
  3
B9
350
CDE
  3
C0
350
CDF
  3
C1
350
CE0
  3
C2
350
CE1
  3
C3
350
CE2
  3
C4
350
CE3
  3
C5
350
CE4
  3
C6
350
CE5
  3
C7
350
CE6
  3
C8
350
CE7
  3
C9
350
CE8
  3
D0
350
CE9
  3
D1
350
CEA
  3
D2
350
CEB
  0
DICTIONARY
  5
A6B
102
{ACAD_REACTORS
330
C
102
}
330
C
100
AcDbDictionary
281
     1
  3
DIMASSOC
350
A6D
  3
HIDETEXT
350
A6C
  0
DICTIONARY
  5
D0D
102
{ACAD_REACTORS
330
C
102
}
330
C
100
AcDbDictionary
281
     1
  0
XRECORD
  5
D11
102
{ACAD_REACTORS
330
C
102
}
330
C
100
AcDbXrecord
280
     1
  1
DWGPROPS COOKIE
  2

  3

  4

  6

  7

  8
theodor.kuschma
  9

300
=
301
=
302
=
303
=
304
=
305
=
306
=
307
=
308
=
309
=
 40
0.0
 41
2453957.612802234
 42
2456967.333752211
  1

 90
        0
  0
DICTIONARY
  5
836
102
{ACAD_REACTORS
330
6C
102
}
330
6C
100
AcDbDictionary
280
     1
281
     1
  0
DICTIONARY
  5
6D
102
{ACAD_REACTORS
330
6C
102
}
330
6C
100
AcDbDictionary
281
     1
  0
LAYOUT
  5
1E
102
{ACAD_REACTORS
330
1A
102
}
330
1A
100
AcDbPlotSettings
  1

  2
DesignJet 600 C2847A.pc3
  4
ISO_A3_(420.00_x_297.00_MM)
  6

 40
5.793749809265136
 41
17.79375076293945
 42
5.79376220703125
 43
17.79376220703125
 44
420.0
 45
297.0
 46
0.0
 47
0.0
 48
0.0
 49
0.0
140
0.0
141
0.0
142
1.0
143
1.0
 70
   688
 72
     1
 73
     0
 74
     5
  7

 75
     0
147
1.0
148
0.0
149
0.0
100
AcDbLayout
  1
Layout1
 70
     0
 71
     1
 10
-5.793749809265136
 20
-17.79375076293945
 11
414.2062501907349
 21
279.2062492370605
 12
0.0
 22
0.0
 32
0.0
 14
-6.404187766674681
 24
-21.25344511179946
 34
0.0
 15
413.5958122333254
 25
275.7465548882005
 35
0.0
146
0.0
 13
0.0
 23
0.0
 33
0.0
 16
1.0
 26
0.0
 36
0.0
 17
0.0
 27
1.0
 37
0.0
 76
     0
330
1B
331
83C
  0
LAYOUT
  5
22
102
{ACAD_REACTORS
330
1A
102
}
330
1A
100
AcDbPlotSettings
  1

  2
C:\Programme\Acad2000\plotters\DesignJet 600 C2847A.pc3
  4

  6

 40
0.0
 41
0.0
 42
0.0
 43
0.0
 44
0.0
 45
0.0
 46
0.0
 47
0.0
 48
0.0
 49
0.0
140
0.0
141
0.0
142
1.0
143
1.0
 70
  1712
 72
     0
 73
     0
 74
     0
  7

 75
     0
147
1.0
148
0.0
149
0.0
100
AcDbLayout
  1
Model
 70
     1
 71
     0
 10
0.0
 20
0.0
 11
12.0
 21
9.0
 12
0.0
 22
0.0
 32
0.0
 14
0.0
 24
0.0
 34
0.0
 15
0.0
 25
0.0
 35
0.0
146
0.0
 13
0.0
 23
0.0
 33
0.0
 16
1.0
 26
0.0
 36
0.0
 17
0.0
 27
1.0
 37
0.0
 76
     0
330
1F
331
CA2
  0
MLINESTYLE
  5
18
102
{ACAD_REACTORS
330
17
102
}
330
17
100
AcDbMlineStyle
  2
STANDARD
 70
     0
  3

 62
   256
 51
90.0
 52
90.0
 71
     2
 49
0.5
 62
   256
  6
BYLAYER
 49
-0.5
 62
   256
  6
BYLAYER
  0
ACDBPLACEHOLDER
  5
F
102
{ACAD_REACTORS
330
E
102
}
330
E
  0
SCALE
  5
CCB
102
{ACAD_REACTORS
330
CCA
102
}
330
CCA
100
AcDbScale
 70
     0
300
1:1
140
1.0
141
1.0
290
     1
  0
SCALE
  5
CCC
102
{ACAD_REACTORS
330
CCA
102
}
330
CCA
100
AcDbScale
 70
     0
300
1:2
140
1.0
141
2.0
290
     0
  0
SCALE
  5
CCD
102
{ACAD_REACTORS
330
CCA
102
}
330
CCA
100
AcDbScale
 70
     0
300
1:4
140
1.0
141
4.0
290
     0
  0
SCALE
  5
CCE
102
{ACAD_REACTORS
330
CCA
102
}
330
CCA
100
AcDbScale
 70
     0
300
1:5
140
1.0
141
5.0
290
     0
  0
SCALE
  5
CCF
102
{ACAD_REACTORS
330
CCA
102
}
330
CCA
100
AcDbScale
 70
     0
300
1:8
140
1.0
141
8.0
290
     0
  0
SCALE
  5
CD0
102
{ACAD_REACTORS
330
CCA
102
}
330
CCA
100
AcDbScale
 70
     0
300
1:10
140
1.0
141
10.0
290
     0
  0
SCALE
  5
CD1
102
{ACAD_REACTORS
330
CCA
102
}
330
CCA
100
AcDbScale
 70
     0
300
1:16
140
1.0
141
16.0
290
     0
  0
SCALE
  5
CD2
102
{ACAD_REACTORS
330
CCA
102
}
330
CCA
100
AcDbScale
 70
     0
300
1:20
140
1.0
141
20.0
290
     0
  0
SCALE
  5
CD3
102
{ACAD_REACTORS
330
CCA
102
}
330
CCA
100
AcDbScale
 70
     0
300
1:30
140
1.0
141
30.0
290
     0
  0
SCALE
  5
CD4
102
{ACAD_REACTORS
330
CCA
102
}
330
CCA
100
AcDbScale
 70
     0
300
1:40
140
1.0
141
40.0
290
     0
  0
SCALE
  5
CD5
102
{ACAD_REACTORS
330
CCA
102
}
330
CCA
100
AcDbScale
 70
     0
300
1:50
140
1.0
141
50.0
290
     0
  0
SCALE
  5
CD6
102
{ACAD_REACTORS
330
CCA
102
}
330
CCA
100
AcDbScale
 70
     0
300
1:100
140
1.0
141
100.0
290
     0
  0
SCALE
  5
CD7
102
{ACAD_REACTORS
330
CCA
102
}
330
CCA
100
AcDbScale
 70
     0
300
2:1
140
2.0
141
1.0
290
     0
  0
SCALE
  5
CD8
102
{ACAD_REACTORS
330
CCA
102
}
330
CCA
100
AcDbScale
 70
     0
300
4:1
140
4.0
141
1.0
290
     0
  0
SCALE
  5
CD9
102
{ACAD_REACTORS
330
CCA
102
}
330
CCA
100
AcDbScale
 70
     0
300
8:1
140
8.0
141
1.0
290
     0
  0
SCALE
  5
CDA
102
{ACAD_REACTORS
330
CCA
102
}
330
CCA
100
AcDbScale
 70
     0
300
10:1
140
10.0
141
1.0
290
     0
  0
SCALE
  5
CDB
102
{ACAD_REACTORS
330
CCA
102
}
330
CCA
100
AcDbScale
 70
     0
300
100:1
140
100.0
141
1.0
290
     0
  0
SCALE
  5
CDC
102
{ACAD_REACTORS
330
CCA
102
}
330
CCA
100
AcDbScale
 70
     0
300
1/128" = 1'-0"
140
0.0078125
141
12.0
290
     0
  0
SCALE
  5
CDD
102
{ACAD_REACTORS
330
CCA
102
}
330
CCA
100
AcDbScale
 70
     0
300
1/64" = 1'-0"
140
0.015625
141
12.0
290
     0
  0
SCALE
  5
CDE
102
{ACAD_REACTORS
330
CCA
102
}
330
CCA
100
AcDbScale
 70
     0
300
1/32" = 1'-0"
140
0.03125
141
12.0
290
     0
  0
SCALE
  5
CDF
102
{ACAD_REACTORS
330
CCA
102
}
330
CCA
100
AcDbScale
 70
     0
300
1/16" = 1'-0"
140
0.0625
141
12.0
290
     0
  0
SCALE
  5
CE0
102
{ACAD_REACTORS
330
CCA
102
}
330
CCA
100
AcDbScale
 70
     0
300
3/32" = 1'-0"
140
0.09375
141
12.0
290
     0
  0
SCALE
  5
CE1
102
{ACAD_REACTORS
330
CCA
102
}
330
CCA
100
AcDbScale
 70
     0
300
1/8" = 1'-0"
140
0.125
141
12.0
290
     0
  0
SCALE
  5
CE2
102
{ACAD_REACTORS
330
CCA
102
}
330
CCA
100
AcDbScale
 70
     0
300
3/16" = 1'-0"
140
0.1875
141
12.0
290
     0
  0
SCALE
  5
CE3
102
{ACAD_REACTORS
330
CCA
102
}
330
CCA
100
AcDbScale
 70
     0
300
1/4" = 1'-0"
140
0.25
141
12.0
290
     0
  0
SCALE
  5
CE4
102
{ACAD_REACTORS
330
CCA
102
}
330
CCA
100
AcDbScale
 70
     0
300
3/8" = 1'-0"
140
0.375
141
12.0
290
     0
  0
SCALE
  5
CE5
102
{ACAD_REACTORS
330
CCA
102
}
330
CCA
100
AcDbScale
 70
     0
300
1/2" = 1'-0"
140
0.5
141
12.0
290
     0
  0
SCALE
  5
CE6
102
{ACAD_REACTORS
330
CCA
102
}
330
CCA
100
AcDbScale
 70
     0
300
3/4" = 1'-0"
140
0.75
141
12.0
290
     0
  0
SCALE
  5
CE7
102
{ACAD_REACTORS
330
CCA
102
}
330
CCA
100
AcDbScale
 70
     0
300
1" = 1'-0"
140
1.0
141
12.0
290
     0
  0
SCALE
  5
CE8
102
{ACAD_REACTORS
330
CCA
102
}
330
CCA
100
AcDbScale
 70
     0
300
1-1/2" = 1'-0"
140
1.5
141
12.0
290
     0
  0
SCALE
  5
CE9
102
{ACAD_REACTORS
330
CCA
102
}
330
CCA
100
AcDbScale
 70
     0
300
3" = 1'-0"
140
3.0
141
12.0
290
     0
  0
SCALE
  5
CEA
102
{ACAD_REACTORS
330
CCA
102
}
330
CCA
100
AcDbScale
 70
     0
300
6" = 1'-0"
140
6.0
141
12.0
290
     0
  0
SCALE
  5
CEB
102
{ACAD_REACTORS
330
CCA
102
}
330
CCA
100
AcDbScale
 70
     0
300
1'-0" = 1'-0"
140
12.0
141
12.0
290
     0
  0
DICTIONARYVAR
  5
A6D
102
{ACAD_REACTORS
330
A6B
102
}
330
A6B
100
DictionaryVariables
280
     0
  1
2
  0
DICTIONARYVAR
  5
A6C
102
{ACAD_REACTORS
330
A6B
102
}
330
A6B
100
DictionaryVariables
280
     0
  1
1
  0
ENDSEC
  0
EOF
