  0
SECTION
  2
HEADER
  9
$ACADVER
  1
AC1015
  9
$ACADMAINTVER
 70
     6
  9
$DWGCODEPAGE
  3
ANSI_1252
  9
$INSBASE
 10
0.0
 20
0.0
 30
0.0
  9
$EXTMIN
 10
7134.475564877409
 20
3672.286818067719
 30
0.0
  9
$EXTMAX
 10
8097.496099483361
 20
4355.520444326002
 30
0.0
  9
$LIMMIN
 10
0.0
 20
0.0
  9
$LIMMAX
 10
420.0
 20
297.0
  9
$ORTHOMODE
 70
     1
  9
$REGENMODE
 70
     1
  9
$FILLMODE
 70
     1
  9
$QTEXTMODE
 70
     0
  9
$MIRRTEXT
 70
     1
  9
$LTSCALE
 40
1.0
  9
$ATTMODE
 70
     1
  9
$TEXTSIZE
 40
30.0
  9
$TRACEWID
 40
1.0
  9
$TEXTSTYLE
  7
NORM
  9
$CLAYER
  8
Rüttler
  9
$CELTYPE
  6
ByLayer
  9
$CECOLOR
 62
   256
  9
$CELTSCALE
 40
1.0
  9
$DISPSILH
 70
     0
  9
$DIMSCALE
 40
1.0
  9
$DIMASZ
 40
3.0
  9
$DIMEXO
 40
0.0
  9
$DIMDLI
 40
0.0
  9
$DIMRND
 40
0.0
  9
$DIMDLE
 40
0.0
  9
$DIMEXE
 40
2.0
  9
$DIMTP
 40
0.0
  9
$DIMTM
 40
0.0
  9
$DIMTXT
 40
3.0
  9
$DIMCEN
 40
2.5
  9
$DIMTSZ
 40
0.0
  9
$DIMTOL
 70
     0
  9
$DIMLIM
 70
     0
  9
$DIMTIH
 70
     0
  9
$DIMTOH
 70
     0
  9
$DIMSE1
 70
     0
  9
$DIMSE2
 70
     0
  9
$DIMTAD
 70
     1
  9
$DIMZIN
 70
     8
  9
$DIMBLK
  1

  9
$DIMASO
 70
     1
  9
$DIMSHO
 70
     1
  9
$DIMPOST
  1

  9
$DIMAPOST
  1

  9
$DIMALT
 70
     0
  9
$DIMALTD
 70
     3
  9
$DIMALTF
 40
0.03937007874016
  9
$DIMLFAC
 40
1.0
  9
$DIMTOFL
 70
     1
  9
$DIMTVP
 40
0.0
  9
$DIMTIX
 70
     0
  9
$DIMSOXD
 70
     0
  9
$DIMSAH
 70
     0
  9
$DIMBLK1
  1

  9
$DIMBLK2
  1

  9
$DIMSTYLE
  2
Stil 5
  9
$DIMCLRD
 70
     7
  9
$DIMCLRE
 70
     7
  9
$DIMCLRT
 70
   256
  9
$DIMTFAC
 40
1.0
  9
$DIMGAP
 40
2.0
  9
$DIMJUST
 70
     0
  9
$DIMSD1
 70
     0
  9
$DIMSD2
 70
     0
  9
$DIMTOLJ
 70
     0
  9
$DIMTZIN
 70
     8
  9
$DIMALTZ
 70
     0
  9
$DIMALTTZ
 70
     0
  9
$DIMUPT
 70
     1
  9
$DIMDEC
 70
     2
  9
$DIMTDEC
 70
     2
  9
$DIMALTU
 70
     2
  9
$DIMALTTD
 70
     3
  9
$DIMTXSTY
  7
NORM
  9
$DIMAUNIT
 70
     0
  9
$DIMADEC
 70
     1
  9
$DIMALTRND
 40
0.0
  9
$DIMAZIN
 70
     2
  9
$DIMDSEP
 70
    44
  9
$DIMATFIT
 70
     3
  9
$DIMFRAC
 70
     0
  9
$DIMLDRBLK
  1

  9
$DIMLUNIT
 70
     2
  9
$DIMLWD
 70
    25
  9
$DIMLWE
 70
    25
  9
$DIMTMOVE
 70
     0
  9
$LUNITS
 70
     2
  9
$LUPREC
 70
     4
  9
$SKETCHINC
 40
1.0
  9
$FILLETRAD
 40
0.0
  9
$AUNITS
 70
     0
  9
$AUPREC
 70
     0
  9
$MENU
  1
.
  9
$ELEVATION
 40
0.0
  9
$PELEVATION
 40
0.0
  9
$THICKNESS
 40
0.0
  9
$LIMCHECK
 70
     0
  9
$CHAMFERA
 40
3.0
  9
$CHAMFERB
 40
3.0
  9
$CHAMFERC
 40
20.0
  9
$CHAMFERD
 40
0.0
  9
$SKPOLY
 70
     0
  9
$TDCREATE
 40
2453808.513277604
  9
$TDUCREATE
 40
2453808.471610937
  9
$TDUPDATE
 40
2456967.358110822
  9
$TDUUPDATE
 40
2456967.316444155
  9
$TDINDWG
 40
1.693519213
  9
$TDUSRTIMER
 40
2456967.314484653
  9
$USRTIMER
 70
     1
  9
$ANGBASE
 50
0.0
  9
$ANGDIR
 70
     0
  9
$PDMODE
 70
     0
  9
$PDSIZE
 40
0.0
  9
$PLINEWID
 40
0.0
  9
$SPLFRAME
 70
     0
  9
$SPLINETYPE
 70
     6
  9
$SPLINESEGS
 70
     8
  9
$HANDSEED
  5
6FD3
  9
$SURFTAB1
 70
     6
  9
$SURFTAB2
 70
     6
  9
$SURFTYPE
 70
     6
  9
$SURFU
 70
     6
  9
$SURFV
 70
     6
  9
$UCSBASE
  2

  9
$UCSNAME
  2

  9
$UCSORG
 10
0.0
 20
0.0
 30
0.0
  9
$UCSXDIR
 10
1.0
 20
0.0
 30
0.0
  9
$UCSYDIR
 10
0.0
 20
1.0
 30
0.0
  9
$UCSORTHOREF
  2

  9
$UCSORTHOVIEW
 70
     0
  9
$UCSORGTOP
 10
0.0
 20
0.0
 30
0.0
  9
$UCSORGBOTTOM
 10
0.0
 20
0.0
 30
0.0
  9
$UCSORGLEFT
 10
0.0
 20
0.0
 30
0.0
  9
$UCSORGRIGHT
 10
0.0
 20
0.0
 30
0.0
  9
$UCSORGFRONT
 10
0.0
 20
0.0
 30
0.0
  9
$UCSORGBACK
 10
0.0
 20
0.0
 30
0.0
  9
$PUCSBASE
  2

  9
$PUCSNAME
  2

  9
$PUCSORG
 10
0.0
 20
0.0
 30
0.0
  9
$PUCSXDIR
 10
1.0
 20
0.0
 30
0.0
  9
$PUCSYDIR
 10
0.0
 20
1.0
 30
0.0
  9
$PUCSORTHOREF
  2

  9
$PUCSORTHOVIEW
 70
     0
  9
$PUCSORGTOP
 10
0.0
 20
0.0
 30
0.0
  9
$PUCSORGBOTTOM
 10
0.0
 20
0.0
 30
0.0
  9
$PUCSORGLEFT
 10
0.0
 20
0.0
 30
0.0
  9
$PUCSORGRIGHT
 10
0.0
 20
0.0
 30
0.0
  9
$PUCSORGFRONT
 10
0.0
 20
0.0
 30
0.0
  9
$PUCSORGBACK
 10
0.0
 20
0.0
 30
0.0
  9
$USERI1
 70
     0
  9
$USERI2
 70
     0
  9
$USERI3
 70
     0
  9
$USERI4
 70
     0
  9
$USERI5
 70
     0
  9
$USERR1
 40
0.0
  9
$USERR2
 40
0.0
  9
$USERR3
 40
0.0
  9
$USERR4
 40
0.0
  9
$USERR5
 40
0.0
  9
$WORLDVIEW
 70
     1
  9
$SHADEDGE
 70
     3
  9
$SHADEDIF
 70
    70
  9
$TILEMODE
 70
     0
  9
$MAXACTVP
 70
    64
  9
$PINSBASE
 10
0.0
 20
0.0
 30
0.0
  9
$PLIMCHECK
 70
     0
  9
$PEXTMIN
 10
-6.476730268722008
 20
-22.15100036762052
 30
0.0
  9
$PEXTMAX
 10
413.523269731278
 20
274.8489996323794
 30
0.0
  9
$PLIMMIN
 10
-11.10913422331553
 20
-26.78342206307267
  9
$PLIMMAX
 10
422.2693581949198
 20
279.4814258500112
  9
$UNITMODE
 70
     0
  9
$VISRETAIN
 70
     1
  9
$PLINEGEN
 70
     0
  9
$PSLTSCALE
 70
     0
  9
$TREEDEPTH
 70
  3020
  9
$CMLSTYLE
  2
Standard
  9
$CMLJUST
 70
     0
  9
$CMLSCALE
 40
20.0
  9
$PROXYGRAPHICS
 70
     1
  9
$MEASUREMENT
 70
     1
  9
$CELWEIGHT
370
    -1
  9
$ENDCAPS
280
     0
  9
$JOINSTYLE
280
     0
  9
$LWDISPLAY
290
     0
  9
$INSUNITS
 70
     4
  9
$HYPERLINKBASE
  1

  9
$STYLESHEET
  1
monochrome.ctb
  9
$XEDIT
290
     1
  9
$CEPSNTYPE
380
     0
  9
$PSTYLEMODE
290
     1
  9
$FINGERPRINTGUID
  2
{0A48E88A-525A-4CAB-B467-202E6A9975EA}
  9
$VERSIONGUID
  2
{A956B48F-3494-4128-B753-7557572EA86C}
  9
$EXTNAMES
290
     1
  9
$PSVPSCALE
 40
0.0
  9
$OLESTARTUP
290
     0
  0
ENDSEC
  0
SECTION
  2
CLASSES
  0
CLASS
  1
ACDBDICTIONARYWDFLT
  2
AcDbDictionaryWithDefault
  3
ObjectDBX Classes
 90
        0
280
     0
281
     0
  0
CLASS
  1
ACDBPLACEHOLDER
  2
AcDbPlaceHolder
  3
ObjectDBX Classes
 90
        0
280
     0
281
     0
  0
CLASS
  1
LAYOUT
  2
AcDbLayout
  3
ObjectDBX Classes
 90
        0
280
     0
281
     0
  0
CLASS
  1
DICTIONARYVAR
  2
AcDbDictionaryVar
  3
ObjectDBX Classes
 90
        0
280
     0
281
     0
  0
CLASS
  1
TABLESTYLE
  2
AcDbTableStyle
  3
ObjectDBX Classes
 90
     4095
280
     0
281
     0
  0
CLASS
  1
SORTENTSTABLE
  2
AcDbSortentsTable
  3
ObjectDBX Classes
 90
        0
280
     0
281
     0
  0
CLASS
  1
DIMASSOC
  2
AcDbDimAssoc
  3
"AcDbDimAssoc|Product Desc:     AcDim ARX App For Dimension|Company:          Autodesk, Inc.|WEB Address:      www.autodesk.com"
 90
        0
280
     0
281
     0
  0
CLASS
  1
SCALE
  2
AcDbScale
  3
ObjectDBX Classes
 90
     1153
280
     0
281
     0
  0
CLASS
  1
VISUALSTYLE
  2
AcDbVisualStyle
  3
ObjectDBX Classes
 90
     4095
280
     0
281
     0
  0
CLASS
  1
MATERIAL
  2
AcDbMaterial
  3
ObjectDBX Classes
 90
     1153
280
     0
281
     0
  0
CLASS
  1
MLEADERSTYLE
  2
AcDbMLeaderStyle
  3
ACDB_MLEADERSTYLE_CLASS
 90
     4095
280
     0
281
     0
  0
CLASS
  1
SUN
  2
AcDbSun
  3
SCENEOE
 90
     1153
280
     0
281
     0
  0
CLASS
  1
RASTERVARIABLES
  2
AcDbRasterVariables
  3
ISM
 90
        0
280
     0
281
     0
  0
ENDSEC
  0
SECTION
  2
TABLES
  0
TABLE
  2
VPORT
  5
8
330
0
100
AcDbSymbolTable
 70
     1
  0
VPORT
  5
6F63
330
8
100
AcDbSymbolTableRecord
100
AcDbViewportTableRecord
  2
*Active
 70
     0
 10
0.0
 20
0.0
 11
1.0
 21
1.0
 12
7615.867094205755
 22
4013.762760937677
 13
0.0
 23
0.0
 14
10.0
 24
10.0
 15
10.0
 25
10.0
 16
0.0
 26
0.0
 36
1.0
 17
0.0
 27
0.0
 37
0.0
 40
725.6894198951151
 41
1.762081784386617
 42
50.0
 43
0.0
 44
0.0
 50
0.0
 51
0.0
 71
     0
 72
   100
 73
     1
 74
     3
 75
     0
 76
     0
 77
     0
 78
     0
281
     0
 65
     1
110
0.0
120
0.0
130
0.0
111
1.0
121
0.0
131
0.0
112
0.0
122
1.0
132
0.0
 79
     0
146
0.0
  0
ENDTAB
  0
TABLE
  2
LTYPE
  5
5
330
0
100
AcDbSymbolTable
 70
     3
  0
LTYPE
  5
14
330
5
100
AcDbSymbolTableRecord
100
AcDbLinetypeTableRecord
  2
ByBlock
 70
     0
  3

 72
    65
 73
     0
 40
0.0
  0
LTYPE
  5
15
330
5
100
AcDbSymbolTableRecord
100
AcDbLinetypeTableRecord
  2
ByLayer
 70
     0
  3

 72
    65
 73
     0
 40
0.0
  0
LTYPE
  5
16
330
5
100
AcDbSymbolTableRecord
100
AcDbLinetypeTableRecord
  2
Continuous
 70
     0
  3
Solid line
 72
    65
 73
     0
 40
0.0
  0
LTYPE
  5
244
330
5
100
AcDbSymbolTableRecord
100
AcDbLinetypeTableRecord
  2
GESTRICHELT
 70
     0
  3
__ __ __ __ __ __ __ __ __ __ __ __ __ __ __ __
 72
    65
 73
     2
 40
0.24
 49
0.2
 74
     0
 49
-0.04
 74
     0
  0
LTYPE
  5
245
330
5
100
AcDbSymbolTableRecord
100
AcDbLinetypeTableRecord
  2
STRICHPUNKT
 70
     0
  3
__ . __ . __ . __ . __ . __ . __ . __ . __ . __
 72
    65
 73
     4
 40
1.0
 49
0.5
 74
     0
 49
-0.25
 74
     0
 49
0.0
 74
     0
 49
-0.25
 74
     0
  0
ENDTAB
  0
TABLE
  2
LAYER
  5
2
102
{ACAD_XDICTIONARY
360
2B
102
}
330
0
100
AcDbSymbolTable
 70
     9
  0
LAYER
  5
10
330
2
100
AcDbSymbolTableRecord
100
AcDbLayerTableRecord
  2
0
 70
     0
 62
     7
  6
Continuous
370
    25
390
F
  0
LAYER
  5
36
330
2
100
AcDbSymbolTableRecord
100
AcDbLayerTableRecord
  2
Defpoints
 70
     0
 62
     7
  6
Continuous
290
     0
370
    -3
390
F
  0
LAYER
  5
37
330
2
100
AcDbSymbolTableRecord
100
AcDbLayerTableRecord
  2
RAHMEN07
 70
     0
 62
     5
  6
Continuous
370
    50
390
F
  0
LAYER
  5
38
330
2
100
AcDbSymbolTableRecord
100
AcDbLayerTableRecord
  2
RAHMEN025
 70
     0
 62
     7
  6
Continuous
370
    25
390
F
  0
LAYER
  5
39
330
2
100
AcDbSymbolTableRecord
100
AcDbLayerTableRecord
  2
RAHMEN05
 70
     0
 62
     6
  6
Continuous
370
    50
390
F
  0
LAYER
  5
246
330
2
100
AcDbSymbolTableRecord
100
AcDbLayerTableRecord
  2
Bemaßung
 70
     0
 62
     5
  6
Continuous
370
    25
390
F
  0
LAYER
  5
37C9
330
2
100
AcDbSymbolTableRecord
100
AcDbLayerTableRecord
  2
ACHSEN
 70
     0
 62
   152
  6
STRICHPUNKT
370
    18
390
F
  0
LAYER
  5
37CA
330
2
100
AcDbSymbolTableRecord
100
AcDbLayerTableRecord
  2
AVERDECKTE
 70
     0
 62
     7
  6
GESTRICHELT
370
    18
390
F
  0
LAYER
  5
4D59
330
2
100
AcDbSymbolTableRecord
100
AcDbLayerTableRecord
  2
Rüttler
 70
     0
 62
    62
  6
Continuous
370
    35
390
F
1001
AcAecLayerStandard
1000

1000

  0
ENDTAB
  0
TABLE
  2
STYLE
  5
3
330
0
100
AcDbSymbolTable
 70
     4
  0
STYLE
  5
11
330
3
100
AcDbSymbolTableRecord
100
AcDbTextStyleTableRecord
  2
Standard
 70
     0
 40
0.0
 41
1.0
 50
0.0
 71
     0
 42
2.5
  3
txt
  4

  0
STYLE
  5
3B
330
3
100
AcDbSymbolTableRecord
100
AcDbTextStyleTableRecord
  2
Stil1
 70
     0
 40
0.0
 41
1.0
 50
0.0
 71
     0
 42
2.5
  3
romans.shx
  4
bigfont.shx
  0
STYLE
  5
3D
330
3
100
AcDbSymbolTableRecord
100
AcDbTextStyleTableRecord
  2
ISO Proportional
 70
     0
 40
0.0
 41
1.0
 50
0.0
 71
     0
 42
2.5
  3
isocp.shx
  4

  0
STYLE
  5
3E
330
3
100
AcDbSymbolTableRecord
100
AcDbTextStyleTableRecord
  2
NORM
 70
     0
 40
0.0
 41
1.0
 50
0.0
 71
     0
 42
30.0
  3
SIMPLEX
  4

  0
ENDTAB
  0
TABLE
  2
VIEW
  5
6
330
0
100
AcDbSymbolTable
 70
     0
  0
ENDTAB
  0
TABLE
  2
UCS
  5
7
330
0
100
AcDbSymbolTable
 70
     0
  0
ENDTAB
  0
TABLE
  2
APPID
  5
9
330
0
100
AcDbSymbolTable
 70
    12
  0
APPID
  5
12
330
9
100
AcDbSymbolTableRecord
100
AcDbRegAppTableRecord
  2
ACAD
 70
     0
  0
APPID
  5
26DD
330
9
100
AcDbSymbolTableRecord
100
AcDbRegAppTableRecord
  2
ACAD_DSTYLE_DIMTEXT_FILL
 70
     0
  0
APPID
  5
26DE
330
9
100
AcDbSymbolTableRecord
100
AcDbRegAppTableRecord
  2
ACAD_DSTYLE_DIMEXT_LENGTH
 70
     0
  0
APPID
  5
26DF
330
9
100
AcDbSymbolTableRecord
100
AcDbRegAppTableRecord
  2
ACAD_DSTYLE_DIMEXT_ENABLED
 70
     0
  0
APPID
  5
26E0
330
9
100
AcDbSymbolTableRecord
100
AcDbRegAppTableRecord
  2
ACAD_DSTYLE_DIM_LINETYPE
 70
     0
  0
APPID
  5
26E1
330
9
100
AcDbSymbolTableRecord
100
AcDbRegAppTableRecord
  2
ACAD_DSTYLE_DIM_EXT1_LINETYPE
 70
     0
  0
APPID
  5
26E2
330
9
100
AcDbSymbolTableRecord
100
AcDbRegAppTableRecord
  2
ACAD_DSTYLE_DIM_EXT2_LINETYPE
 70
     0
  0
APPID
  5
279E
330
9
100
AcDbSymbolTableRecord
100
AcDbRegAppTableRecord
  2
ACAD_DSTYLE_DIMJOGGED_JOGANGLE_SYMBOL
 70
     0
  0
APPID
  5
2862
330
9
100
AcDbSymbolTableRecord
100
AcDbRegAppTableRecord
  2
ACAD_DSTYLE_DIMARC_LENGTH_SYMBOL
 70
     0
  0
APPID
  5
48E3
330
9
100
AcDbSymbolTableRecord
100
AcDbRegAppTableRecord
  2
AcAecLayerStandard
 70
     0
  0
APPID
  5
48E4
330
9
100
AcDbSymbolTableRecord
100
AcDbRegAppTableRecord
  2
ACAD_PSEXT
 70
     0
  0
APPID
  5
4BBA
330
9
100
AcDbSymbolTableRecord
100
AcDbRegAppTableRecord
  2
ACAD_EXEMPT_FROM_CAD_STANDARDS
 70
     0
  0
ENDTAB
  0
TABLE
  2
DIMSTYLE
  5
A
330
0
100
AcDbSymbolTable
 70
     5
100
AcDbDimStyleTable
  0
DIMSTYLE
105
2254
330
A
100
AcDbSymbolTableRecord
100
AcDbDimStyleTableRecord
  2
Stil 5
 70
     0
 41
3.0
 42
0.0
 43
0.0
 44
2.0
 73
     0
 74
     0
 77
     1
 78
     8
 79
     2
140
3.0
141
2.5
143
0.03937007874016
147
2.0
171
     3
172
     1
176
     7
177
     7
271
     2
178
   256
179
     1
271
     2
272
     2
274
     3
278
    44
283
     0
284
     8
288
     1
340
3E
371
    25
372
    25
  0
DIMSTYLE
105
6482
330
A
100
AcDbSymbolTableRecord
100
AcDbDimStyleTableRecord
  2
Stil 1
 70
     0
 41
50.0
 42
0.0
 43
0.0
 44
20.0
 73
     0
 74
     0
 77
     1
 78
     8
 79
     2
140
50.0
141
2.5
143
0.03937007874016
147
15.0
171
     3
172
     1
176
     7
177
     7
271
     2
178
   256
179
     1
271
     2
272
     2
274
     3
278
    44
283
     0
284
     8
288
     1
340
3E
371
    25
372
    25
  0
DIMSTYLE
105
6483
330
A
100
AcDbSymbolTableRecord
100
AcDbDimStyleTableRecord
  2
Stil 2
 70
     0
 41
30.0
 42
0.0
 43
0.0
 44
20.0
 73
     0
 74
     0
 77
     1
 78
     8
 79
     2
140
30.0
141
2.5
143
0.03937007874016
147
15.0
171
     3
172
     1
176
     7
177
     7
271
     2
178
   256
179
     1
271
     2
272
     2
274
     3
278
    44
283
     0
284
     8
288
     1
340
3E
371
    25
372
    25
  0
DIMSTYLE
105
6E76
330
A
100
AcDbSymbolTableRecord
100
AcDbDimStyleTableRecord
  2
ISO-25
 70
     0
 41
2.5
 42
0.625
 43
3.75
 44
1.25
 73
     0
 74
     0
 77
     1
 78
     8
140
2.5
141
2.5
143
0.03937007874016
147
0.625
171
     3
172
     1
178
     0
271
     2
272
     2
274
     3
278
    44
283
     0
284
     8
340
11
  0
DIMSTYLE
105
6E77
330
A
100
AcDbSymbolTableRecord
100
AcDbDimStyleTableRecord
  2
Stil 4
 70
     0
 41
10.0
 42
0.0
 43
0.0
 44
5.0
 73
     0
 74
     0
 77
     1
 78
     8
 79
     2
140
10.0
141
2.5
143
0.03937007874016
147
5.0
171
     3
172
     1
174
     1
176
     7
177
     7
271
     2
178
   256
179
     1
271
     2
272
     2
274
     3
278
    44
283
     0
284
     8
288
     1
340
3B
371
    25
372
    25
  0
ENDTAB
  0
TABLE
  2
BLOCK_RECORD
  5
1
330
0
100
AcDbSymbolTable
 70
     3
  0
BLOCK_RECORD
  5
1F
102
{ACAD_XDICTIONARY
360
4ADE
102
}
330
1
100
AcDbSymbolTableRecord
100
AcDbBlockTableRecord
  2
*Model_Space
340
22
  0
BLOCK_RECORD
  5
646F
330
1
100
AcDbSymbolTableRecord
100
AcDbBlockTableRecord
  2
*Paper_Space
340
6470
  0
BLOCK_RECORD
  5
6E78
330
1
100
AcDbSymbolTableRecord
100
AcDbBlockTableRecord
  2
A$C526E0D9A
340
0
  0
ENDTAB
  0
ENDSEC
  0
SECTION
  2
BLOCKS
  0
BLOCK
  5
20
330
1F
100
AcDbEntity
  8
0
100
AcDbBlockBegin
  2
*Model_Space
 70
     0
 10
0.0
 20
0.0
 30
0.0
  3
*Model_Space
  1
*Model_Space
  0
ENDBLK
  5
21
330
1F
100
AcDbEntity
  8
0
100
AcDbBlockEnd
  0
BLOCK
  5
6471
330
646F
100
AcDbEntity
 67
     1
  8
0
100
AcDbBlockBegin
  2
*Paper_Space
 70
     0
 10
0.0
 20
0.0
 30
0.0
  3
*Paper_Space
  1
*Paper_Space
  0
ENDBLK
  5
6472
330
646F
100
AcDbEntity
 67
     1
  8
0
100
AcDbBlockEnd
  0
BLOCK
  5
6F46
330
6E78
100
AcDbEntity
  8
0
100
AcDbBlockBegin
  2
A$C526E0D9A
 70
     0
 10
0.0
 20
0.0
 30
0.0
  3
A$C526E0D9A
  1
A$C526E0D9A
  0
LINE
  5
6E79
330
6E78
100
AcDbEntity
  8
0
370
    18
100
AcDbLine
 10
1051.121199729363
 20
1228.664723367803
 30
0.0
 11
1052.113781956292
 21
1232.369090669394
 31
0.0
  0
ARC
  5
6E7A
330
6E78
100
AcDbEntity
  8
0
370
    18
100
AcDbCircle
 10
1059.935892036698
 20
1228.545328698708
 30
0.0
 40
8.224997010073714
100
AcDbArc
 50
157.3874044007889
 51
171.020015179944
  0
ARC
  5
6E7B
330
6E78
100
AcDbEntity
  8
0
370
    18
100
AcDbCircle
 10
1052.758718616779
 20
1229.679511333472
 30
0.0
 40
0.9587608077068694
100
AcDbArc
 50
171.020015179944
 51
262.0635437036931
  0
LINE
  5
6E7C
330
6E78
100
AcDbEntity
  8
0
370
    18
100
AcDbLine
 10
1052.113781956292
 20
1232.369090669394
 30
0.0
 11
1050.798410816734
 21
1232.369090669394
 31
0.0
  0
LWPOLYLINE
  5
6E7D
330
6E78
100
AcDbEntity
  8
0
370
    18
100
AcDbPolyline
 90
        4
 70
     1
 43
0.0
 10
1031.98343010338
 20
1228.076239440714
 10
1031.387880767222
 20
1225.853619059759
 10
1054.438886685325
 20
1225.853619059759
 10
1055.034436021483
 20
1228.076239440714
  0
LWPOLYLINE
  5
6E7E
330
6E78
100
AcDbEntity
  8
0
  6
Continuous
100
AcDbPolyline
 90
        4
 70
     1
 43
0.0
 10
1010.531685415116
 20
1223.353452152485
 10
1059.489069826379
 20
1223.353452152485
 10
1059.489069826379
 20
1240.340676982938
 10
1010.531685415116
 20
1240.340676982938
  0
LINE
  5
6E7F
330
6E78
100
AcDbEntity
  8
0
370
    18
100
AcDbLine
 10
1025.609670418194
 20
1228.664723367803
 30
0.0
 11
1023.880626087055
 21
1228.664723367803
 31
0.0
  0
ARC
  5
6E80
330
6E78
100
AcDbEntity
  8
0
370
    18
100
AcDbCircle
 10
1024.024195740424
 20
1229.844136563537
 30
0.0
 40
0.4602051876992975
100
AcDbArc
 50
270.0
 51
334.2263645027608
  0
ARC
  5
6E81
330
6E78
100
AcDbEntity
  8
0
370
    18
100
AcDbCircle
 10
1025.001774487477
 20
1217.901994584595
 30
0.0
 40
14.46807838019826
100
AcDbArc
 50
83.51735091136804
 51
95.9233444042366
  0
ARC
  5
6E82
330
6E78
100
AcDbEntity
  8
0
370
    18
100
AcDbCircle
 10
1024.39390728405
 20
1230.946241571582
 30
0.0
 40
0.4602051876992975
100
AcDbArc
 50
93.02614479233053
 51
158.0969939507869
  0
LINE
  5
6E83
330
6E78
100
AcDbEntity
  8
0
370
    18
100
AcDbLine
 10
1025.297693577112
 20
1236.742332326742
 30
0.0
 11
1024.036507729846
 21
1236.742332326742
 31
0.0
  0
LINE
  5
6E84
330
6E78
100
AcDbEntity
  8
0
370
    18
100
AcDbLine
 10
1023.043925502917
 20
1233.03796502515
 30
0.0
 11
1024.346487344629
 21
1233.03796502515
 31
0.0
  0
LINE
  5
6E85
330
6E78
100
AcDbEntity
  8
0
370
    18
100
AcDbLine
 10
1019.946148108571
 20
1232.369090669394
 30
0.0
 11
1020.655738123319
 21
1230.616931437863
 31
0.0
  0
LINE
  5
6E86
330
6E78
100
AcDbEntity
  8
0
370
    18
100
AcDbLine
 10
1020.173971946742
 20
1228.664723367803
 30
0.0
 11
1021.448016687047
 21
1228.664723367803
 31
0.0
  0
LINE
  5
6E87
330
6E78
100
AcDbEntity
  8
0
370
    18
100
AcDbLine
 10
1020.62454023982
 20
1234.752986668559
 30
0.0
 11
1020.165001575466
 21
1233.03796502515
 31
0.0
  0
LINE
  5
6E88
330
6E78
100
AcDbEntity
  8
0
370
    18
100
AcDbLine
 10
1021.157583802396
 20
1236.742332326742
 30
0.0
 11
1019.815318671607
 21
1236.742332326742
 31
0.0
  0
LINE
  5
6E89
330
6E78
100
AcDbEntity
  8
0
370
    18
100
AcDbLine
 10
1018.684962261304
 20
1232.369090669394
 30
0.0
 11
1017.692380034374
 21
1228.664723367803
 31
0.0
  0
LINE
  5
6E8A
330
6E78
100
AcDbEntity
  8
0
370
    18
100
AcDbLine
 10
1017.161374164124
 20
1228.664723367803
 30
0.0
 11
1017.434116464427
 21
1229.6826114899
 31
0.0
  0
LINE
  5
6E8B
330
6E78
100
AcDbEntity
  8
0
370
    18
100
AcDbLine
 10
1019.466836640293
 20
1230.425858603644
 30
0.0
 11
1018.994941876087
 21
1228.664723367803
 31
0.0
  0
LINE
  5
6E8C
330
6E78
100
AcDbEntity
  8
0
370
    18
100
AcDbLine
 10
1017.692380034374
 20
1228.664723367803
 30
0.0
 11
1018.994941876087
 21
1228.664723367803
 31
0.0
  0
LINE
  5
6E8D
330
6E78
100
AcDbEntity
  8
0
370
    18
100
AcDbLine
 10
1017.558428088046
 20
1230.146548785221
 30
0.0
 11
1017.756822142957
 21
1230.886965478066
 31
0.0
  0
LINE
  5
6E8E
330
6E78
100
AcDbEntity
  8
0
370
    18
100
AcDbLine
 10
1020.173971946742
 20
1228.664723367803
 30
0.0
 11
1019.466836640293
 21
1230.425858603644
 31
0.0
  0
LINE
  5
6E8F
330
6E78
100
AcDbEntity
  8
0
370
    18
100
AcDbLine
 10
1017.880869217706
 20
1231.349915463562
 30
0.0
 11
1018.153956391054
 21
1232.369090669394
 31
0.0
  0
LINE
  5
6E90
330
6E78
100
AcDbEntity
  8
0
370
    18
100
AcDbLine
 10
1017.880869217706
 20
1231.349915463562
 30
0.0
 11
1015.377815150303
 21
1231.349915463562
 31
0.0
  0
LINE
  5
6E91
330
6E78
100
AcDbEntity
  8
0
370
    18
100
AcDbLine
 10
1019.815318671607
 20
1236.742332326742
 30
0.0
 11
1018.822736444677
 21
1233.03796502515
 31
0.0
  0
LINE
  5
6E92
330
6E78
100
AcDbEntity
  8
0
370
    18
100
AcDbLine
 10
1019.946148108571
 20
1232.369090669394
 30
0.0
 11
1018.684962261304
 21
1232.369090669394
 31
0.0
  0
LINE
  5
6E93
330
6E78
100
AcDbEntity
  8
0
370
    18
100
AcDbLine
 10
1018.822736444677
 20
1233.03796502515
 30
0.0
 11
1020.165001575466
 21
1233.03796502515
 31
0.0
  0
LINE
  5
6E94
330
6E78
100
AcDbEntity
  8
0
370
    18
100
AcDbLine
 10
1021.448016687047
 20
1228.664723367803
 30
0.0
 11
1022.440598913977
 21
1232.369090669394
 31
0.0
  0
LINE
  5
6E95
330
6E78
100
AcDbEntity
  8
0
370
    18
100
AcDbLine
 10
1020.655738123319
 20
1230.616931437863
 30
0.0
 11
1021.125227774419
 21
1232.369090669394
 31
0.0
  0
ARC
  5
6E96
330
6E78
100
AcDbEntity
  8
0
370
    18
100
AcDbCircle
 10
1030.31529202188
 20
1228.545328698708
 30
0.0
 40
8.224997010073714
100
AcDbArc
 50
157.3874044007889
 51
171.020015179944
  0
ARC
  5
6E97
330
6E78
100
AcDbEntity
  8
0
370
    18
100
AcDbCircle
 10
1029.739326224152
 20
1228.797071157493
 30
0.0
 40
6.22149298766157
100
AcDbArc
 50
158.0969939507869
 51
170.4856136403528
  0
ARC
  5
6E98
330
6E78
100
AcDbEntity
  8
0
370
    18
100
AcDbCircle
 10
1023.988727105336
 20
1235.780997232487
 30
0.0
 40
7.119253077153191
100
AcDbArc
 50
262.0635437036931
 51
271.6576250419802
  0
LINE
  5
6E99
330
6E78
100
AcDbEntity
  8
0
370
    18
100
AcDbLine
 10
1023.982505518588
 20
1229.383931375838
 30
0.0
 11
1024.024195740424
 21
1229.383931375838
 31
0.0
  0
ARC
  5
6E9A
330
6E78
100
AcDbEntity
  8
0
370
    18
100
AcDbCircle
 10
1023.982505518588
 20
1229.767435698921
 30
0.0
 40
0.3835043230827479
100
AcDbArc
 50
171.2985646492412
 51
270.0
  0
ARC
  5
6E9B
330
6E78
100
AcDbEntity
  8
0
370
    18
100
AcDbCircle
 10
1023.138118601961
 20
1229.679511333472
 30
0.0
 40
0.9587608077068694
100
AcDbArc
 50
171.020015179944
 51
262.0635437036931
  0
LINE
  5
6E9C
330
6E78
100
AcDbEntity
  8
0
370
    18
100
AcDbLine
 10
1022.055875592589
 20
1236.742332326742
 30
0.0
 11
1020.759784401145
 21
1235.257724750053
 31
0.0
  0
LINE
  5
6E9D
330
6E78
100
AcDbEntity
  8
0
370
    18
100
AcDbLine
 10
1021.157583802396
 20
1236.742332326742
 30
0.0
 11
1020.759784401145
 21
1235.257724750053
 31
0.0
  0
LINE
  5
6E9E
330
6E78
100
AcDbEntity
  8
0
370
    18
100
AcDbLine
 10
1023.650361902434
 20
1236.742332326742
 30
0.0
 11
1021.991363883554
 21
1234.84203314656
 31
0.0
  0
LINE
  5
6E9F
330
6E78
100
AcDbEntity
  8
0
370
    18
100
AcDbLine
 10
1023.650361902434
 20
1236.742332326742
 30
0.0
 11
1022.055875592589
 21
1236.742332326742
 31
0.0
  0
LINE
  5
6EA0
330
6E78
100
AcDbEntity
  8
0
370
    18
100
AcDbLine
 10
1022.440598913977
 20
1232.369090669394
 30
0.0
 11
1021.125227774419
 21
1232.369090669394
 31
0.0
  0
LINE
  5
6EA1
330
6E78
100
AcDbEntity
  8
0
370
    18
100
AcDbLine
 10
1021.217179292211
 20
1233.03796502515
 30
0.0
 11
1022.657779675504
 21
1233.03796502515
 31
0.0
  0
ARC
  5
6EA2
330
6E78
100
AcDbEntity
  8
0
370
    18
100
AcDbCircle
 10
1023.607642544075
 20
1231.339183926074
 30
0.0
 40
0.9587608077068694
100
AcDbArc
 50
95.9233444042366
 51
157.3874044007889
  0
LINE
  5
6EA3
330
6E78
100
AcDbEntity
  8
0
370
    18
100
AcDbLine
 10
1020.62454023982
 20
1234.752986668559
 30
0.0
 11
1021.25315376415
 21
1233.051253856056
 31
0.0
  0
LINE
  5
6EA4
330
6E78
100
AcDbEntity
  8
0
370
    18
100
AcDbLine
 10
1024.036507729846
 20
1236.742332326742
 30
0.0
 11
1023.043925502917
 21
1233.03796502515
 31
0.0
  0
LINE
  5
6EA5
330
6E78
100
AcDbEntity
  8
0
370
    18
100
AcDbLine
 10
1021.991363883554
 20
1234.84203314656
 30
0.0
 11
1022.657779675504
 21
1233.03796502515
 31
0.0
  0
LINE
  5
6EA6
330
6E78
100
AcDbEntity
  8
0
370
    18
100
AcDbLine
 10
1014.358616449305
 20
1232.369090669394
 30
0.0
 11
1013.366034222374
 21
1228.664723367803
 31
0.0
  0
LINE
  5
6EA7
330
6E78
100
AcDbEntity
  8
0
370
    18
100
AcDbLine
 10
1015.065649988008
 20
1230.146548785221
 30
0.0
 11
1014.941338364389
 21
1229.6826114899
 31
0.0
  0
LINE
  5
6EA8
330
6E78
100
AcDbEntity
  8
0
370
    18
100
AcDbLine
 10
1015.065649988008
 20
1230.146548785221
 30
0.0
 11
1014.951614331755
 21
1229.720961922209
 31
0.0
  0
LINE
  5
6EA9
330
6E78
100
AcDbEntity
  8
0
370
    18
100
AcDbLine
 10
1015.388091117668
 20
1231.349915463562
 30
0.0
 11
1015.264044042918
 21
1230.886965478066
 31
0.0
  0
LINE
  5
6EAA
330
6E78
100
AcDbEntity
  8
0
370
    18
100
AcDbLine
 10
1013.366034222375
 20
1228.664723367803
 30
0.0
 11
1017.161374164124
 21
1228.664723367803
 31
0.0
  0
LINE
  5
6EAB
330
6E78
100
AcDbEntity
  8
0
370
    18
100
AcDbLine
 10
1017.756822142957
 20
1230.886965478066
 30
0.0
 11
1015.264044042918
 21
1230.886965478066
 31
0.0
  0
LINE
  5
6EAC
330
6E78
100
AcDbEntity
  8
0
370
    18
100
AcDbLine
 10
1014.941338364389
 20
1229.6826114899
 30
0.0
 11
1017.444392431793
 21
1229.6826114899
 31
0.0
  0
LINE
  5
6EAD
330
6E78
100
AcDbEntity
  8
0
370
    18
100
AcDbLine
 10
1015.065649988008
 20
1230.146548785221
 30
0.0
 11
1017.558428088046
 21
1230.146548785221
 31
0.0
  0
LINE
  5
6EAE
330
6E78
100
AcDbEntity
  8
0
370
    18
100
AcDbLine
 10
1018.153956391054
 20
1232.369090669394
 30
0.0
 11
1014.358616449305
 21
1232.369090669394
 31
0.0
  0
LWPOLYLINE
  5
6EAF
330
6E78
100
AcDbEntity
  8
0
370
    18
100
AcDbPolyline
 90
        4
 70
     1
 43
0.0
 10
1015.211273231731
 20
1235.32033470741
 10
1014.615723895573
 20
1233.097714326455
 10
1018.067262803319
 20
1233.097714326455
 10
1018.662812139477
 20
1235.32033470741
  0
LINE
  5
6EB0
330
6E78
100
AcDbEntity
  8
0
370
    18
100
AcDbLine
 10
1036.342570159545
 20
1228.664723367803
 30
0.0
 11
1040.137910101296
 21
1228.664723367803
 31
0.0
  0
LINE
  5
6EB1
330
6E78
100
AcDbEntity
  8
0
370
    18
100
AcDbLine
 10
1037.917874301559
 20
1229.6826114899
 30
0.0
 11
1040.420928368963
 21
1229.6826114899
 31
0.0
  0
LINE
  5
6EB2
330
6E78
100
AcDbEntity
  8
0
370
    18
100
AcDbLine
 10
1038.042185925179
 20
1230.146548785221
 30
0.0
 11
1040.534964025217
 21
1230.146548785221
 31
0.0
  0
LINE
  5
6EB3
330
6E78
100
AcDbEntity
  8
0
370
    18
100
AcDbLine
 10
1037.759476036127
 20
1234.055853147248
 30
0.0
 11
1040.262530103532
 21
1234.055853147248
 31
0.0
  0
LINE
  5
6EB4
330
6E78
100
AcDbEntity
  8
0
370
    18
100
AcDbLine
 10
1040.972094062794
 20
1236.742332326742
 30
0.0
 11
1037.176754121043
 21
1236.742332326742
 31
0.0
  0
LINE
  5
6EB5
330
6E78
100
AcDbEntity
  8
0
370
    18
100
AcDbLine
 10
1041.130492328224
 20
1232.369090669394
 30
0.0
 11
1037.335152386475
 21
1232.369090669394
 31
0.0
  0
LINE
  5
6EB6
330
6E78
100
AcDbEntity
  8
0
370
    18
100
AcDbLine
 10
1036.184171894114
 20
1233.03796502515
 30
0.0
 11
1039.979511835864
 21
1233.03796502515
 31
0.0
  0
LINE
  5
6EB7
330
6E78
100
AcDbEntity
  8
0
370
    18
100
AcDbLine
 10
1037.883787659747
 20
1234.519790442568
 30
0.0
 11
1040.376565759785
 21
1234.519790442568
 31
0.0
  0
LINE
  5
6EB8
330
6E78
100
AcDbEntity
  8
0
370
    18
100
AcDbLine
 10
1031.62847415923
 20
1228.664723367803
 30
0.0
 11
1032.621056386161
 21
1232.369090669394
 31
0.0
  0
ARC
  5
6EB9
330
6E78
100
AcDbEntity
  8
0
370
    18
100
AcDbCircle
 10
1033.032431989661
 20
1234.058455009766
 30
0.0
 40
0.9587608077068694
100
AcDbArc
 50
165.0000000000055
 51
261.6882763531171
  0
LINE
  5
6EBA
330
6E78
100
AcDbEntity
  8
0
370
    18
100
AcDbLine
 10
1032.621056386161
 20
1232.369090669394
 30
0.0
 11
1031.305685246603
 21
1232.369090669394
 31
0.0
  0
LINE
  5
6EBB
330
6E78
100
AcDbEntity
  8
0
370
    18
100
AcDbLine
 10
1030.126605580754
 20
1232.369090669394
 30
0.0
 11
1030.836195595503
 21
1230.616931437863
 31
0.0
  0
LINE
  5
6EBC
330
6E78
100
AcDbEntity
  8
0
370
    18
100
AcDbLine
 10
1030.836195595503
 20
1230.616931437863
 30
0.0
 11
1031.305685246603
 21
1232.369090669394
 31
0.0
  0
LINE
  5
6EBD
330
6E78
100
AcDbEntity
  8
0
370
    18
100
AcDbLine
 10
1029.647294112476
 20
1230.425858603644
 30
0.0
 11
1029.17539934827
 21
1228.664723367803
 31
0.0
  0
LINE
  5
6EBE
330
6E78
100
AcDbEntity
  8
0
370
    18
100
AcDbLine
 10
1030.354429418925
 20
1228.664723367803
 30
0.0
 11
1029.647294112476
 21
1230.425858603644
 31
0.0
  0
LINE
  5
6EBF
330
6E78
100
AcDbEntity
  8
0
370
    18
100
AcDbLine
 10
1030.354429418925
 20
1228.664723367803
 30
0.0
 11
1031.62847415923
 21
1228.664723367803
 31
0.0
  0
LINE
  5
6EC0
330
6E78
100
AcDbEntity
  8
0
370
    18
100
AcDbLine
 10
1031.826904275786
 20
1233.036029156941
 30
0.0
 11
1031.639577233076
 21
1236.742332326742
 31
0.0
  0
LINE
  5
6EC1
330
6E78
100
AcDbEntity
  8
0
370
    18
100
AcDbLine
 10
1029.431915389419
 20
1234.370412757439
 30
0.0
 11
1030.45559501016
 21
1234.370412757439
 31
0.0
  0
LINE
  5
6EC2
330
6E78
100
AcDbEntity
  8
0
370
    18
100
AcDbLine
 10
1029.431915389419
 20
1234.370412757439
 30
0.0
 11
1030.368871771671
 21
1236.08624945168
 31
0.0
  0
LINE
  5
6EC3
330
6E78
100
AcDbEntity
  8
0
370
    18
100
AcDbLine
 10
1030.45559501016
 20
1234.370412757439
 30
0.0
 11
1030.368871771671
 21
1236.08624945168
 31
0.0
  0
LINE
  5
6EC4
330
6E78
100
AcDbEntity
  8
0
370
    18
100
AcDbLine
 10
1030.522940686382
 20
1233.03796502515
 30
0.0
 11
1030.496234597016
 21
1233.566350367928
 31
0.0
  0
LINE
  5
6EC5
330
6E78
100
AcDbEntity
  8
0
370
    18
100
AcDbLine
 10
1031.639577233076
 20
1236.742332326742
 30
0.0
 11
1029.129138393474
 21
1236.742332326742
 31
0.0
  0
LINE
  5
6EC6
330
6E78
100
AcDbEntity
  8
0
370
    18
100
AcDbLine
 10
1030.522940686382
 20
1233.03796502515
 30
0.0
 11
1031.826806431533
 21
1233.03796502515
 31
0.0
  0
LINE
  5
6EC7
330
6E78
100
AcDbEntity
  8
0
370
    18
100
AcDbLine
 10
1033.09941701292
 20
1232.369090669394
 30
0.0
 11
1032.10683478599
 21
1228.664723367803
 31
0.0
  0
LINE
  5
6EC8
330
6E78
100
AcDbEntity
  8
0
370
    18
100
AcDbLine
 10
1037.335152386475
 20
1232.369090669394
 30
0.0
 11
1036.342570159545
 21
1228.664723367803
 31
0.0
  0
LINE
  5
6EC9
330
6E78
100
AcDbEntity
  8
0
370
    18
100
AcDbLine
 10
1034.128891681284
 20
1231.349915463562
 30
0.0
 11
1034.004844606535
 21
1230.886965478066
 31
0.0
  0
LINE
  5
6ECA
330
6E78
100
AcDbEntity
  8
0
370
    18
100
AcDbLine
 10
1032.10683478599
 20
1228.664723367803
 30
0.0
 11
1035.902174727741
 21
1228.664723367803
 31
0.0
  0
LINE
  5
6ECB
330
6E78
100
AcDbEntity
  8
0
370
    18
100
AcDbLine
 10
1035.902174727741
 20
1228.664723367803
 30
0.0
 11
1036.174917028042
 21
1229.6826114899
 31
0.0
  0
LINE
  5
6ECC
330
6E78
100
AcDbEntity
  8
0
370
    18
100
AcDbLine
 10
1033.682138928004
 20
1229.6826114899
 30
0.0
 11
1036.185192995409
 21
1229.6826114899
 31
0.0
  0
LINE
  5
6ECD
330
6E78
100
AcDbEntity
  8
0
370
    18
100
AcDbLine
 10
1033.806450551625
 20
1230.146548785221
 30
0.0
 11
1033.682138928004
 21
1229.6826114899
 31
0.0
  0
LINE
  5
6ECE
330
6E78
100
AcDbEntity
  8
0
370
    18
100
AcDbLine
 10
1033.806450551625
 20
1230.146548785221
 30
0.0
 11
1036.299228651662
 21
1230.146548785221
 31
0.0
  0
LINE
  5
6ECF
330
6E78
100
AcDbEntity
  8
0
370
    18
100
AcDbLine
 10
1036.299228651662
 20
1230.146548785221
 30
0.0
 11
1036.497622706573
 21
1230.886965478066
 31
0.0
  0
LINE
  5
6ED0
330
6E78
100
AcDbEntity
  8
0
370
    18
100
AcDbLine
 10
1036.497622706573
 20
1230.886965478066
 30
0.0
 11
1034.004844606535
 21
1230.886965478066
 31
0.0
  0
LINE
  5
6ED1
330
6E78
100
AcDbEntity
  8
0
370
    18
100
AcDbLine
 10
1033.806450551625
 20
1230.146548785221
 30
0.0
 11
1033.692414895371
 21
1229.720961922209
 31
0.0
  0
LINE
  5
6ED2
330
6E78
100
AcDbEntity
  8
0
370
    18
100
AcDbLine
 10
1038.042185925179
 20
1230.146548785221
 30
0.0
 11
1037.917874301559
 21
1229.6826114899
 31
0.0
  0
LINE
  5
6ED3
330
6E78
100
AcDbEntity
  8
0
370
    18
100
AcDbLine
 10
1038.042185925179
 20
1230.146548785221
 30
0.0
 11
1037.928150268926
 21
1229.720961922209
 31
0.0
  0
LINE
  5
6ED4
330
6E78
100
AcDbEntity
  8
0
370
    18
100
AcDbLine
 10
1037.883787659747
 20
1234.519790442568
 30
0.0
 11
1037.759476036127
 21
1234.055853147248
 31
0.0
  0
LINE
  5
6ED5
330
6E78
100
AcDbEntity
  8
0
370
    18
100
AcDbLine
 10
1037.883787659747
 20
1234.519790442568
 30
0.0
 11
1037.769752003494
 21
1234.094203579557
 31
0.0
  0
LINE
  5
6ED6
330
6E78
100
AcDbEntity
  8
0
370
    18
100
AcDbLine
 10
1036.621669781322
 20
1231.349915463562
 30
0.0
 11
1036.894756954671
 21
1232.369090669394
 31
0.0
  0
LINE
  5
6ED7
330
6E78
100
AcDbEntity
  8
0
370
    18
100
AcDbLine
 10
1036.621669781322
 20
1231.349915463562
 30
0.0
 11
1034.118615713918
 21
1231.349915463562
 31
0.0
  0
LINE
  5
6ED8
330
6E78
100
AcDbEntity
  8
0
370
    18
100
AcDbLine
 10
1032.7589925224
 20
1236.742332326742
 30
0.0
 11
1032.106340164264
 21
1234.306600566498
 31
0.0
  0
LINE
  5
6ED9
330
6E78
100
AcDbEntity
  8
0
370
    18
100
AcDbLine
 10
1034.193188256771
 20
1236.742332326742
 30
0.0
 11
1032.7589925224
 21
1236.742332326742
 31
0.0
  0
LINE
  5
6EDA
330
6E78
100
AcDbEntity
  8
0
370
    18
100
AcDbLine
 10
1035.824277543104
 20
1233.869555577019
 30
0.0
 11
1036.594035753227
 21
1236.742332326742
 31
0.0
  0
LINE
  5
6EDB
330
6E78
100
AcDbEntity
  8
0
370
    18
100
AcDbLine
 10
1036.594035753227
 20
1236.742332326742
 30
0.0
 11
1035.129019354071
 21
1236.742332326742
 31
0.0
  0
LINE
  5
6EDC
330
6E78
100
AcDbEntity
  8
0
370
    18
100
AcDbLine
 10
1034.39769549383
 20
1234.012994523536
 30
0.0
 11
1035.129019354071
 21
1236.742332326742
 31
0.0
  0
ARC
  5
6EDD
330
6E78
100
AcDbEntity
  8
0
370
    18
100
AcDbCircle
 10
1034.064302436687
 20
1234.10232692396
 30
0.0
 40
0.3451538907744731
100
AcDbArc
 50
270.0
 51
345.0000000000055
  0
LINE
  5
6EDE
330
6E78
100
AcDbEntity
  8
0
370
    18
100
AcDbLine
 10
1034.064302436687
 20
1233.757173033185
 30
0.0
 11
1033.843130542776
 21
1233.757173033185
 31
0.0
  0
ARC
  5
6EDF
330
6E78
100
AcDbEntity
  8
0
370
    18
100
AcDbCircle
 10
1033.843130542776
 20
1234.10232692396
 30
0.0
 40
0.3451538907744731
100
AcDbArc
 50
165.0000000000055
 51
270.0
  0
LINE
  5
6EE0
330
6E78
100
AcDbEntity
  8
0
370
    18
100
AcDbLine
 10
1034.193188256771
 20
1236.742332326742
 30
0.0
 11
1033.509737485633
 21
1234.191659324384
 31
0.0
  0
LINE
  5
6EE1
330
6E78
100
AcDbEntity
  8
0
370
    18
100
AcDbLine
 10
1036.894756954671
 20
1232.369090669394
 30
0.0
 11
1033.09941701292
 21
1232.369090669394
 31
0.0
  0
ARC
  5
6EE2
330
6E78
100
AcDbEntity
  8
0
370
    18
100
AcDbCircle
 10
1033.922984564977
 20
1240.154238889835
 30
0.0
 40
7.119253077153191
100
AcDbArc
 50
261.6882763531171
 51
278.5178280220953
  0
ARC
  5
6EE3
330
6E78
100
AcDbEntity
  8
0
370
    18
100
AcDbCircle
 10
1034.824098371674
 20
1234.13755277829
 30
0.0
 40
1.035461672323419
100
AcDbArc
 50
278.5178280220953
 51
345.0000000000055
  0
LINE
  5
6EE4
330
6E78
100
AcDbEntity
  8
0
370
    18
100
AcDbLine
 10
1037.176754121043
 20
1236.742332326742
 30
0.0
 11
1036.184171894114
 21
1233.03796502515
 31
0.0
  0
LINE
  5
6EE5
330
6E78
100
AcDbEntity
  8
0
370
    18
100
AcDbLine
 10
1027.061278035601
 20
1232.369090669394
 30
0.0
 11
1026.068695808671
 21
1228.664723367803
 31
0.0
  0
LINE
  5
6EE6
330
6E78
100
AcDbEntity
  8
0
370
    18
100
AcDbLine
 10
1028.40354316639
 20
1232.369090669394
 30
0.0
 11
1027.410960939461
 21
1228.664723367803
 31
0.0
  0
LINE
  5
6EE7
330
6E78
100
AcDbEntity
  8
0
370
    18
100
AcDbLine
 10
1028.865419733488
 20
1232.369090669394
 30
0.0
 11
1027.872837506558
 21
1228.664723367803
 31
0.0
  0
LINE
  5
6EE8
330
6E78
100
AcDbEntity
  8
0
370
    18
100
AcDbLine
 10
1026.068695808671
 20
1228.664723367803
 30
0.0
 11
1027.410960939461
 21
1228.664723367803
 31
0.0
  0
ARC
  5
6EE9
330
6E78
100
AcDbEntity
  8
0
370
    18
100
AcDbCircle
 10
1024.784376415332
 20
1229.81523633705
 30
0.0
 40
1.150512969248243
100
AcDbArc
 50
270.0
 51
270.0
  0
ARC
  5
6EEA
330
6E78
100
AcDbEntity
  8
0
370
    18
100
AcDbCircle
 10
1023.157290453849
 20
1230.262722936999
 30
0.0
 40
1.422878199650913
100
AcDbArc
 50
334.2263645027608
 51
11.71383119334169
  0
LINE
  5
6EEB
330
6E78
100
AcDbEntity
  8
0
370
    18
100
AcDbLine
 10
1025.609670418194
 20
1228.664723367803
 30
0.0
 11
1026.115257728176
 21
1230.551600896316
 31
0.0
  0
LINE
  5
6EEC
330
6E78
100
AcDbEntity
  8
0
370
    18
100
AcDbLine
 10
1024.550535549179
 20
1230.551600896316
 30
0.0
 11
1026.115257728176
 21
1230.551600896316
 31
0.0
  0
ARC
  5
6EED
330
6E78
100
AcDbEntity
  8
0
370
    18
100
AcDbCircle
 10
1024.837221973032
 20
1222.560509963626
 30
0.0
 40
8.85764661435673
100
AcDbArc
 50
80.02650671627761
 51
93.02614479233053
  0
LINE
  5
6EEE
330
6E78
100
AcDbEntity
  8
0
370
    18
100
AcDbLine
 10
1026.007283591861
 20
1234.99017309521
 30
0.0
 11
1026.476773242961
 21
1236.742332326742
 31
0.0
  0
LINE
  5
6EEF
330
6E78
100
AcDbEntity
  8
0
370
    18
100
AcDbLine
 10
1025.525517415284
 20
1233.03796502515
 30
0.0
 11
1026.79956215559
 21
1233.03796502515
 31
0.0
  0
LINE
  5
6EF0
330
6E78
100
AcDbEntity
  8
0
370
    18
100
AcDbLine
 10
1025.297693577112
 20
1236.742332326742
 30
0.0
 11
1026.007283591861
 21
1234.99017309521
 31
0.0
  0
LINE
  5
6EF1
330
6E78
100
AcDbEntity
  8
0
370
    18
100
AcDbLine
 10
1024.818382108835
 20
1234.799100260991
 30
0.0
 11
1024.346487344629
 21
1233.03796502515
 31
0.0
  0
LINE
  5
6EF2
330
6E78
100
AcDbEntity
  8
0
370
    18
100
AcDbLine
 10
1025.525517415284
 20
1233.03796502515
 30
0.0
 11
1024.818382108835
 21
1234.799100260991
 31
0.0
  0
LINE
  5
6EF3
330
6E78
100
AcDbEntity
  8
0
370
    18
100
AcDbLine
 10
1026.371300448112
 20
1231.284299666337
 30
0.0
 11
1026.635254170375
 21
1232.277565395561
 31
0.0
  0
LINE
  5
6EF4
330
6E78
100
AcDbEntity
  8
0
370
    18
100
AcDbLine
 10
1027.792144382519
 20
1236.742332326742
 30
0.0
 11
1026.476773242961
 21
1236.742332326742
 31
0.0
  0
LINE
  5
6EF5
330
6E78
100
AcDbEntity
  8
0
370
    18
100
AcDbLine
 10
1028.40354316639
 20
1232.369090669394
 30
0.0
 11
1027.061278035601
 21
1232.369090669394
 31
0.0
  0
LINE
  5
6EF6
330
6E78
100
AcDbEntity
  8
0
370
    18
100
AcDbLine
 10
1027.106317342332
 20
1233.03796502515
 30
0.0
 11
1028.704313857773
 21
1233.03796502515
 31
0.0
  0
LINE
  5
6EF7
330
6E78
100
AcDbEntity
  8
0
370
    18
100
AcDbLine
 10
1026.79956215559
 20
1233.03796502515
 30
0.0
 11
1027.792144382519
 21
1236.742332326742
 31
0.0
  0
LINE
  5
6EF8
330
6E78
100
AcDbEntity
  8
0
370
    18
100
AcDbLine
 10
1028.704313857773
 20
1233.03796502515
 30
0.0
 11
1028.99284598957
 21
1233.566350367928
 31
0.0
  0
LINE
  5
6EF9
330
6E78
100
AcDbEntity
  8
0
370
    18
100
AcDbLine
 10
1027.872837506558
 20
1228.664723367803
 30
0.0
 11
1029.17539934827
 21
1228.664723367803
 31
0.0
  0
LINE
  5
6EFA
330
6E78
100
AcDbEntity
  8
0
370
    18
100
AcDbLine
 10
1028.99284598957
 20
1233.566350367928
 30
0.0
 11
1030.496234597016
 21
1233.566350367928
 31
0.0
  0
LINE
  5
6EFB
330
6E78
100
AcDbEntity
  8
0
370
    18
100
AcDbLine
 10
1030.126605580754
 20
1232.369090669394
 30
0.0
 11
1028.865419733488
 21
1232.369090669394
 31
0.0
  0
LINE
  5
6EFC
330
6E78
100
AcDbEntity
  8
0
370
    18
100
AcDbLine
 10
1027.106317342332
 20
1233.03796502515
 30
0.0
 11
1029.129138393474
 21
1236.742332326742
 31
0.0
  0
ARC
  5
6EFD
330
6E78
100
AcDbEntity
  8
0
370
    18
100
AcDbCircle
 10
1043.497022323417
 20
1235.729871109622
 30
0.0
 40
0.7682193793950698
100
AcDbArc
 50
270.1852188608381
 51
291.3103783431897
  0
LINE
  5
6EFE
330
6E78
100
AcDbEntity
  8
0
370
    18
100
AcDbLine
 10
1043.382608078822
 20
1228.674649190072
 30
0.0
 11
1045.091612565727
 21
1228.674649190072
 31
0.0
  0
LINE
  5
6EFF
330
6E78
100
AcDbEntity
  8
0
370
    18
100
AcDbLine
 10
1043.24550580304
 20
1233.03796502515
 30
0.0
 11
1044.954510289945
 21
1233.03796502515
 31
0.0
  0
LINE
  5
6F00
330
6E78
100
AcDbEntity
  8
0
370
    18
100
AcDbLine
 10
1050.328921165634
 20
1230.616931437863
 30
0.0
 11
1050.798410816734
 21
1232.369090669394
 31
0.0
  0
LINE
  5
6F01
330
6E78
100
AcDbEntity
  8
0
370
    18
100
AcDbLine
 10
1049.619331150885
 20
1232.369090669394
 30
0.0
 11
1050.328921165634
 21
1230.616931437863
 31
0.0
  0
LINE
  5
6F02
330
6E78
100
AcDbEntity
  8
0
370
    18
100
AcDbLine
 10
1046.554003605733
 20
1232.369090669394
 30
0.0
 11
1045.561421378804
 21
1228.664723367803
 31
0.0
  0
LINE
  5
6F03
330
6E78
100
AcDbEntity
  8
0
370
    18
100
AcDbLine
 10
1047.896268736522
 20
1232.369090669394
 30
0.0
 11
1046.903686509593
 21
1228.664723367803
 31
0.0
  0
LINE
  5
6F04
330
6E78
100
AcDbEntity
  8
0
370
    18
100
AcDbLine
 10
1048.35814530362
 20
1232.369090669394
 30
0.0
 11
1047.365563076689
 21
1228.664723367803
 31
0.0
  0
LINE
  5
6F05
330
6E78
100
AcDbEntity
  8
0
370
    18
100
AcDbLine
 10
1045.683463228143
 20
1230.883465932702
 30
0.0
 11
1045.799611957249
 21
1231.316938890957
 31
0.0
  0
ARC
  5
6F06
330
6E78
100
AcDbEntity
  8
0
370
    18
100
AcDbCircle
 10
1043.668568226062
 20
1231.141539639813
 30
0.0
 40
0.5483274067590241
100
AcDbArc
 50
296.5093598874471
 51
350.9662004601285
  0
LINE
  5
6F07
330
6E78
100
AcDbEntity
  8
0
370
    18
100
AcDbLine
 10
1049.847154989057
 20
1228.664723367803
 30
0.0
 11
1049.140019682607
 21
1230.425858603644
 31
0.0
  0
LINE
  5
6F08
330
6E78
100
AcDbEntity
  8
0
370
    18
100
AcDbLine
 10
1044.088084270454
 20
1230.258124511845
 30
0.0
 11
1045.091612565727
 21
1228.674649190072
 31
0.0
  0
LINE
  5
6F09
330
6E78
100
AcDbEntity
  8
0
370
    18
100
AcDbLine
 10
1044.868502421793
 20
1230.258124511845
 30
0.0
 11
1044.088084270454
 21
1230.258124511845
 31
0.0
  0
ARC
  5
6F0A
330
6E78
100
AcDbEntity
  8
0
370
    18
100
AcDbCircle
 10
1043.6341245992
 20
1231.366555274544
 30
0.0
 40
0.7682193793950698
100
AcDbArc
 50
270.1852188608381
 51
291.3103783431897
  0
LINE
  5
6F0B
330
6E78
100
AcDbEntity
  8
0
370
    18
100
AcDbLine
 10
1045.561421378804
 20
1228.664723367803
 30
0.0
 11
1046.903686509593
 21
1228.664723367803
 31
0.0
  0
ARC
  5
6F0C
330
6E78
100
AcDbEntity
  8
0
370
    18
100
AcDbCircle
 10
1044.868502421793
 20
1231.101834022627
 30
0.0
 40
0.8437095107820451
100
AcDbArc
 50
270.0
 51
345.0438139040687
  0
LINE
  5
6F0D
330
6E78
100
AcDbEntity
  8
0
370
    18
100
AcDbLine
 10
1047.365563076689
 20
1228.664723367803
 30
0.0
 11
1048.668124918402
 21
1228.664723367803
 31
0.0
  0
LINE
  5
6F0E
330
6E78
100
AcDbEntity
  8
0
370
    18
100
AcDbLine
 10
1049.140019682607
 20
1230.425858603644
 30
0.0
 11
1048.668124918402
 21
1228.664723367803
 31
0.0
  0
LINE
  5
6F0F
330
6E78
100
AcDbEntity
  8
0
370
    18
100
AcDbLine
 10
1049.847154989057
 20
1228.664723367803
 30
0.0
 11
1051.121199729363
 21
1228.664723367803
 31
0.0
  0
LINE
  5
6F10
330
6E78
100
AcDbEntity
  8
0
370
    18
100
AcDbLine
 10
1049.619331150885
 20
1232.369090669394
 30
0.0
 11
1048.35814530362
 21
1232.369090669394
 31
0.0
  0
ARC
  5
6F11
330
6E78
100
AcDbEntity
  8
0
370
    18
100
AcDbCircle
 10
1043.828551841833
 20
1231.116103971368
 30
0.0
 40
0.386334411403646
100
AcDbArc
 50
350.9662004601285
 51
90.19530426564624
  0
ARC
  5
6F12
330
6E78
100
AcDbEntity
  8
0
370
    18
100
AcDbCircle
 10
1044.984651150898
 20
1231.535306980881
 30
0.0
 40
0.8437095107820451
100
AcDbArc
 50
344.9999529879126
 51
90.0
  0
LINE
  5
6F13
330
6E78
100
AcDbEntity
  8
0
370
    18
100
AcDbLine
 10
1044.731400146011
 20
1234.621440346924
 30
0.0
 11
1043.950981994673
 21
1234.621440346924
 31
0.0
  0
ARC
  5
6F14
330
6E78
100
AcDbEntity
  8
0
370
    18
100
AcDbCircle
 10
1043.691449566051
 20
1235.479419806446
 30
0.0
 40
0.386334411403646
100
AcDbArc
 50
350.9662004601285
 51
90.19530426564624
  0
ARC
  5
6F15
330
6E78
100
AcDbEntity
  8
0
370
    18
100
AcDbCircle
 10
1043.531465950281
 20
1235.504855474891
 30
0.0
 40
0.5483274067590241
100
AcDbArc
 50
296.5093598874471
 51
350.9662004601285
  0
ARC
  5
6F16
330
6E78
100
AcDbEntity
  8
0
370
    18
100
AcDbCircle
 10
1044.731400146011
 20
1235.465149857705
 30
0.0
 40
0.8437095107820451
100
AcDbArc
 50
270.0
 51
345.0438139040687
  0
LINE
  5
6F17
330
6E78
100
AcDbEntity
  8
0
370
    18
100
AcDbLine
 10
1045.546360952362
 20
1235.24678176778
 30
0.0
 11
1045.662509681466
 21
1235.680254726035
 31
0.0
  0
ARC
  5
6F18
330
6E78
100
AcDbEntity
  8
0
370
    18
100
AcDbCircle
 10
1044.847548875117
 20
1235.89862281596
 30
0.0
 40
0.8437095107820451
100
AcDbArc
 50
344.9999529879126
 51
90.0
  0
LINE
  5
6F19
330
6E78
100
AcDbEntity
  8
0
370
    18
100
AcDbLine
 10
1047.896268736522
 20
1232.369090669394
 30
0.0
 11
1046.554003605733
 21
1232.369090669394
 31
0.0
  0
LINE
  5
6F1A
330
6E78
100
AcDbEntity
  8
0
370
    18
100
AcDbLine
 10
1043.950981994673
 20
1234.621440346924
 30
0.0
 11
1044.954510289945
 21
1233.03796502515
 31
0.0
  0
LINE
  5
6F1B
330
6E78
100
AcDbEntity
  8
0
370
    18
100
AcDbLine
 10
1041.644809235062
 20
1232.379016491663
 30
0.0
 11
1040.649567392072
 21
1228.664723367803
 31
0.0
  0
LINE
  5
6F1C
330
6E78
100
AcDbEntity
  8
0
370
    18
100
AcDbLine
 10
1042.470240224516
 20
1230.598339909173
 30
0.0
 11
1042.712492078994
 21
1231.502436138315
 31
0.0
  0
LINE
  5
6F1D
330
6E78
100
AcDbEntity
  8
0
370
    18
100
AcDbLine
 10
1038.364627054838
 20
1231.349915463562
 30
0.0
 11
1038.240579980089
 21
1230.886965478066
 31
0.0
  0
LINE
  5
6F1E
330
6E78
100
AcDbEntity
  8
0
370
    18
100
AcDbLine
 10
1040.733358080127
 20
1230.886965478066
 30
0.0
 11
1038.240579980089
 21
1230.886965478066
 31
0.0
  0
LINE
  5
6F1F
330
6E78
100
AcDbEntity
  8
0
370
    18
100
AcDbLine
 10
1040.137910101296
 20
1228.664723367803
 30
0.0
 11
1040.410652401597
 21
1229.6826114899
 31
0.0
  0
LINE
  5
6F20
330
6E78
100
AcDbEntity
  8
0
370
    18
100
AcDbLine
 10
1042.379079783549
 20
1230.258124511845
 30
0.0
 11
1041.954788849845
 21
1228.674649190072
 31
0.0
  0
LINE
  5
6F21
330
6E78
100
AcDbEntity
  8
0
370
    18
100
AcDbLine
 10
1040.652227008133
 20
1228.674649190072
 30
0.0
 11
1041.954788849845
 21
1228.674649190072
 31
0.0
  0
LINE
  5
6F22
330
6E78
100
AcDbEntity
  8
0
370
    18
100
AcDbLine
 10
1040.534964025217
 20
1230.146548785221
 30
0.0
 11
1040.733358080127
 21
1230.886965478066
 31
0.0
  0
LINE
  5
6F23
330
6E78
100
AcDbEntity
  8
0
370
    18
100
AcDbLine
 10
1040.857405154876
 20
1231.349915463562
 30
0.0
 11
1041.130492328224
 21
1232.369090669394
 31
0.0
  0
LINE
  5
6F24
330
6E78
100
AcDbEntity
  8
0
370
    18
100
AcDbLine
 10
1040.857405154876
 20
1231.349915463562
 30
0.0
 11
1038.354351087472
 21
1231.349915463562
 31
0.0
  0
LINE
  5
6F25
330
6E78
100
AcDbEntity
  8
0
370
    18
100
AcDbLine
 10
1040.574959814695
 20
1235.260207135414
 30
0.0
 11
1038.082181714658
 21
1235.260207135414
 31
0.0
  0
LINE
  5
6F26
330
6E78
100
AcDbEntity
  8
0
370
    18
100
AcDbLine
 10
1040.699006889444
 20
1235.723157120909
 30
0.0
 11
1038.195952822041
 21
1235.723157120909
 31
0.0
  0
LINE
  5
6F27
330
6E78
100
AcDbEntity
  8
0
370
    18
100
AcDbLine
 10
1038.206228789406
 20
1235.723157120909
 30
0.0
 11
1038.082181714658
 21
1235.260207135414
 31
0.0
  0
LINE
  5
6F28
330
6E78
100
AcDbEntity
  8
0
370
    18
100
AcDbLine
 10
1040.699006889444
 20
1235.723157120909
 30
0.0
 11
1040.972094062794
 21
1236.742332326742
 31
0.0
  0
LINE
  5
6F29
330
6E78
100
AcDbEntity
  8
0
370
    18
100
AcDbLine
 10
1040.376565759785
 20
1234.519790442568
 30
0.0
 11
1040.574959814695
 21
1235.260207135414
 31
0.0
  0
LINE
  5
6F2A
330
6E78
100
AcDbEntity
  8
0
370
    18
100
AcDbLine
 10
1042.333137948734
 20
1234.961655744252
 30
0.0
 11
1042.575389803213
 21
1235.865751973394
 31
0.0
  0
LINE
  5
6F2B
330
6E78
100
AcDbEntity
  8
0
370
    18
100
AcDbLine
 10
1040.515124732352
 20
1233.03796502515
 30
0.0
 11
1041.817686574064
 21
1233.03796502515
 31
0.0
  0
LINE
  5
6F2C
330
6E78
100
AcDbEntity
  8
0
370
    18
100
AcDbLine
 10
1039.979511835864
 20
1233.03796502515
 30
0.0
 11
1040.252254136165
 21
1234.055853147248
 31
0.0
  0
LINE
  5
6F2D
330
6E78
100
AcDbEntity
  8
0
370
    18
100
AcDbLine
 10
1041.50770695928
 20
1236.742332326742
 30
0.0
 11
1040.515124732352
 21
1233.03796502515
 31
0.0
  0
LINE
  5
6F2E
330
6E78
100
AcDbEntity
  8
0
370
    18
100
AcDbLine
 10
1042.241977507767
 20
1234.621440346924
 30
0.0
 11
1041.817686574064
 21
1233.03796502515
 31
0.0
  0
LINE
  5
6F2F
330
6E78
100
AcDbEntity
  8
0
370
    18
100
AcDbLine
 10
1043.636607998685
 20
1230.598339909173
 30
0.0
 11
1042.470240224516
 21
1230.598339909173
 31
0.0
  0
LINE
  5
6F30
330
6E78
100
AcDbEntity
  8
0
370
    18
100
AcDbLine
 10
1044.984651150898
 20
1232.379016491663
 30
0.0
 11
1041.644809235062
 21
1232.379016491663
 31
0.0
  0
LINE
  5
6F31
330
6E78
100
AcDbEntity
  8
0
370
    18
100
AcDbLine
 10
1044.847548875117
 20
1236.742332326742
 30
0.0
 11
1041.50770695928
 21
1236.742332326742
 31
0.0
  0
LINE
  5
6F32
330
6E78
100
AcDbEntity
  8
0
370
    18
100
AcDbLine
 10
1043.827234945317
 20
1231.502436138315
 30
0.0
 11
1042.712492078994
 21
1231.502436138315
 31
0.0
  0
LINE
  5
6F33
330
6E78
100
AcDbEntity
  8
0
370
    18
100
AcDbLine
 10
1043.690132669536
 20
1235.865751973394
 30
0.0
 11
1042.575389803213
 21
1235.865751973394
 31
0.0
  0
LINE
  5
6F34
330
6E78
100
AcDbEntity
  8
0
370
    18
100
AcDbLine
 10
1042.379079783549
 20
1230.258124511845
 30
0.0
 11
1043.382608078822
 21
1228.674649190072
 31
0.0
  0
LINE
  5
6F35
330
6E78
100
AcDbEntity
  8
0
370
    18
100
AcDbLine
 10
1042.241977507767
 20
1234.621440346924
 30
0.0
 11
1043.24550580304
 21
1233.03796502515
 31
0.0
  0
LINE
  5
6F36
330
6E78
100
AcDbEntity
  8
0
370
    18
100
AcDbLine
 10
1043.499505722904
 20
1234.961655744252
 30
0.0
 11
1042.333137948734
 21
1234.961655744252
 31
0.0
  0
LINE
  5
6F37
330
6E78
100
AcDbEntity
  8
0
370
    18
100
AcDbLine
 10
1055.230270433012
 20
1228.664723367803
 30
0.0
 11
1053.403388635723
 21
1228.664723367803
 31
0.0
  0
LINE
  5
6F38
330
6E78
100
AcDbEntity
  8
0
370
    18
100
AcDbLine
 10
1054.171135563997
 20
1230.551600896316
 30
0.0
 11
1055.735857742994
 21
1230.551600896316
 31
0.0
  0
ARC
  5
6F39
330
6E78
100
AcDbEntity
  8
0
370
    18
100
AcDbCircle
 10
1054.45782198785
 20
1222.560509963626
 30
0.0
 40
8.85764661435673
100
AcDbArc
 50
80.02650671627761
 51
93.02614479233053
  0
ARC
  5
6F3A
330
6E78
100
AcDbEntity
  8
0
370
    18
100
AcDbCircle
 10
1054.622374502296
 20
1217.901994584595
 30
0.0
 40
14.46807838019826
100
AcDbArc
 50
83.51735091136804
 51
95.9233444042366
  0
ARC
  5
6F3B
330
6E78
100
AcDbEntity
  8
0
370
    18
100
AcDbCircle
 10
1059.359926238969
 20
1228.797071157493
 30
0.0
 40
6.22149298766157
100
AcDbArc
 50
158.0969939507869
 51
170.4856136403528
  0
ARC
  5
6F3C
330
6E78
100
AcDbEntity
  8
0
370
    18
100
AcDbCircle
 10
1053.609327120154
 20
1235.780997232487
 30
0.0
 40
7.119253077153191
100
AcDbArc
 50
262.0635437036931
 51
268.3423749580197
  0
ARC
  5
6F3D
330
6E78
100
AcDbEntity
  8
0
370
    18
100
AcDbCircle
 10
1054.40497643015
 20
1229.81523633705
 30
0.0
 40
1.150512969248243
100
AcDbArc
 50
270.0
 51
270.0
  0
ARC
  5
6F3E
330
6E78
100
AcDbEntity
  8
0
370
    18
100
AcDbCircle
 10
1052.777890468667
 20
1230.262722936999
 30
0.0
 40
1.422878199650913
100
AcDbArc
 50
334.2263645027608
 51
11.71383119334169
  0
ARC
  5
6F3F
330
6E78
100
AcDbEntity
  8
0
370
    18
100
AcDbCircle
 10
1053.644795755242
 20
1229.844136563537
 30
0.0
 40
0.4602051876992975
100
AcDbArc
 50
270.0
 51
334.2263645027608
  0
LINE
  5
6F40
330
6E78
100
AcDbEntity
  8
0
370
    18
100
AcDbLine
 10
1053.603105533406
 20
1229.383931375838
 30
0.0
 11
1053.644795755242
 21
1229.383931375838
 31
0.0
  0
ARC
  5
6F41
330
6E78
100
AcDbEntity
  8
0
370
    18
100
AcDbCircle
 10
1053.603105533406
 20
1229.767435698921
 30
0.0
 40
0.3835043230827479
100
AcDbArc
 50
171.2985646492412
 51
270.0
  0
ARC
  5
6F42
330
6E78
100
AcDbEntity
  8
0
370
    18
100
AcDbCircle
 10
1054.014507298868
 20
1230.946241571582
 30
0.0
 40
0.4602051876992975
100
AcDbArc
 50
93.02614479233053
 51
158.0969939507869
  0
ARC
  5
6F43
330
6E78
100
AcDbEntity
  8
0
370
    18
100
AcDbCircle
 10
1053.228242558892
 20
1231.339183926074
 30
0.0
 40
0.9587608077068694
100
AcDbArc
 50
95.9233444042366
 51
157.3874044007889
  0
LINE
  5
6F44
330
6E78
100
AcDbEntity
  8
0
370
    18
100
AcDbLine
 10
1055.230270433012
 20
1228.664723367803
 30
0.0
 11
1055.735857742994
 21
1230.551600896316
 31
0.0
  0
LINE
  5
6F45
330
6E78
100
AcDbEntity
  8
0
370
    18
100
AcDbLine
 10
1055.99190046293
 20
1231.284299666337
 30
0.0
 11
1056.255854185194
 21
1232.277565395561
 31
0.0
  0
ENDBLK
  5
6F47
330
6E78
100
AcDbEntity
  8
0
100
AcDbBlockEnd
  0
ENDSEC
  0
SECTION
  2
ENTITIES
  0
LINE
  5
40A3
330
1F
100
AcDbEntity
  8
ACHSEN
 48
20.0
100
AcDbLine
 10
7928.098187013107
 20
4355.520444326002
 30
0.0
 11
7928.098187013107
 21
4073.148817492205
 31
0.0
  0
LINE
  5
40A4
330
1F
100
AcDbEntity
  8
Rüttler
100
AcDbLine
 10
7778.098187013107
 20
4137.52937119156
 30
0.0
 11
7778.098187013107
 21
4092.529371191561
 31
0.0
  0
LINE
  5
40A5
330
1F
100
AcDbEntity
  8
Rüttler
100
AcDbLine
 10
8078.098187013107
 20
4137.52937119156
 30
0.0
 11
8078.098187013107
 21
4092.529371191561
 31
0.0
  0
LINE
  5
40A6
330
1F
100
AcDbEntity
  8
Rüttler
100
AcDbLine
 10
7778.098187013107
 20
4092.529371191561
 30
0.0
 11
7826.098187013106
 21
4092.529371191561
 31
0.0
  0
LINE
  5
40A7
330
1F
100
AcDbEntity
  8
Rüttler
100
AcDbLine
 10
7783.098187013107
 20
4142.529371191561
 30
0.0
 11
7809.402705053654
 21
4142.529371191561
 31
0.0
  0
LINE
  5
40A8
330
1F
100
AcDbEntity
  8
Rüttler
100
AcDbLine
 10
7828.598187013106
 20
4095.529371191561
 30
0.0
 11
7912.965441062685
 21
4095.529371191561
 31
0.0
  0
LINE
  5
40A9
330
1F
100
AcDbEntity
  8
Rüttler
100
AcDbLine
 10
7943.230932963527
 20
4095.529371191561
 30
0.0
 11
8027.598187013106
 21
4095.529371191561
 31
0.0
  0
LINE
  5
40AA
330
1F
100
AcDbEntity
  8
Rüttler
100
AcDbLine
 10
8030.098187013107
 20
4092.529371191561
 30
0.0
 11
8078.098187013107
 21
4092.529371191561
 31
0.0
  0
LINE
  5
40AB
330
1F
100
AcDbEntity
  8
AVERDECKTE
 48
50.0
100
AcDbLine
 10
8064.598187013107
 20
4140.52937119156
 30
0.0
 11
8064.598187013107
 21
4092.529371191561
 31
0.0
  0
LINE
  5
40AC
330
1F
100
AcDbEntity
  8
AVERDECKTE
 48
50.0
100
AcDbLine
 10
8037.598187013108
 20
4140.52937119156
 30
0.0
 11
8037.598187013108
 21
4092.529371191561
 31
0.0
  0
LINE
  5
40AD
330
1F
100
AcDbEntity
  8
AVERDECKTE
 48
50.0
100
AcDbLine
 10
7818.598187013106
 20
4140.52937119156
 30
0.0
 11
7818.598187013106
 21
4092.529371191561
 31
0.0
  0
LINE
  5
40AE
330
1F
100
AcDbEntity
  8
AVERDECKTE
 48
50.0
100
AcDbLine
 10
7791.598187013106
 20
4140.52937119156
 30
0.0
 11
7791.598187013106
 21
4092.529371191561
 31
0.0
  0
LINE
  5
40AF
330
1F
100
AcDbEntity
  8
AVERDECKTE
100
AcDbLine
 10
8028.598187013107
 20
4143.42222778364
 30
0.0
 11
8028.598187013107
 21
4140.52937119156
 31
0.0
  0
LINE
  5
40B0
330
1F
100
AcDbEntity
  8
AVERDECKTE
100
AcDbLine
 10
8073.598187013107
 20
4142.529371191561
 30
0.0
 11
8073.598187013107
 21
4140.52937119156
 31
0.0
  0
LINE
  5
40B1
330
1F
100
AcDbEntity
  8
AVERDECKTE
100
AcDbLine
 10
7827.598187013106
 20
4142.529371191561
 30
0.0
 11
7827.598187013106
 21
4140.52937119156
 31
0.0
  0
LINE
  5
40B2
330
1F
100
AcDbEntity
  8
AVERDECKTE
100
AcDbLine
 10
7782.598187013106
 20
4142.529371191561
 30
0.0
 11
7782.598187013106
 21
4140.52937119156
 31
0.0
  0
LINE
  5
40B3
330
1F
100
AcDbEntity
  8
AVERDECKTE
 48
50.0
100
AcDbLine
 10
7782.598187013106
 20
4140.52937119156
 30
0.0
 11
7827.598187013106
 21
4140.52937119156
 31
0.0
  0
LINE
  5
40B4
330
1F
100
AcDbEntity
  8
AVERDECKTE
 48
50.0
100
AcDbLine
 10
8028.598187013107
 20
4140.52937119156
 30
0.0
 11
8073.598187013107
 21
4140.52937119156
 31
0.0
  0
LINE
  5
40B5
330
1F
100
AcDbEntity
  8
Rüttler
100
AcDbLine
 10
8033.696079211692
 20
4142.529371191561
 30
0.0
 11
8073.098187013107
 21
4142.529371191561
 31
0.0
  0
ARC
  5
40B6
330
1F
100
AcDbEntity
  8
Rüttler
100
AcDbCircle
 10
8033.696079211692
 20
4157.529371191561
 30
0.0
 40
15.0
100
AcDbArc
 50
233.9999999999886
 51
270.0
  0
LINE
  5
40B7
330
1F
100
AcDbEntity
  8
Rüttler
100
AcDbLine
 10
8030.098187013107
 20
4093.029371191561
 30
0.0
 11
8030.098187013107
 21
4092.529371191561
 31
0.0
  0
ARC
  5
40B8
330
1F
100
AcDbEntity
  8
Rüttler
100
AcDbCircle
 10
8027.598187013106
 20
4093.029371191561
 30
0.0
 40
2.5
100
AcDbArc
 50
0.0
 51
90.0
  0
LINE
  5
40B9
330
1F
100
AcDbEntity
  8
Rüttler
100
AcDbLine
 10
8033.436549284694
 20
4164.650874849341
 30
0.0
 11
8039.23422353008
 21
4147.911206834201
 31
0.0
  0
ARC
  5
40BA
330
1F
100
AcDbEntity
  8
Rüttler
100
AcDbCircle
 10
8046.79366897256
 20
4150.529371191561
 30
0.0
 40
8.0
100
AcDbArc
 50
199.1031921355141
 51
270.0
  0
ARC
  5
40BB
330
1F
100
AcDbEntity
  8
Rüttler
100
AcDbCircle
 10
7809.402705053654
 20
4150.529371191561
 30
0.0
 40
8.0
100
AcDbArc
 50
270.0
 51
340.8968078644858
  0
ARC
  5
40BC
330
1F
100
AcDbEntity
  8
Rüttler
100
AcDbCircle
 10
7822.500294814524
 20
4157.529371191561
 30
0.0
 40
15.0
100
AcDbArc
 50
270.0
 51
310.2278840232188
  0
LINE
  5
40BD
330
1F
100
AcDbEntity
  8
Rüttler
100
AcDbLine
 10
7822.516762920165
 20
4163.949080642834
 30
0.0
 11
7816.962150496135
 21
4147.911206834201
 31
0.0
  0
LINE
  5
40BE
330
1F
100
AcDbEntity
  8
ACHSEN
 48
10.0
100
AcDbLine
 10
7802.098187013107
 20
4217.529371191561
 30
0.0
 11
7802.098187013107
 21
4191.529371191561
 31
0.0
  0
LINE
  5
40BF
330
1F
100
AcDbEntity
  8
ACHSEN
 48
10.0
100
AcDbLine
 10
7789.098187013107
 20
4204.529371191561
 30
0.0
 11
7815.098187013106
 21
4204.529371191561
 31
0.0
  0
CIRCLE
  5
40C0
330
1F
100
AcDbEntity
  8
Rüttler
100
AcDbCircle
 10
7802.098187013107
 20
4204.529371191561
 30
0.0
 40
10.0
  0
ARC
  5
40C1
330
1F
100
AcDbEntity
  8
Rüttler
100
AcDbCircle
 10
7783.098187013107
 20
4137.52937119156
 30
0.0
 40
5.0
100
AcDbArc
 50
90.0
 51
180.0
  0
LINE
  5
40C2
330
1F
100
AcDbEntity
  8
Rüttler
100
AcDbLine
 10
7778.098187013107
 20
4137.52937119156
 30
0.0
 11
7780.595377295452
 21
4209.03954461241
 31
0.0
  0
LINE
  5
40C3
330
1F
100
AcDbEntity
  8
Rüttler
100
AcDbLine
 10
7790.583193835835
 20
4225.662062754049
 30
0.0
 11
7817.554973152375
 21
4241.234226802975
 31
0.0
  0
ARC
  5
40C4
330
1F
100
AcDbEntity
  8
Rüttler
100
AcDbCircle
 10
7800.583193835834
 20
4208.34155467836
 30
0.0
 40
20.0
100
AcDbArc
 50
119.9999999999962
 51
177.999999999996
  0
LINE
  5
40C5
330
1F
100
AcDbEntity
  8
Rüttler
100
AcDbLine
 10
7809.402705053654
 20
4142.529371191561
 30
0.0
 11
7822.500294814524
 21
4142.529371191561
 31
0.0
  0
LINE
  5
40C6
330
1F
100
AcDbEntity
  8
Rüttler
100
AcDbLine
 10
7878.098187013107
 20
4328.02937119156
 30
0.0
 11
7992.098187013105
 21
4328.02937119156
 31
0.0
  0
LINE
  5
40C7
330
1F
100
AcDbEntity
  8
Rüttler
100
AcDbLine
 10
7992.098187013105
 20
4335.029371191561
 30
0.0
 11
7992.098187013105
 21
4305.07517172722
 31
0.0
  0
ARC
  5
40C8
330
1F
100
AcDbEntity
  8
Rüttler
100
AcDbCircle
 10
8073.098187013107
 20
4137.52937119156
 30
0.0
 40
5.0
100
AcDbArc
 50
0.0
 51
90.0
  0
LINE
  5
40C9
330
1F
100
AcDbEntity
  8
Rüttler
100
AcDbLine
 10
7878.284230334152
 20
4335.134078984792
 30
0.0
 11
7877.701976934353
 21
4312.898718726013
 31
0.0
  0
LINE
  5
40CA
330
1F
100
AcDbEntity
  8
ACHSEN
 48
10.0
100
AcDbLine
 10
7979.121259710416
 20
4308.029371191561
 30
0.0
 11
8097.496099483361
 21
4308.029371191561
 31
0.0
  0
LINE
  5
40CB
330
1F
100
AcDbEntity
  8
ACHSEN
 48
10.0
100
AcDbLine
 10
7805.098187013107
 20
4156.861655953876
 30
0.0
 11
7805.098187013107
 21
4090.779371191561
 31
0.0
  0
LINE
  5
40CC
330
1F
100
AcDbEntity
  8
ACHSEN
 48
10.0
100
AcDbLine
 10
8051.098187013106
 20
4156.55920202925
 30
0.0
 11
8051.098187013106
 21
4090.476917266935
 31
0.0
  0
LINE
  5
40E2
330
1F
100
AcDbEntity
  8
Rüttler
100
AcDbLine
 10
7260.730462030227
 20
3841.91615655005
 30
0.0
 11
7260.730462030227
 21
3726.916156550051
 31
0.0
  0
LINE
  5
40E3
330
1F
100
AcDbEntity
  8
ACHSEN
 48
10.0
100
AcDbLine
 10
7304.230462030227
 20
3748.705218730815
 30
0.0
 11
7304.230462030227
 21
3689.127094369286
 31
0.0
  0
LINE
  5
40E7
330
1F
100
AcDbEntity
  8
Rüttler
100
AcDbLine
 10
7463.230462030228
 20
3769.916156550051
 30
0.0
 11
7463.230462030228
 21
3726.916156550051
 31
0.0
  0
LINE
  5
40E8
330
1F
100
AcDbEntity
  8
Rüttler
100
AcDbLine
 10
7265.230462030228
 20
3769.916156550051
 30
0.0
 11
7265.230462030228
 21
3726.916156550051
 31
0.0
  0
LINE
  5
40E9
330
1F
100
AcDbEntity
  8
Rüttler
100
AcDbLine
 10
7285.730462030227
 20
3841.91615655005
 30
0.0
 11
7285.730462030227
 21
3751.416156550051
 31
0.0
  0
LINE
  5
40EA
330
1F
100
AcDbEntity
  8
Rüttler
100
AcDbLine
 10
7282.730462030227
 20
3841.91615655005
 30
0.0
 11
7282.730462030227
 21
3751.416156550051
 31
0.0
  0
LINE
  5
40EB
330
1F
100
AcDbEntity
  8
Rüttler
100
AcDbLine
 10
7302.730462030227
 20
3841.91615655005
 30
0.0
 11
7302.730462030227
 21
3751.416156550051
 31
0.0
  0
LINE
  5
40EC
330
1F
100
AcDbEntity
  8
Rüttler
100
AcDbLine
 10
7305.730462030227
 20
3841.91615655005
 30
0.0
 11
7305.730462030227
 21
3751.416156550051
 31
0.0
  0
LINE
  5
40ED
330
1F
100
AcDbEntity
  8
Rüttler
100
AcDbLine
 10
7325.730462030228
 20
3841.91615655005
 30
0.0
 11
7325.730462030228
 21
3751.416156550051
 31
0.0
  0
LINE
  5
40EE
330
1F
100
AcDbEntity
  8
Rüttler
100
AcDbLine
 10
7322.730462030228
 20
3841.91615655005
 30
0.0
 11
7322.730462030228
 21
3751.416156550051
 31
0.0
  0
LINE
  5
40EF
330
1F
100
AcDbEntity
  8
Rüttler
100
AcDbLine
 10
7345.730462030228
 20
3841.91615655005
 30
0.0
 11
7345.730462030228
 21
3729.22730216805
 31
0.0
  0
LINE
  5
40F0
330
1F
100
AcDbEntity
  8
Rüttler
100
AcDbLine
 10
7342.730462030228
 20
3841.91615655005
 30
0.0
 11
7342.730462030228
 21
3729.227302168051
 31
0.0
  0
LINE
  5
40F1
330
1F
100
AcDbEntity
  8
Rüttler
100
AcDbLine
 10
7445.730462030228
 20
3791.981456610132
 30
0.0
 11
7445.730462030228
 21
3751.51615655005
 31
0.0
  0
LINE
  5
40F2
330
1F
100
AcDbEntity
  8
Rüttler
100
AcDbLine
 10
7442.730462030228
 20
3791.45375224517
 30
0.0
 11
7442.730462030228
 21
3751.51615655005
 31
0.0
  0
LINE
  5
40F3
330
1F
100
AcDbEntity
  8
Rüttler
100
AcDbLine
 10
7425.730462030228
 20
3777.11615655005
 30
0.0
 11
7425.730462030228
 21
3751.46615655005
 31
0.0
  0
LINE
  5
40F4
330
1F
100
AcDbEntity
  8
Rüttler
100
AcDbLine
 10
7422.730462030227
 20
3775.416156550051
 30
0.0
 11
7422.730462030227
 21
3751.51615655005
 31
0.0
  0
LINE
  5
40F5
330
1F
100
AcDbEntity
  8
Rüttler
100
AcDbLine
 10
7385.730462030227
 20
3775.416156550051
 30
0.0
 11
7385.730462030227
 21
3729.22730216805
 31
0.0
  0
LINE
  5
40F6
330
1F
100
AcDbEntity
  8
Rüttler
100
AcDbLine
 10
7382.730462030227
 20
3777.11615655005
 30
0.0
 11
7382.730462030227
 21
3729.22730216805
 31
0.0
  0
LINE
  5
40F7
330
1F
100
AcDbEntity
  8
Rüttler
100
AcDbLine
 10
7265.230462030228
 20
3841.91615655005
 30
0.0
 11
7265.230462030228
 21
3769.916156550051
 31
0.0
  0
LINE
  5
40F8
330
1F
100
AcDbEntity
  8
Rüttler
100
AcDbLine
 10
7463.230462030228
 20
3832.91615655005
 30
0.0
 11
7463.230462030228
 21
3769.916156550051
 31
0.0
  0
LINE
  5
40F9
330
1F
100
AcDbEntity
  8
Rüttler
100
AcDbLine
 10
7467.730462030228
 20
3841.91615655005
 30
0.0
 11
7467.730462030228
 21
3726.916156550051
 31
0.0
  0
LINE
  5
40FA
330
1F
100
AcDbEntity
  8
Rüttler
100
AcDbLine
 10
7441.730462030228
 20
3791.664480469736
 30
0.0
 11
7441.730462030228
 21
3751.11615655005
 31
0.0
  0
LINE
  5
40FB
330
1F
100
AcDbEntity
  8
Rüttler
100
AcDbLine
 10
7446.730462030227
 20
3792.104340365505
 30
0.0
 11
7446.730462030227
 21
3751.11615655005
 31
0.0
  0
LINE
  5
40FC
330
1F
100
AcDbEntity
  8
Rüttler
100
AcDbLine
 10
7426.730462030228
 20
3777.11615655005
 30
0.0
 11
7426.730462030228
 21
3751.11615655005
 31
0.0
  0
LINE
  5
40FD
330
1F
100
AcDbEntity
  8
Rüttler
100
AcDbLine
 10
7421.730462030227
 20
3775.416156550051
 30
0.0
 11
7421.730462030227
 21
3751.11615655005
 31
0.0
  0
LINE
  5
40FE
330
1F
100
AcDbEntity
  8
Rüttler
100
AcDbLine
 10
7386.730462030228
 20
3775.416156550051
 30
0.0
 11
7386.730462030228
 21
3731.01615655005
 31
0.0
  0
LINE
  5
40FF
330
1F
100
AcDbEntity
  8
Rüttler
100
AcDbLine
 10
7381.730462030228
 20
3777.91615655005
 30
0.0
 11
7381.730462030228
 21
3731.01615655005
 31
0.0
  0
LINE
  5
4100
330
1F
100
AcDbEntity
  8
Rüttler
100
AcDbLine
 10
7346.730462030227
 20
3841.91615655005
 30
0.0
 11
7346.730462030227
 21
3731.01615655005
 31
0.0
  0
LINE
  5
4101
330
1F
100
AcDbEntity
  8
Rüttler
100
AcDbLine
 10
7341.730462030227
 20
3841.91615655005
 30
0.0
 11
7341.730462030227
 21
3731.01615655005
 31
0.0
  0
LINE
  5
4102
330
1F
100
AcDbEntity
  8
Rüttler
100
AcDbLine
 10
7326.730462030228
 20
3841.91615655005
 30
0.0
 11
7326.730462030228
 21
3751.01615655005
 31
0.0
  0
LINE
  5
4103
330
1F
100
AcDbEntity
  8
Rüttler
100
AcDbLine
 10
7321.730462030227
 20
3841.91615655005
 30
0.0
 11
7321.730462030227
 21
3751.01615655005
 31
0.0
  0
LINE
  5
4104
330
1F
100
AcDbEntity
  8
Rüttler
100
AcDbLine
 10
7306.730462030228
 20
3841.91615655005
 30
0.0
 11
7306.730462030228
 21
3751.01615655005
 31
0.0
  0
LINE
  5
4105
330
1F
100
AcDbEntity
  8
Rüttler
100
AcDbLine
 10
7301.73046203023
 20
3841.91615655005
 30
0.0
 11
7301.730462030228
 21
3751.01615655005
 31
0.0
  0
LINE
  5
4106
330
1F
100
AcDbEntity
  8
Rüttler
100
AcDbLine
 10
7286.730462030227
 20
3841.91615655005
 30
0.0
 11
7286.730462030227
 21
3751.01615655005
 31
0.0
  0
LINE
  5
4107
330
1F
100
AcDbEntity
  8
Rüttler
100
AcDbLine
 10
7281.730462030228
 20
3841.91615655005
 30
0.0
 11
7281.730462030228
 21
3751.01615655005
 31
0.0
  0
LINE
  5
4108
330
1F
100
AcDbEntity
  8
Rüttler
100
AcDbLine
 10
7358.230462030228
 20
3776.916156550051
 30
0.0
 11
7358.230462030228
 21
3695.916156550051
 31
0.0
  0
LINE
  5
4109
330
1F
100
AcDbEntity
  8
Rüttler
100
AcDbLine
 10
7370.230462030227
 20
3776.916156550051
 30
0.0
 11
7370.230462030227
 21
3695.916156550051
 31
0.0
  0
LINE
  5
410B
330
1F
100
AcDbEntity
  8
Rüttler
100
AcDbLine
 10
7315.230462030227
 20
3691.916156550051
 30
0.0
 11
7331.831482544662
 21
3691.916156550051
 31
0.0
  0
LINE
  5
410C
330
1F
100
AcDbEntity
  8
Rüttler
100
AcDbLine
 10
7336.730462030228
 20
3695.916156550051
 30
0.0
 11
7391.730462030228
 21
3695.916156550051
 31
0.0
  0
LINE
  5
410D
330
1F
100
AcDbEntity
  8
Rüttler
100
AcDbLine
 10
7396.629441515793
 20
3691.916156550051
 30
0.0
 11
7396.730462030227
 21
3691.916156550051
 31
0.0
  0
CIRCLE
  5
410E
330
1F
100
AcDbEntity
  8
Rüttler
100
AcDbCircle
 10
7304.230462030227
 20
3718.91615655005
 30
0.0
 40
13.5
  0
CIRCLE
  5
410F
330
1F
100
AcDbEntity
  8
Rüttler
100
AcDbCircle
 10
7304.230462030227
 20
3718.91615655005
 30
0.0
 40
22.5
  0
ARC
  5
4110
330
1F
100
AcDbEntity
  8
Rüttler
100
AcDbCircle
 10
7424.230462030227
 20
3718.91615655005
 30
0.0
 40
22.5
100
AcDbArc
 50
233.1301023541377
 51
113.971999945959
  0
CIRCLE
  5
4111
330
1F
100
AcDbEntity
  8
Rüttler
100
AcDbCircle
 10
7424.230462030227
 20
3718.91615655005
 30
0.0
 40
13.5
  0
ARC
  5
4112
330
1F
100
AcDbEntity
  8
Rüttler
100
AcDbCircle
 10
7336.730462030228
 20
3693.416156550051
 30
0.0
 40
2.5
100
AcDbArc
 50
90.0
 51
168.4630409671972
  0
ARC
  5
4113
330
1F
100
AcDbEntity
  8
Rüttler
100
AcDbCircle
 10
7331.831482544662
 20
3694.416156550051
 30
0.0
 40
2.5
100
AcDbArc
 50
270.0
 51
348.4630409671972
  0
ARC
  5
4114
330
1F
100
AcDbEntity
  8
Rüttler
100
AcDbCircle
 10
7391.730462030228
 20
3693.416156550051
 30
0.0
 40
2.5
100
AcDbArc
 50
11.53695903280276
 51
90.0
  0
ARC
  5
4115
330
1F
100
AcDbEntity
  8
Rüttler
100
AcDbCircle
 10
7396.629441515793
 20
3694.416156550051
 30
0.0
 40
2.5
100
AcDbArc
 50
191.5369590328027
 51
270.0
  0
LINE
  5
4116
330
1F
100
AcDbEntity
  8
ACHSEN
 48
10.0
100
AcDbLine
 10
7274.441399849464
 20
3718.91615655005
 30
0.0
 11
7334.019524210991
 21
3718.91615655005
 31
0.0
  0
ARC
  5
4117
330
1F
100
AcDbEntity
  8
Rüttler
100
AcDbCircle
 10
7413.230462030227
 20
3741.91615655005
 30
0.0
 40
50.0
100
AcDbArc
 50
270.0
 51
0.0
  0
ARC
  5
4118
330
1F
100
AcDbEntity
  8
Rüttler
100
AcDbCircle
 10
7315.230462030227
 20
3741.91615655005
 30
0.0
 40
50.0
100
AcDbArc
 50
180.0
 51
270.0
  0
LINE
  5
4119
330
1F
100
AcDbEntity
  8
Rüttler
100
AcDbLine
 10
7283.830462030228
 20
3748.916156550051
 30
0.0
 11
7284.630462030229
 21
3748.916156550051
 31
0.0
  0
LINE
  5
411A
330
1F
100
AcDbEntity
  8
Rüttler
100
AcDbLine
 10
7358.230462030228
 20
3776.916156550051
 30
0.0
 11
7370.230462030227
 21
3776.916156550051
 31
0.0
  0
LINE
  5
411B
330
1F
100
AcDbEntity
  8
Rüttler
100
AcDbLine
 10
7284.13046203023
 20
3750.01615655005
 30
0.0
 11
7284.330462030228
 21
3750.01615655005
 31
0.0
  0
LINE
  5
411C
330
1F
100
AcDbEntity
  8
Rüttler
100
AcDbLine
 10
7443.930462030228
 20
3748.916156550051
 30
0.0
 11
7444.530462030228
 21
3748.916156550051
 31
0.0
  0
LINE
  5
411D
330
1F
100
AcDbEntity
  8
Rüttler
100
AcDbLine
 10
7444.230462030228
 20
3750.01615655005
 30
0.0
 11
7444.230462030228
 21
3750.01615655005
 31
0.0
  0
LINE
  5
411E
330
1F
100
AcDbEntity
  8
Rüttler
100
AcDbLine
 10
7424.230462030227
 20
3750.01615655005
 30
0.0
 11
7424.280462030229
 21
3750.01615655005
 31
0.0
  0
LINE
  5
411F
330
1F
100
AcDbEntity
  8
Rüttler
100
AcDbLine
 10
7423.930462030227
 20
3748.916156550051
 30
0.0
 11
7424.530462030229
 21
3748.916156550051
 31
0.0
  0
ARC
  5
4120
330
1F
100
AcDbEntity
  8
Rüttler
100
AcDbCircle
 10
7424.230462030227
 20
3751.51615655005
 30
0.0
 40
1.5
100
AcDbArc
 50
180.0
 51
270.0
  0
ARC
  5
4121
330
1F
100
AcDbEntity
  8
Rüttler
100
AcDbCircle
 10
7444.230462030228
 20
3751.51615655005
 30
0.0
 40
1.5
100
AcDbArc
 50
180.0
 51
270.0
  0
ARC
  5
4122
330
1F
100
AcDbEntity
  8
Rüttler
100
AcDbCircle
 10
7444.230462030228
 20
3751.51615655005
 30
0.0
 40
1.5
100
AcDbArc
 50
270.0
 51
0.0
  0
ARC
  5
4123
330
1F
100
AcDbEntity
  8
Rüttler
100
AcDbCircle
 10
7424.280462030229
 20
3751.46615655005
 30
0.0
 40
1.45
100
AcDbArc
 50
270.0
 51
0.0
  0
ARC
  5
4124
330
1F
100
AcDbEntity
  8
Rüttler
100
AcDbCircle
 10
7423.930462030227
 20
3751.11615655005
 30
0.0
 40
2.2
100
AcDbArc
 50
180.0
 51
270.0
  0
ARC
  5
4125
330
1F
100
AcDbEntity
  8
Rüttler
100
AcDbCircle
 10
7424.530462030229
 20
3751.11615655005
 30
0.0
 40
2.2
100
AcDbArc
 50
270.0
 51
0.0
  0
ARC
  5
4126
330
1F
100
AcDbEntity
  8
Rüttler
100
AcDbCircle
 10
7443.930462030228
 20
3751.11615655005
 30
0.0
 40
2.2
100
AcDbArc
 50
180.0
 51
270.0
  0
ARC
  5
4127
330
1F
100
AcDbEntity
  8
Rüttler
100
AcDbCircle
 10
7444.530462030228
 20
3751.11615655005
 30
0.0
 40
2.2
100
AcDbArc
 50
270.0
 51
0.0
  0
LINE
  5
4128
330
1F
100
AcDbEntity
  8
Rüttler
100
AcDbLine
 10
7323.830462030229
 20
3748.916156550051
 30
0.0
 11
7324.63046203023
 21
3748.916156550051
 31
0.0
  0
LINE
  5
4129
330
1F
100
AcDbEntity
  8
Rüttler
100
AcDbLine
 10
7324.130462030229
 20
3750.01615655005
 30
0.0
 11
7324.330462030228
 21
3750.01615655005
 31
0.0
  0
LINE
  5
412A
330
1F
100
AcDbEntity
  8
Rüttler
100
AcDbLine
 10
7303.830462030228
 20
3748.916156550051
 30
0.0
 11
7304.630462030229
 21
3748.916156550051
 31
0.0
  0
LINE
  5
412B
330
1F
100
AcDbEntity
  8
Rüttler
100
AcDbLine
 10
7304.130462030228
 20
3750.01615655005
 30
0.0
 11
7304.330462030228
 21
3750.01615655005
 31
0.0
  0
ARC
  5
412C
330
1F
100
AcDbEntity
  8
Rüttler
100
AcDbCircle
 10
7304.130462030228
 20
3751.416156550051
 30
0.0
 40
1.399999999999999
100
AcDbArc
 50
180.0
 51
270.0
  0
ARC
  5
412D
330
1F
100
AcDbEntity
  8
Rüttler
100
AcDbCircle
 10
7304.330462030228
 20
3751.416156550051
 30
0.0
 40
1.399999999999999
100
AcDbArc
 50
270.0
 51
0.0
  0
ARC
  5
412E
330
1F
100
AcDbEntity
  8
Rüttler
100
AcDbCircle
 10
7324.130462030229
 20
3751.416156550051
 30
0.0
 40
1.399999999999999
100
AcDbArc
 50
180.0
 51
270.0
  0
ARC
  5
412F
330
1F
100
AcDbEntity
  8
Rüttler
100
AcDbCircle
 10
7324.330462030228
 20
3751.416156550051
 30
0.0
 40
1.399999999999999
100
AcDbArc
 50
270.0
 51
0.0
  0
ARC
  5
4130
330
1F
100
AcDbEntity
  8
Rüttler
100
AcDbCircle
 10
7284.330462030228
 20
3751.416156550051
 30
0.0
 40
1.399999999999999
100
AcDbArc
 50
270.0
 51
0.0
  0
ARC
  5
4131
330
1F
100
AcDbEntity
  8
Rüttler
100
AcDbCircle
 10
7284.13046203023
 20
3751.416156550051
 30
0.0
 40
1.399999999999999
100
AcDbArc
 50
180.0
 51
270.0
  0
ARC
  5
4132
330
1F
100
AcDbEntity
  8
Rüttler
100
AcDbCircle
 10
7284.630462030229
 20
3751.01615655005
 30
0.0
 40
2.1
100
AcDbArc
 50
270.0
 51
0.0
  0
ARC
  5
4133
330
1F
100
AcDbEntity
  8
Rüttler
100
AcDbCircle
 10
7283.830462030228
 20
3751.01615655005
 30
0.0
 40
2.1
100
AcDbArc
 50
180.0
 51
270.0
  0
ARC
  5
4134
330
1F
100
AcDbEntity
  8
Rüttler
100
AcDbCircle
 10
7303.830462030228
 20
3751.01615655005
 30
0.0
 40
2.1
100
AcDbArc
 50
180.0
 51
270.0
  0
ARC
  5
4135
330
1F
100
AcDbEntity
  8
Rüttler
100
AcDbCircle
 10
7304.630462030229
 20
3751.01615655005
 30
0.0
 40
2.1
100
AcDbArc
 50
270.0
 51
0.0
  0
ARC
  5
4136
330
1F
100
AcDbEntity
  8
Rüttler
100
AcDbCircle
 10
7323.830462030229
 20
3751.01615655005
 30
0.0
 40
2.1
100
AcDbArc
 50
180.0
 51
270.0
  0
ARC
  5
4137
330
1F
100
AcDbEntity
  8
Rüttler
100
AcDbCircle
 10
7324.63046203023
 20
3751.01615655005
 30
0.0
 40
2.1
100
AcDbArc
 50
270.0
 51
0.0
  0
ARC
  5
4138
330
1F
100
AcDbEntity
  8
Rüttler
100
AcDbCircle
 10
7424.280462030229
 20
3763.06615655005
 30
0.0
 40
1.45
100
AcDbArc
 50
270.0
 51
0.0
  0
ARC
  5
4139
330
1F
100
AcDbEntity
  8
Rüttler
100
AcDbCircle
 10
7424.230462030227
 20
3763.11615655005
 30
0.0
 40
1.5
100
AcDbArc
 50
180.0
 51
270.0
  0
LINE
  5
413A
330
1F
100
AcDbEntity
  8
Rüttler
100
AcDbLine
 10
7424.230462030227
 20
3761.61615655005
 30
0.0
 11
7424.280462030229
 21
3761.61615655005
 31
0.0
  0
LINE
  5
413B
330
1F
100
AcDbEntity
  8
Rüttler
100
AcDbLine
 10
7444.230462030228
 20
3761.61615655005
 30
0.0
 11
7444.230462030228
 21
3761.61615655005
 31
0.0
  0
LINE
  5
413E
330
1F
100
AcDbEntity
  8
Rüttler
100
AcDbLine
 10
7381.730462030228
 20
3777.91615655005
 30
0.0
 11
7425.930462030229
 21
3777.91615655005
 31
0.0
  0
LINE
  5
413F
330
1F
100
AcDbEntity
  8
Rüttler
100
AcDbLine
 10
7381.730462030228
 20
3791.45375224517
 30
0.0
 11
7381.730462030228
 21
3777.91615655005
 31
0.0
  0
LINE
  5
4140
330
1F
100
AcDbEntity
  8
Rüttler
100
AcDbLine
 10
7425.730462030228
 20
3790.649870666346
 30
0.0
 11
7425.730462030228
 21
3777.91615655005
 31
0.0
  0
ARC
  5
4141
330
1F
100
AcDbEntity
  8
Rüttler
100
AcDbCircle
 10
7372.253802627341
 20
3804.439497147163
 30
0.0
 40
10.0
100
AcDbArc
 50
181.3194666099177
 51
268.6805333900566
  0
CIRCLE
  5
4142
330
1F
100
AcDbEntity
  8
Rüttler
100
AcDbCircle
 10
7372.253802627341
 20
3804.439497147163
 30
0.0
 40
2.5
  0
LINE
  5
4143
330
1F
100
AcDbEntity
  8
Rüttler
100
AcDbLine
 10
7409.730462030228
 20
3791.916156550051
 30
0.0
 11
7371.148551897326
 21
3794.500763786025
 31
0.0
  0
LINE
  5
4144
330
1F
100
AcDbEntity
  8
Rüttler
100
AcDbLine
 10
7359.730462030228
 20
3841.91615655005
 30
0.0
 11
7362.315069266202
 21
3803.334246417147
 31
0.0
  0
LINE
  5
4145
330
1F
100
AcDbEntity
  8
Rüttler
100
AcDbLine
 10
7409.730462030228
 20
3791.916156550051
 30
0.0
 11
7448.312372163131
 21
3794.500763786025
 31
0.0
  0
ARC
  5
4146
330
1F
100
AcDbEntity
  8
Rüttler
100
AcDbCircle
 10
7447.207121433115
 20
3804.439497147163
 30
0.0
 40
10.0
100
AcDbArc
 50
271.3194666099434
 51
358.6805333900823
  0
LINE
  5
4147
330
1F
100
AcDbEntity
  8
Rüttler
100
AcDbLine
 10
7459.730462030228
 20
3841.91615655005
 30
0.0
 11
7457.145854794252
 21
3803.334246417147
 31
0.0
  0
CIRCLE
  5
4148
330
1F
100
AcDbEntity
  8
Rüttler
100
AcDbCircle
 10
7447.207121433115
 20
3804.439497147163
 30
0.0
 40
2.5
  0
LINE
  5
414A
330
1F
100
AcDbEntity
  8
ACHSEN
 48
10.0
100
AcDbLine
 10
7424.230462030227
 20
3748.705218730815
 30
0.0
 11
7424.230462030227
 21
3689.127094369286
 31
0.0
  0
LINE
  5
414C
330
1F
100
AcDbEntity
  8
ACHSEN
 48
5.0
100
AcDbLine
 10
7376.534624331217
 20
3808.720318851038
 30
0.0
 11
7367.117544501628
 21
3799.303239021448
 31
0.0
  0
ARC
  5
414D
330
1F
100
AcDbEntity
  8
ACHSEN
 48
5.0
100
AcDbCircle
 10
7409.730462030228
 20
3841.91615655005
 30
0.0
 40
53.0
100
AcDbArc
 50
217.4663817829076
 51
232.2797187775261
  0
ARC
  5
414E
330
1F
100
AcDbEntity
  8
ACHSEN
 48
5.0
100
AcDbCircle
 10
7409.730462030228
 20
3841.91615655005
 30
0.0
 40
53.0
100
AcDbArc
 50
307.0844347630385
 51
323.5972396694156
  0
LINE
  5
414F
330
1F
100
AcDbEntity
  8
ACHSEN
 48
5.0
100
AcDbLine
 10
7442.372463435531
 20
3809.274155144748
 30
0.0
 11
7451.786990481668
 21
3799.859628098611
 31
0.0
  0
ARC
  5
4150
330
1F
100
AcDbEntity
  8
Rüttler
100
AcDbCircle
 10
7344.630462030228
 20
3731.01615655005
 30
0.0
 40
2.1
100
AcDbArc
 50
270.0
 51
0.0
  0
ARC
  5
4151
330
1F
100
AcDbEntity
  8
Rüttler
100
AcDbCircle
 10
7343.830462030227
 20
3731.01615655005
 30
0.0
 40
2.1
100
AcDbArc
 50
180.0
 51
270.0
  0
LINE
  5
4152
330
1F
100
AcDbEntity
  8
Rüttler
100
AcDbLine
 10
7344.130462030229
 20
3730.01615655005
 30
0.0
 11
7344.330462030228
 21
3730.01615655005
 31
0.0
  0
LINE
  5
4153
330
1F
100
AcDbEntity
  8
Rüttler
100
AcDbLine
 10
7343.830462030227
 20
3728.916156550051
 30
0.0
 11
7344.630462030228
 21
3728.916156550051
 31
0.0
  0
ARC
  5
4154
330
1F
100
AcDbEntity
  8
Rüttler
100
AcDbCircle
 10
7384.630462030229
 20
3731.01615655005
 30
0.0
 40
2.1
100
AcDbArc
 50
270.0
 51
0.0
  0
ARC
  5
4155
330
1F
100
AcDbEntity
  8
Rüttler
100
AcDbCircle
 10
7383.830462030228
 20
3731.01615655005
 30
0.0
 40
2.1
100
AcDbArc
 50
180.0
 51
270.0
  0
LINE
  5
4156
330
1F
100
AcDbEntity
  8
Rüttler
100
AcDbLine
 10
7383.830462030228
 20
3728.916156550051
 30
0.0
 11
7384.630462030229
 21
3728.916156550051
 31
0.0
  0
LINE
  5
4157
330
1F
100
AcDbEntity
  8
Rüttler
100
AcDbLine
 10
7384.230462030227
 20
3761.61615655005
 30
0.0
 11
7384.230462030227
 21
3761.61615655005
 31
0.0
  0
ARC
  5
4158
330
1F
100
AcDbEntity
  8
Rüttler
100
AcDbCircle
 10
7384.230462030227
 20
3763.11615655005
 30
0.0
 40
1.5
100
AcDbArc
 50
180.0
 51
270.0
  0
ARC
  5
4159
330
1F
100
AcDbEntity
  8
Rüttler
100
AcDbCircle
 10
7384.230462030227
 20
3763.11615655005
 30
0.0
 40
1.5
100
AcDbArc
 50
270.0
 51
0.0
  0
ARC
  5
416E
330
1F
100
AcDbEntity
  8
Rüttler
100
AcDbCircle
 10
7461.230462030228
 20
3832.91615655005
 30
0.0
 40
2.0
100
AcDbArc
 50
0.0
 51
90.0
  0
ARC
  5
416F
330
1F
100
AcDbEntity
  8
Rüttler
100
AcDbCircle
 10
7461.132033500291
 20
3832.91615655005
 30
0.0
 40
2.0
100
AcDbArc
 50
90.0
 51
176.167474393941
  0
LINE
  5
4170
330
1F
100
AcDbEntity
  8
Rüttler
100
AcDbLine
 10
7461.132033500291
 20
3834.91615655005
 30
0.0
 11
7461.230462030228
 21
3834.91615655005
 31
0.0
  0
ARC
  5
417A
330
1F
100
AcDbEntity
  8
Rüttler
100
AcDbCircle
 10
7381.930462030229
 20
3777.11615655005
 30
0.0
 40
0.8
100
AcDbArc
 50
0.0
 51
90.0
  0
ARC
  5
417B
330
1F
100
AcDbEntity
  8
Rüttler
100
AcDbCircle
 10
7388.230462030228
 20
3775.416156550051
 30
0.0
 40
2.5
100
AcDbArc
 50
90.0
 51
180.0
  0
ARC
  5
417C
330
1F
100
AcDbEntity
  8
Rüttler
100
AcDbCircle
 10
7389.230462030228
 20
3775.416156550051
 30
0.0
 40
2.5
100
AcDbArc
 50
90.0
 51
180.0
  0
LINE
  5
417D
330
1F
100
AcDbEntity
  8
Rüttler
100
AcDbLine
 10
7381.730462030228
 20
3777.91615655005
 30
0.0
 11
7381.930462030229
 21
3777.91615655005
 31
0.0
  0
ARC
  5
417E
330
1F
100
AcDbEntity
  8
Rüttler
100
AcDbCircle
 10
7424.930462030228
 20
3777.11615655005
 30
0.0
 40
0.8
100
AcDbArc
 50
0.0
 51
90.0
  0
ARC
  5
417F
330
1F
100
AcDbEntity
  8
Rüttler
100
AcDbCircle
 10
7425.930462030229
 20
3777.11615655005
 30
0.0
 40
0.8
100
AcDbArc
 50
0.0
 51
90.0
  0
ARC
  5
4180
330
1F
100
AcDbEntity
  8
Rüttler
100
AcDbCircle
 10
7420.230462030227
 20
3775.416156550051
 30
0.0
 40
2.5
100
AcDbArc
 50
0.0
 51
90.0
  0
ARC
  5
4181
330
1F
100
AcDbEntity
  8
Rüttler
100
AcDbCircle
 10
7419.230462030228
 20
3775.416156550051
 30
0.0
 40
2.5
100
AcDbArc
 50
0.0
 51
90.0
  0
ARC
  5
4182
330
1F
100
AcDbEntity
  8
Rüttler
100
AcDbCircle
 10
7448.230462030227
 20
3791.981456610132
 30
0.0
 40
2.5
100
AcDbArc
 50
94.69590328976192
 51
180.0
  0
ARC
  5
4183
330
1F
100
AcDbEntity
  8
Rüttler
100
AcDbCircle
 10
7449.230462030228
 20
3792.104340365505
 30
0.0
 40
2.5
100
AcDbArc
 50
99.31529460281791
 51
180.0
  0
ARC
  5
4184
330
1F
100
AcDbEntity
  8
Rüttler
100
AcDbCircle
 10
7440.230462030227
 20
3791.45375224517
 30
0.0
 40
2.5
100
AcDbArc
 50
0.0
 51
93.83252560603295
  0
ARC
  5
4185
330
1F
100
AcDbEntity
  8
Rüttler
100
AcDbCircle
 10
7439.245935412405
 20
3791.386762113601
 30
0.0
 40
2.5
100
AcDbArc
 50
6.377999881453629
 51
93.83252560603295
  0
ARC
  5
4186
330
1F
100
AcDbEntity
  8
Rüttler
100
AcDbCircle
 10
7379.230462030228
 20
3791.45375224517
 30
0.0
 40
2.5
100
AcDbArc
 50
0.0
 51
86.16747439396705
  0
ARC
  5
4187
330
1F
100
AcDbEntity
  8
Rüttler
100
AcDbCircle
 10
7428.230462030227
 20
3790.649870666346
 30
0.0
 40
2.5
100
AcDbArc
 50
93.83252560603295
 51
180.0
  0
LINE
  5
4189
330
1F
100
AcDbEntity
  8
ACHSEN
 48
20.0
100
AcDbLine
 10
7364.230462030228
 20
4000.66824625441
 30
0.0
 11
7364.230462030228
 21
3683.164066845691
 31
0.0
  0
LINE
  5
418A
330
1F
100
AcDbEntity
  8
ACHSEN
 48
5.0
100
AcDbLine
 10
7475.730462030227
 20
3870.27217104762
 30
0.0
 11
7475.730462030227
 21
3830.902111452918
 31
0.0
  0
LINE
  5
418B
330
1F
100
AcDbEntity
  8
Rüttler
100
AcDbLine
 10
7289.230462030229
 20
3756.916156550051
 30
0.0
 11
7299.230462030227
 21
3756.916156550051
 31
0.0
  0
LINE
  5
418C
330
1F
100
AcDbEntity
  8
Rüttler
100
AcDbLine
 10
7329.230462030228
 20
3756.916156550051
 30
0.0
 11
7339.230462030228
 21
3756.916156550051
 31
0.0
  0
LINE
  5
418D
330
1F
100
AcDbEntity
  8
Rüttler
100
AcDbLine
 10
7309.230462030227
 20
3756.916156550051
 30
0.0
 11
7319.230462030228
 21
3756.916156550051
 31
0.0
  0
LINE
  5
418E
330
1F
100
AcDbEntity
  8
Rüttler
100
AcDbLine
 10
7349.230462030227
 20
3756.916156550051
 30
0.0
 11
7355.730462030227
 21
3756.916156550051
 31
0.0
  0
LINE
  5
418F
330
1F
100
AcDbEntity
  8
Rüttler
100
AcDbLine
 10
7372.730462030228
 20
3756.916156550051
 30
0.0
 11
7379.230462030228
 21
3756.916156550051
 31
0.0
  0
ARC
  5
4190
330
1F
100
AcDbEntity
  8
Rüttler
100
AcDbCircle
 10
7279.230462030227
 20
3754.416156550051
 30
0.0
 40
2.5
100
AcDbArc
 50
0.0
 51
90.0
  0
ARC
  5
4191
330
1F
100
AcDbEntity
  8
Rüttler
100
AcDbCircle
 10
7289.230462030229
 20
3754.416156550051
 30
0.0
 40
2.5
100
AcDbArc
 50
90.0
 51
180.0
  0
ARC
  5
4192
330
1F
100
AcDbEntity
  8
Rüttler
100
AcDbCircle
 10
7299.230462030227
 20
3754.416156550051
 30
0.0
 40
2.5
100
AcDbArc
 50
0.0
 51
90.0
  0
ARC
  5
4193
330
1F
100
AcDbEntity
  8
Rüttler
100
AcDbCircle
 10
7309.230462030227
 20
3754.416156550051
 30
0.0
 40
2.5
100
AcDbArc
 50
90.0
 51
180.0
  0
ARC
  5
4194
330
1F
100
AcDbEntity
  8
Rüttler
100
AcDbCircle
 10
7319.230462030228
 20
3754.416156550051
 30
0.0
 40
2.5
100
AcDbArc
 50
0.0
 51
90.0
  0
ARC
  5
4195
330
1F
100
AcDbEntity
  8
Rüttler
100
AcDbCircle
 10
7329.230462030228
 20
3754.416156550051
 30
0.0
 40
2.5
100
AcDbArc
 50
90.0
 51
180.0
  0
ARC
  5
4196
330
1F
100
AcDbEntity
  8
Rüttler
100
AcDbCircle
 10
7339.230462030228
 20
3754.416156550051
 30
0.0
 40
2.5
100
AcDbArc
 50
0.0
 51
90.0
  0
ARC
  5
4197
330
1F
100
AcDbEntity
  8
Rüttler
100
AcDbCircle
 10
7349.230462030227
 20
3754.416156550051
 30
0.0
 40
2.5
100
AcDbArc
 50
90.0
 51
180.0
  0
ARC
  5
4198
330
1F
100
AcDbEntity
  8
Rüttler
100
AcDbCircle
 10
7355.730462030227
 20
3754.416156550051
 30
0.0
 40
2.5
100
AcDbArc
 50
0.0
 51
90.0
  0
ARC
  5
4199
330
1F
100
AcDbEntity
  8
Rüttler
100
AcDbCircle
 10
7372.730462030228
 20
3754.416156550051
 30
0.0
 40
2.5
100
AcDbArc
 50
90.0
 51
180.0
  0
LINE
  5
419A
330
1F
100
AcDbEntity
  8
Rüttler
100
AcDbLine
 10
7389.230462030228
 20
3756.916156550051
 30
0.0
 11
7391.717962030229
 21
3756.916156550051
 31
0.0
  0
LINE
  5
419B
330
1F
100
AcDbEntity
  8
Rüttler
100
AcDbLine
 10
7415.742962030228
 20
3756.916156550051
 30
0.0
 11
7419.230462030228
 21
3756.916156550051
 31
0.0
  0
LINE
  5
419C
330
1F
100
AcDbEntity
  8
Rüttler
100
AcDbLine
 10
7429.230462030227
 20
3756.916156550051
 30
0.0
 11
7439.230462030228
 21
3756.916156550051
 31
0.0
  0
LINE
  5
419D
330
1F
100
AcDbEntity
  8
Rüttler
100
AcDbLine
 10
7449.230462030228
 20
3756.916156550051
 30
0.0
 11
7454.205396102267
 21
3756.916156550051
 31
0.0
  0
ARC
  5
419E
330
1F
100
AcDbEntity
  8
Rüttler
100
AcDbCircle
 10
7379.230462030228
 20
3754.416156550051
 30
0.0
 40
2.5
100
AcDbArc
 50
0.0
 51
90.0
  0
ARC
  5
419F
330
1F
100
AcDbEntity
  8
Rüttler
100
AcDbCircle
 10
7389.230462030228
 20
3754.416156550051
 30
0.0
 40
2.5
100
AcDbArc
 50
90.0
 51
180.0
  0
ARC
  5
41A0
330
1F
100
AcDbEntity
  8
Rüttler
100
AcDbCircle
 10
7419.230462030228
 20
3754.416156550051
 30
0.0
 40
2.5
100
AcDbArc
 50
0.0
 51
90.0
  0
ARC
  5
41A1
330
1F
100
AcDbEntity
  8
Rüttler
100
AcDbCircle
 10
7429.230462030227
 20
3754.416156550051
 30
0.0
 40
2.5
100
AcDbArc
 50
90.0
 51
180.0
  0
ARC
  5
41A2
330
1F
100
AcDbEntity
  8
Rüttler
100
AcDbCircle
 10
7439.230462030228
 20
3754.416156550051
 30
0.0
 40
2.5
100
AcDbArc
 50
0.0
 51
90.0
  0
ARC
  5
41A3
330
1F
100
AcDbEntity
  8
Rüttler
100
AcDbCircle
 10
7449.230462030228
 20
3754.416156550051
 30
0.0
 40
2.5
100
AcDbArc
 50
90.0
 51
180.0
  0
LINE
  5
41A4
330
1F
100
AcDbEntity
  8
ACHSEN
 48
5.0
100
AcDbLine
 10
7252.730462030227
 20
3853.21326693463
 30
0.0
 11
7252.730462030227
 21
3813.560142052482
 31
0.0
  0
ARC
  5
41A7
330
1F
100
AcDbEntity
  8
Rüttler
100
AcDbCircle
 10
7357.430462030229
 20
3776.916156550051
 30
0.0
 40
0.8
100
AcDbArc
 50
0.0
 51
90.0
  0
ARC
  5
41A8
330
1F
100
AcDbEntity
  8
Rüttler
100
AcDbCircle
 10
7370.993948676208
 20
3776.916156550051
 30
0.0
 40
0.8
100
AcDbArc
 50
90.0
 51
180.0
  0
LINE
  5
41A9
330
1F
100
AcDbEntity
  8
Rüttler
100
AcDbLine
 10
7455.230462030228
 20
3759.21174710684
 30
0.0
 11
7455.230462030228
 21
3730.11185185337
 31
0.0
  0
LINE
  5
41AA
330
1F
100
AcDbEntity
  8
Rüttler
100
AcDbLine
 10
7455.230462030228
 20
3760.916156550051
 30
0.0
 11
7460.730462030227
 21
3760.916156550051
 31
0.0
  0
LINE
  5
41AB
330
1F
100
AcDbEntity
  8
Rüttler
100
AcDbLine
 10
7455.230462030228
 20
3728.416156550051
 30
0.0
 11
7461.373478138487
 21
3728.416156550051
 31
0.0
  0
ARC
  5
41AC
330
1F
100
AcDbEntity
  8
Rüttler
100
AcDbCircle
 10
7452.730462030228
 20
3759.21174710684
 30
0.0
 40
2.5
100
AcDbArc
 50
0.0
 51
90.0
  0
ARC
  5
41AD
330
1F
100
AcDbEntity
  8
Rüttler
100
AcDbCircle
 10
7452.730462030228
 20
3730.11185185337
 30
0.0
 40
2.5
100
AcDbArc
 50
270.0
 51
0.0
  0
ARC
  5
41AE
330
1F
100
AcDbEntity
  8
Rüttler
100
AcDbCircle
 10
7460.730462030227
 20
3763.41615655005
 30
0.0
 40
2.5
100
AcDbArc
 50
270.0
 51
0.0
  0
ARC
  5
41AF
330
1F
100
AcDbEntity
  8
Rüttler
100
AcDbCircle
 10
7267.730462030228
 20
3763.41615655005
 30
0.0
 40
2.5
100
AcDbArc
 50
180.0
 51
270.0
  0
ARC
  5
41B0
330
1F
100
AcDbEntity
  8
Rüttler
100
AcDbCircle
 10
7275.730462030228
 20
3730.11185185337
 30
0.0
 40
2.5
100
AcDbArc
 50
180.0
 51
270.0
  0
ARC
  5
41B1
330
1F
100
AcDbEntity
  8
Rüttler
100
AcDbCircle
 10
7275.730462030228
 20
3759.21174710684
 30
0.0
 40
2.5
100
AcDbArc
 50
90.0
 51
180.0
  0
LINE
  5
41B2
330
1F
100
AcDbEntity
  8
Rüttler
100
AcDbLine
 10
7273.230462030227
 20
3728.416156550051
 30
0.0
 11
7267.08744592197
 21
3728.416156550051
 31
0.0
  0
LINE
  5
41B3
330
1F
100
AcDbEntity
  8
Rüttler
100
AcDbLine
 10
7273.230462030227
 20
3760.916156550051
 30
0.0
 11
7267.730462030228
 21
3760.916156550051
 31
0.0
  0
LINE
  5
41B4
330
1F
100
AcDbEntity
  8
Rüttler
100
AcDbLine
 10
7273.230462030227
 20
3759.21174710684
 30
0.0
 11
7273.230462030227
 21
3730.11185185337
 31
0.0
  0
LINE
  5
41B5
330
1F
100
AcDbEntity
  8
Rüttler
100
AcDbLine
 10
7274.611298873306
 20
3756.916156550051
 30
0.0
 11
7279.230462030227
 21
3756.916156550051
 31
0.0
  0
ARC
  5
41B6
330
1F
100
AcDbEntity
  8
Rüttler
100
AcDbCircle
 10
7828.598187013106
 20
4093.029371191561
 30
0.0
 40
2.5
100
AcDbArc
 50
90.0
 51
180.0
  0
LINE
  5
41B7
330
1F
100
AcDbEntity
  8
ACHSEN
 48
20.0
100
AcDbLine
 10
7773.638625272283
 20
4209.52937119156
 30
0.0
 11
8082.691240788371
 21
4209.52937119156
 31
0.0
  0
POINT
  5
41BA
330
1F
100
AcDbEntity
  8
Rüttler
100
AcDbPoint
 10
7928.098187013107
 20
4355.520444326002
 30
0.0
  0
POINT
  5
41BB
330
1F
100
AcDbEntity
  8
Rüttler
100
AcDbPoint
 10
7928.098187013107
 20
4073.148817492205
 30
0.0
  0
LINE
  5
41BC
330
1F
100
AcDbEntity
  8
Rüttler
100
AcDbLine
 10
7274.611298873306
 20
3926.916156550049
 30
0.0
 11
7279.230462030227
 21
3926.916156550049
 31
0.0
  0
LINE
  5
41BD
330
1F
100
AcDbEntity
  8
Rüttler
100
AcDbLine
 10
7273.230462030227
 20
3924.620565993262
 30
0.0
 11
7273.230462030227
 21
3953.72046124673
 31
0.0
  0
LINE
  5
41BE
330
1F
100
AcDbEntity
  8
Rüttler
100
AcDbLine
 10
7273.230462030227
 20
3922.91615655005
 30
0.0
 11
7267.730462030228
 21
3922.91615655005
 31
0.0
  0
LINE
  5
41BF
330
1F
100
AcDbEntity
  8
Rüttler
100
AcDbLine
 10
7273.230462030227
 20
3955.41615655005
 30
0.0
 11
7267.08744592197
 21
3955.41615655005
 31
0.0
  0
ARC
  5
41C0
330
1F
100
AcDbEntity
  8
Rüttler
100
AcDbCircle
 10
7275.730462030228
 20
3924.620565993262
 30
0.0
 40
2.5
100
AcDbArc
 50
180.0
 51
270.0
  0
ARC
  5
41C1
330
1F
100
AcDbEntity
  8
Rüttler
100
AcDbCircle
 10
7275.730462030228
 20
3953.72046124673
 30
0.0
 40
2.5
100
AcDbArc
 50
90.0
 51
180.0
  0
ARC
  5
41C2
330
1F
100
AcDbEntity
  8
Rüttler
100
AcDbCircle
 10
7267.730462030228
 20
3920.41615655005
 30
0.0
 40
2.5
100
AcDbArc
 50
90.0
 51
180.0
  0
ARC
  5
41C3
330
1F
100
AcDbEntity
  8
Rüttler
100
AcDbCircle
 10
7460.730462030227
 20
3920.41615655005
 30
0.0
 40
2.5
100
AcDbArc
 50
0.0
 51
90.0
  0
ARC
  5
41C4
330
1F
100
AcDbEntity
  8
Rüttler
100
AcDbCircle
 10
7452.730462030228
 20
3953.72046124673
 30
0.0
 40
2.5
100
AcDbArc
 50
0.0
 51
90.0
  0
ARC
  5
41C5
330
1F
100
AcDbEntity
  8
Rüttler
100
AcDbCircle
 10
7452.730462030228
 20
3924.620565993262
 30
0.0
 40
2.5
100
AcDbArc
 50
270.0
 51
0.0
  0
LINE
  5
41C6
330
1F
100
AcDbEntity
  8
Rüttler
100
AcDbLine
 10
7455.230462030228
 20
3955.41615655005
 30
0.0
 11
7461.373478138487
 21
3955.41615655005
 31
0.0
  0
LINE
  5
41C7
330
1F
100
AcDbEntity
  8
Rüttler
100
AcDbLine
 10
7455.230462030228
 20
3922.91615655005
 30
0.0
 11
7460.730462030227
 21
3922.91615655005
 31
0.0
  0
LINE
  5
41C8
330
1F
100
AcDbEntity
  8
Rüttler
100
AcDbLine
 10
7455.230462030228
 20
3924.620565993262
 30
0.0
 11
7455.230462030228
 21
3953.72046124673
 31
0.0
  0
ARC
  5
41C9
330
1F
100
AcDbEntity
  8
Rüttler
100
AcDbCircle
 10
7370.993948676208
 20
3906.91615655005
 30
0.0
 40
0.8
100
AcDbArc
 50
180.0
 51
270.0
  0
ARC
  5
41CA
330
1F
100
AcDbEntity
  8
Rüttler
100
AcDbCircle
 10
7357.430462030229
 20
3906.91615655005
 30
0.0
 40
0.8
100
AcDbArc
 50
270.0
 51
0.0
  0
ARC
  5
41CD
330
1F
100
AcDbEntity
  8
Rüttler
100
AcDbCircle
 10
7449.230462030228
 20
3929.41615655005
 30
0.0
 40
2.5
100
AcDbArc
 50
180.0
 51
270.0
  0
ARC
  5
41CE
330
1F
100
AcDbEntity
  8
Rüttler
100
AcDbCircle
 10
7439.230462030228
 20
3929.41615655005
 30
0.0
 40
2.5
100
AcDbArc
 50
270.0
 51
0.0
  0
ARC
  5
41CF
330
1F
100
AcDbEntity
  8
Rüttler
100
AcDbCircle
 10
7429.230462030227
 20
3929.41615655005
 30
0.0
 40
2.5
100
AcDbArc
 50
180.0
 51
270.0
  0
ARC
  5
41D0
330
1F
100
AcDbEntity
  8
Rüttler
100
AcDbCircle
 10
7419.230462030228
 20
3929.41615655005
 30
0.0
 40
2.5
100
AcDbArc
 50
270.0
 51
0.0
  0
ARC
  5
41D1
330
1F
100
AcDbEntity
  8
Rüttler
100
AcDbCircle
 10
7409.230462030227
 20
3929.41615655005
 30
0.0
 40
2.5
100
AcDbArc
 50
180.0
 51
270.0
  0
ARC
  5
41D2
330
1F
100
AcDbEntity
  8
Rüttler
100
AcDbCircle
 10
7399.230462030228
 20
3929.41615655005
 30
0.0
 40
2.5
100
AcDbArc
 50
270.0
 51
0.0
  0
ARC
  5
41D3
330
1F
100
AcDbEntity
  8
Rüttler
100
AcDbCircle
 10
7389.230462030228
 20
3929.41615655005
 30
0.0
 40
2.5
100
AcDbArc
 50
180.0
 51
270.0
  0
ARC
  5
41D4
330
1F
100
AcDbEntity
  8
Rüttler
100
AcDbCircle
 10
7379.230462030228
 20
3929.41615655005
 30
0.0
 40
2.5
100
AcDbArc
 50
270.0
 51
0.0
  0
LINE
  5
41D5
330
1F
100
AcDbEntity
  8
Rüttler
100
AcDbLine
 10
7449.230462030228
 20
3926.916156550051
 30
0.0
 11
7454.205396102267
 21
3926.916156550051
 31
0.0
  0
LINE
  5
41D6
330
1F
100
AcDbEntity
  8
Rüttler
100
AcDbLine
 10
7429.230462030227
 20
3926.916156550049
 30
0.0
 11
7439.230462030228
 21
3926.916156550049
 31
0.0
  0
LINE
  5
41D7
330
1F
100
AcDbEntity
  8
Rüttler
100
AcDbLine
 10
7409.230462030227
 20
3926.916156550051
 30
0.0
 11
7419.230462030228
 21
3926.916156550049
 31
0.0
  0
LINE
  5
41D8
330
1F
100
AcDbEntity
  8
Rüttler
100
AcDbLine
 10
7389.230462030228
 20
3926.916156550049
 30
0.0
 11
7399.230462030228
 21
3926.916156550049
 31
0.0
  0
ARC
  5
41D9
330
1F
100
AcDbEntity
  8
Rüttler
100
AcDbCircle
 10
7372.730462030228
 20
3929.41615655005
 30
0.0
 40
2.5
100
AcDbArc
 50
180.0
 51
270.0
  0
ARC
  5
41DA
330
1F
100
AcDbEntity
  8
Rüttler
100
AcDbCircle
 10
7355.730462030227
 20
3929.41615655005
 30
0.0
 40
2.5
100
AcDbArc
 50
270.0
 51
0.0
  0
ARC
  5
41DB
330
1F
100
AcDbEntity
  8
Rüttler
100
AcDbCircle
 10
7349.230462030227
 20
3929.41615655005
 30
0.0
 40
2.5
100
AcDbArc
 50
180.0
 51
270.0
  0
ARC
  5
41DC
330
1F
100
AcDbEntity
  8
Rüttler
100
AcDbCircle
 10
7339.230462030228
 20
3929.41615655005
 30
0.0
 40
2.5
100
AcDbArc
 50
270.0
 51
0.0
  0
ARC
  5
41DD
330
1F
100
AcDbEntity
  8
Rüttler
100
AcDbCircle
 10
7329.230462030228
 20
3929.41615655005
 30
0.0
 40
2.5
100
AcDbArc
 50
180.0
 51
270.0
  0
ARC
  5
41DE
330
1F
100
AcDbEntity
  8
Rüttler
100
AcDbCircle
 10
7319.230462030228
 20
3929.41615655005
 30
0.0
 40
2.5
100
AcDbArc
 50
270.0
 51
0.0
  0
ARC
  5
41DF
330
1F
100
AcDbEntity
  8
Rüttler
100
AcDbCircle
 10
7309.230462030227
 20
3929.41615655005
 30
0.0
 40
2.5
100
AcDbArc
 50
180.0
 51
270.0
  0
ARC
  5
41E0
330
1F
100
AcDbEntity
  8
Rüttler
100
AcDbCircle
 10
7299.230462030227
 20
3929.41615655005
 30
0.0
 40
2.5
100
AcDbArc
 50
270.0
 51
0.0
  0
ARC
  5
41E1
330
1F
100
AcDbEntity
  8
Rüttler
100
AcDbCircle
 10
7289.230462030229
 20
3929.41615655005
 30
0.0
 40
2.5
100
AcDbArc
 50
180.0
 51
270.0
  0
ARC
  5
41E2
330
1F
100
AcDbEntity
  8
Rüttler
100
AcDbCircle
 10
7279.230462030227
 20
3929.41615655005
 30
0.0
 40
2.5
100
AcDbArc
 50
270.0
 51
0.0
  0
LINE
  5
41E3
330
1F
100
AcDbEntity
  8
Rüttler
100
AcDbLine
 10
7372.730462030228
 20
3926.916156550049
 30
0.0
 11
7379.230462030228
 21
3926.916156550049
 31
0.0
  0
LINE
  5
41E4
330
1F
100
AcDbEntity
  8
Rüttler
100
AcDbLine
 10
7349.230462030227
 20
3926.916156550049
 30
0.0
 11
7355.730462030227
 21
3926.916156550049
 31
0.0
  0
LINE
  5
41E5
330
1F
100
AcDbEntity
  8
Rüttler
100
AcDbLine
 10
7309.230462030227
 20
3926.916156550049
 30
0.0
 11
7319.230462030228
 21
3926.916156550049
 31
0.0
  0
LINE
  5
41E6
330
1F
100
AcDbEntity
  8
Rüttler
100
AcDbLine
 10
7329.230462030228
 20
3926.916156550049
 30
0.0
 11
7339.230462030228
 21
3926.916156550049
 31
0.0
  0
LINE
  5
41E7
330
1F
100
AcDbEntity
  8
Rüttler
100
AcDbLine
 10
7289.230462030229
 20
3926.916156550049
 30
0.0
 11
7299.230462030227
 21
3926.916156550049
 31
0.0
  0
LINE
  5
41E8
330
1F
100
AcDbEntity
  8
ACHSEN
 48
5.0
100
AcDbLine
 10
7466.874447532659
 20
3861.416156550051
 30
0.0
 11
7484.586476527796
 21
3861.416156550051
 31
0.0
  0
ARC
  5
41E9
330
1F
100
AcDbEntity
  8
Rüttler
100
AcDbCircle
 10
7439.245935412405
 20
3892.445550986499
 30
0.0
 40
2.5
100
AcDbArc
 50
266.167474393967
 51
353.6220001185462
  0
ARC
  5
41EA
330
1F
100
AcDbEntity
  8
Rüttler
100
AcDbCircle
 10
7440.230462030227
 20
3892.378560854931
 30
0.0
 40
2.5
100
AcDbArc
 50
266.167474393967
 51
0.0
  0
ARC
  5
41EB
330
1F
100
AcDbEntity
  8
Rüttler
100
AcDbCircle
 10
7449.230462030228
 20
3891.727972734596
 30
0.0
 40
2.5
100
AcDbArc
 50
180.0
 51
260.684705397182
  0
ARC
  5
41EC
330
1F
100
AcDbEntity
  8
Rüttler
100
AcDbCircle
 10
7448.230462030227
 20
3891.850856489968
 30
0.0
 40
2.5
100
AcDbArc
 50
180.0
 51
265.3040967102381
  0
LINE
  5
41ED
330
1F
100
AcDbEntity
  8
Rüttler
100
AcDbLine
 10
7381.730462030228
 20
3905.91615655005
 30
0.0
 11
7381.930462030229
 21
3905.91615655005
 31
0.0
  0
LINE
  5
41EE
330
1F
100
AcDbEntity
  8
Rüttler
100
AcDbLine
 10
7461.132033500291
 20
3848.916156550051
 30
0.0
 11
7461.230462030228
 21
3848.916156550051
 31
0.0
  0
ARC
  5
41EF
330
1F
100
AcDbEntity
  8
Rüttler
100
AcDbCircle
 10
7461.132033500291
 20
3850.91615655005
 30
0.0
 40
2.0
100
AcDbArc
 50
183.8325256060589
 51
270.0
  0
ARC
  5
41F0
330
1F
100
AcDbEntity
  8
Rüttler
100
AcDbCircle
 10
7461.230462030228
 20
3850.91615655005
 30
0.0
 40
2.0
100
AcDbArc
 50
270.0
 51
0.0
  0
LINE
  5
41F1
330
1F
100
AcDbEntity
  8
Rüttler
100
AcDbLine
 10
7383.830462030228
 20
3954.91615655005
 30
0.0
 11
7384.630462030229
 21
3954.91615655005
 31
0.0
  0
ARC
  5
41F2
330
1F
100
AcDbEntity
  8
Rüttler
100
AcDbCircle
 10
7383.830462030228
 20
3952.81615655005
 30
0.0
 40
2.1
100
AcDbArc
 50
90.0
 51
180.0
  0
ARC
  5
41F3
330
1F
100
AcDbEntity
  8
Rüttler
100
AcDbCircle
 10
7384.630462030229
 20
3952.81615655005
 30
0.0
 40
2.1
100
AcDbArc
 50
0.0
 51
90.0
  0
LINE
  5
41F4
330
1F
100
AcDbEntity
  8
Rüttler
100
AcDbLine
 10
7343.830462030227
 20
3954.91615655005
 30
0.0
 11
7344.630462030228
 21
3954.91615655005
 31
0.0
  0
LINE
  5
41F5
330
1F
100
AcDbEntity
  8
Rüttler
100
AcDbLine
 10
7344.130462030229
 20
3953.81615655005
 30
0.0
 11
7344.330462030228
 21
3953.81615655005
 31
0.0
  0
ARC
  5
41F6
330
1F
100
AcDbEntity
  8
Rüttler
100
AcDbCircle
 10
7343.830462030227
 20
3952.81615655005
 30
0.0
 40
2.1
100
AcDbArc
 50
90.0
 51
180.0
  0
ARC
  5
41F7
330
1F
100
AcDbEntity
  8
Rüttler
100
AcDbCircle
 10
7344.630462030228
 20
3952.81615655005
 30
0.0
 40
2.1
100
AcDbArc
 50
0.0
 51
90.0
  0
LINE
  5
41F8
330
1F
100
AcDbEntity
  8
ACHSEN
 48
5.0
100
AcDbLine
 10
7442.372463435531
 20
3874.558157955353
 30
0.0
 11
7451.786990481668
 21
3883.97268500149
 31
0.0
  0
ARC
  5
41F9
330
1F
100
AcDbEntity
  8
ACHSEN
 48
5.0
100
AcDbCircle
 10
7409.730462030228
 20
3841.91615655005
 30
0.0
 40
53.0
100
AcDbArc
 50
36.40276033058442
 51
52.91556523696144
  0
ARC
  5
41FA
330
1F
100
AcDbEntity
  8
ACHSEN
 48
5.0
100
AcDbCircle
 10
7409.730462030228
 20
3841.91615655005
 30
0.0
 40
53.0
100
AcDbArc
 50
127.7202812224739
 51
142.5336182170923
  0
LINE
  5
41FB
330
1F
100
AcDbEntity
  8
ACHSEN
 48
5.0
100
AcDbLine
 10
7376.534624331217
 20
3875.111994249062
 30
0.0
 11
7367.117544501628
 21
3884.529074078652
 31
0.0
  0
LINE
  5
41FE
330
1F
100
AcDbEntity
  8
ACHSEN
 48
10.0
100
AcDbLine
 10
7424.230462030227
 20
3935.127094369286
 30
0.0
 11
7424.230462030227
 21
3994.705218730814
 31
0.0
  0
LINE
  5
4200
330
1F
100
AcDbEntity
  8
Rüttler
100
AcDbLine
 10
7459.730462030228
 20
3841.91615655005
 30
0.0
 11
7457.145854794252
 21
3880.498066682952
 31
0.0
  0
ARC
  5
4201
330
1F
100
AcDbEntity
  8
Rüttler
100
AcDbCircle
 10
7447.207121433115
 20
3879.392815952937
 30
0.0
 40
10.0
100
AcDbArc
 50
1.319466609917719
 51
88.68053339005652
  0
LINE
  5
4202
330
1F
100
AcDbEntity
  8
Rüttler
100
AcDbLine
 10
7359.730462030228
 20
3841.91615655005
 30
0.0
 11
7362.315069266202
 21
3880.498066682952
 31
0.0
  0
LINE
  5
4203
330
1F
100
AcDbEntity
  8
Rüttler
100
AcDbLine
 10
7409.563361231987
 20
3891.904962445381
 30
0.0
 11
7408.397562831597
 21
3891.826865457366
 31
0.0
  0
ARC
  5
4204
330
1F
100
AcDbEntity
  8
Rüttler
100
AcDbCircle
 10
7372.253802627341
 20
3879.392815952937
 30
0.0
 40
10.0
100
AcDbArc
 50
91.31946660994348
 51
178.6805333900822
  0
LINE
  5
4205
330
1F
100
AcDbEntity
  8
ACHSEN
 48
15.0
100
AcDbLine
 10
7409.730462030228
 20
3780.283109017348
 30
0.0
 11
7409.730462030228
 21
3903.549204082752
 31
0.0
  0
LINE
  5
4206
330
1F
100
AcDbEntity
  8
Rüttler
100
AcDbLine
 10
7444.230462030228
 20
3922.216156550049
 30
0.0
 11
7444.230462030228
 21
3922.216156550049
 31
0.0
  0
ARC
  5
4207
330
1F
100
AcDbEntity
  8
Rüttler
100
AcDbCircle
 10
7324.63046203023
 20
3932.816156550051
 30
0.0
 40
2.1
100
AcDbArc
 50
0.0
 51
90.0
  0
ARC
  5
4208
330
1F
100
AcDbEntity
  8
Rüttler
100
AcDbCircle
 10
7323.830462030229
 20
3932.816156550051
 30
0.0
 40
2.1
100
AcDbArc
 50
90.0
 51
180.0
  0
ARC
  5
4209
330
1F
100
AcDbEntity
  8
Rüttler
100
AcDbCircle
 10
7304.630462030229
 20
3932.816156550051
 30
0.0
 40
2.1
100
AcDbArc
 50
0.0
 51
90.0
  0
ARC
  5
420A
330
1F
100
AcDbEntity
  8
Rüttler
100
AcDbCircle
 10
7303.830462030228
 20
3932.816156550051
 30
0.0
 40
2.1
100
AcDbArc
 50
90.0
 51
180.0
  0
ARC
  5
420B
330
1F
100
AcDbEntity
  8
Rüttler
100
AcDbCircle
 10
7283.830462030228
 20
3932.816156550051
 30
0.0
 40
2.1
100
AcDbArc
 50
90.0
 51
180.0
  0
ARC
  5
420C
330
1F
100
AcDbEntity
  8
Rüttler
100
AcDbCircle
 10
7284.630462030229
 20
3932.816156550051
 30
0.0
 40
2.1
100
AcDbArc
 50
0.0
 51
90.0
  0
ARC
  5
420D
330
1F
100
AcDbEntity
  8
Rüttler
100
AcDbCircle
 10
7284.13046203023
 20
3932.416156550049
 30
0.0
 40
1.399999999999999
100
AcDbArc
 50
90.0
 51
180.0
  0
ARC
  5
420E
330
1F
100
AcDbEntity
  8
Rüttler
100
AcDbCircle
 10
7284.330462030228
 20
3932.416156550049
 30
0.0
 40
1.399999999999999
100
AcDbArc
 50
0.0
 51
90.0
  0
ARC
  5
420F
330
1F
100
AcDbEntity
  8
Rüttler
100
AcDbCircle
 10
7324.330462030228
 20
3932.416156550049
 30
0.0
 40
1.399999999999999
100
AcDbArc
 50
0.0
 51
90.0
  0
ARC
  5
4210
330
1F
100
AcDbEntity
  8
Rüttler
100
AcDbCircle
 10
7324.130462030229
 20
3932.416156550049
 30
0.0
 40
1.399999999999999
100
AcDbArc
 50
90.0
 51
180.0
  0
ARC
  5
4211
330
1F
100
AcDbEntity
  8
Rüttler
100
AcDbCircle
 10
7304.330462030228
 20
3932.416156550049
 30
0.0
 40
1.399999999999999
100
AcDbArc
 50
0.0
 51
90.0
  0
ARC
  5
4212
330
1F
100
AcDbEntity
  8
Rüttler
100
AcDbCircle
 10
7304.130462030228
 20
3932.416156550049
 30
0.0
 40
1.399999999999999
100
AcDbArc
 50
90.0
 51
180.0
  0
LINE
  5
4213
330
1F
100
AcDbEntity
  8
Rüttler
100
AcDbLine
 10
7304.130462030228
 20
3933.81615655005
 30
0.0
 11
7304.330462030228
 21
3933.81615655005
 31
0.0
  0
LINE
  5
4214
330
1F
100
AcDbEntity
  8
Rüttler
100
AcDbLine
 10
7303.830462030228
 20
3934.91615655005
 30
0.0
 11
7304.630462030229
 21
3934.91615655005
 31
0.0
  0
LINE
  5
4215
330
1F
100
AcDbEntity
  8
Rüttler
100
AcDbLine
 10
7324.130462030229
 20
3933.81615655005
 30
0.0
 11
7324.330462030228
 21
3933.81615655005
 31
0.0
  0
LINE
  5
4216
330
1F
100
AcDbEntity
  8
Rüttler
100
AcDbLine
 10
7323.830462030229
 20
3934.91615655005
 30
0.0
 11
7324.63046203023
 21
3934.91615655005
 31
0.0
  0
ARC
  5
4217
330
1F
100
AcDbEntity
  8
Rüttler
100
AcDbCircle
 10
7444.530462030228
 20
3932.71615655005
 30
0.0
 40
2.2
100
AcDbArc
 50
0.0
 51
90.0
  0
ARC
  5
4218
330
1F
100
AcDbEntity
  8
Rüttler
100
AcDbCircle
 10
7443.930462030228
 20
3932.71615655005
 30
0.0
 40
2.2
100
AcDbArc
 50
90.0
 51
180.0
  0
ARC
  5
4219
330
1F
100
AcDbEntity
  8
Rüttler
100
AcDbCircle
 10
7424.530462030229
 20
3932.71615655005
 30
0.0
 40
2.2
100
AcDbArc
 50
0.0
 51
90.0
  0
ARC
  5
421A
330
1F
100
AcDbEntity
  8
Rüttler
100
AcDbCircle
 10
7423.930462030227
 20
3932.71615655005
 30
0.0
 40
2.2
100
AcDbArc
 50
90.0
 51
180.0
  0
ARC
  5
421B
330
1F
100
AcDbEntity
  8
Rüttler
100
AcDbCircle
 10
7404.530462030229
 20
3932.71615655005
 30
0.0
 40
2.2
100
AcDbArc
 50
0.0
 51
90.0
  0
ARC
  5
421C
330
1F
100
AcDbEntity
  8
Rüttler
100
AcDbCircle
 10
7403.930462030229
 20
3932.71615655005
 30
0.0
 40
2.2
100
AcDbArc
 50
90.0
 51
180.0
  0
ARC
  5
421D
330
1F
100
AcDbEntity
  8
Rüttler
100
AcDbCircle
 10
7424.280462030229
 20
3932.36615655005
 30
0.0
 40
1.45
100
AcDbArc
 50
0.0
 51
90.0
  0
ARC
  5
421E
330
1F
100
AcDbEntity
  8
Rüttler
100
AcDbCircle
 10
7444.230462030228
 20
3932.31615655005
 30
0.0
 40
1.5
100
AcDbArc
 50
0.0
 51
90.0
  0
ARC
  5
421F
330
1F
100
AcDbEntity
  8
Rüttler
100
AcDbCircle
 10
7444.230462030228
 20
3932.31615655005
 30
0.0
 40
1.5
100
AcDbArc
 50
90.0
 51
180.0
  0
ARC
  5
4220
330
1F
100
AcDbEntity
  8
Rüttler
100
AcDbCircle
 10
7424.230462030227
 20
3932.31615655005
 30
0.0
 40
1.5
100
AcDbArc
 50
90.0
 51
180.0
  0
ARC
  5
4221
330
1F
100
AcDbEntity
  8
Rüttler
100
AcDbCircle
 10
7404.230462030227
 20
3932.31615655005
 30
0.0
 40
1.5
100
AcDbArc
 50
0.0
 51
90.0
  0
ARC
  5
4222
330
1F
100
AcDbEntity
  8
Rüttler
100
AcDbCircle
 10
7404.230462030227
 20
3932.31615655005
 30
0.0
 40
1.5
100
AcDbArc
 50
90.0
 51
180.0
  0
LINE
  5
4223
330
1F
100
AcDbEntity
  8
Rüttler
100
AcDbLine
 10
7404.230462030227
 20
3933.81615655005
 30
0.0
 11
7404.230462030227
 21
3933.81615655005
 31
0.0
  0
LINE
  5
4224
330
1F
100
AcDbEntity
  8
Rüttler
100
AcDbLine
 10
7403.930462030229
 20
3934.91615655005
 30
0.0
 11
7404.530462030229
 21
3934.91615655005
 31
0.0
  0
LINE
  5
4225
330
1F
100
AcDbEntity
  8
Rüttler
100
AcDbLine
 10
7423.930462030227
 20
3934.91615655005
 30
0.0
 11
7424.530462030229
 21
3934.91615655005
 31
0.0
  0
LINE
  5
4226
330
1F
100
AcDbEntity
  8
Rüttler
100
AcDbLine
 10
7424.230462030227
 20
3933.81615655005
 30
0.0
 11
7424.280462030229
 21
3933.81615655005
 31
0.0
  0
LINE
  5
4227
330
1F
100
AcDbEntity
  8
Rüttler
100
AcDbLine
 10
7444.230462030228
 20
3933.81615655005
 30
0.0
 11
7444.230462030228
 21
3933.81615655005
 31
0.0
  0
LINE
  5
4228
330
1F
100
AcDbEntity
  8
Rüttler
100
AcDbLine
 10
7443.930462030228
 20
3934.91615655005
 30
0.0
 11
7444.530462030228
 21
3934.91615655005
 31
0.0
  0
LINE
  5
4229
330
1F
100
AcDbEntity
  8
Rüttler
100
AcDbLine
 10
7284.13046203023
 20
3933.81615655005
 30
0.0
 11
7284.330462030228
 21
3933.81615655005
 31
0.0
  0
LINE
  5
422A
330
1F
100
AcDbEntity
  8
Rüttler
100
AcDbLine
 10
7358.230462030228
 20
3906.91615655005
 30
0.0
 11
7370.230462030227
 21
3906.91615655005
 31
0.0
  0
LINE
  5
422B
330
1F
100
AcDbEntity
  8
Rüttler
100
AcDbLine
 10
7283.830462030228
 20
3934.91615655005
 30
0.0
 11
7284.630462030229
 21
3934.91615655005
 31
0.0
  0
ARC
  5
422C
330
1F
100
AcDbEntity
  8
Rüttler
100
AcDbCircle
 10
7315.230462030227
 20
3941.91615655005
 30
0.0
 40
50.0
100
AcDbArc
 50
90.0
 51
180.0
  0
ARC
  5
422D
330
1F
100
AcDbEntity
  8
Rüttler
100
AcDbCircle
 10
7413.230462030227
 20
3941.91615655005
 30
0.0
 40
50.0
100
AcDbArc
 50
0.0
 51
90.0
  0
LINE
  5
422E
330
1F
100
AcDbEntity
  8
ACHSEN
 48
10.0
100
AcDbLine
 10
7274.441399849464
 20
3964.916156550049
 30
0.0
 11
7334.019524210991
 21
3964.916156550049
 31
0.0
  0
ARC
  5
422F
330
1F
100
AcDbEntity
  8
Rüttler
100
AcDbCircle
 10
7396.629441515793
 20
3989.416156550049
 30
0.0
 40
2.5
100
AcDbArc
 50
90.0
 51
168.4630409671972
  0
ARC
  5
4230
330
1F
100
AcDbEntity
  8
Rüttler
100
AcDbCircle
 10
7391.730462030228
 20
3990.41615655005
 30
0.0
 40
2.5
100
AcDbArc
 50
270.0
 51
348.4630409671972
  0
ARC
  5
4231
330
1F
100
AcDbEntity
  8
Rüttler
100
AcDbCircle
 10
7331.831482544662
 20
3989.416156550049
 30
0.0
 40
2.5
100
AcDbArc
 50
11.53695903280276
 51
90.0
  0
ARC
  5
4232
330
1F
100
AcDbEntity
  8
Rüttler
100
AcDbCircle
 10
7336.730462030228
 20
3990.41615655005
 30
0.0
 40
2.5
100
AcDbArc
 50
191.5369590328027
 51
270.0
  0
CIRCLE
  5
4233
330
1F
100
AcDbEntity
  8
Rüttler
100
AcDbCircle
 10
7424.230462030227
 20
3964.916156550049
 30
0.0
 40
13.5
  0
CIRCLE
  5
4234
330
1F
100
AcDbEntity
  8
Rüttler
100
AcDbCircle
 10
7424.230462030227
 20
3964.916156550049
 30
0.0
 40
22.5
  0
CIRCLE
  5
4235
330
1F
100
AcDbEntity
  8
Rüttler
100
AcDbCircle
 10
7304.230462030227
 20
3964.916156550049
 30
0.0
 40
22.5
  0
CIRCLE
  5
4236
330
1F
100
AcDbEntity
  8
Rüttler
100
AcDbCircle
 10
7304.230462030227
 20
3964.916156550049
 30
0.0
 40
13.5
  0
LINE
  5
4237
330
1F
100
AcDbEntity
  8
Rüttler
100
AcDbLine
 10
7396.629441515793
 20
3991.91615655005
 30
0.0
 11
7413.230462030227
 21
3991.91615655005
 31
0.0
  0
LINE
  5
4238
330
1F
100
AcDbEntity
  8
Rüttler
100
AcDbLine
 10
7336.730462030228
 20
3987.91615655005
 30
0.0
 11
7391.730462030228
 21
3987.91615655005
 31
0.0
  0
LINE
  5
4239
330
1F
100
AcDbEntity
  8
Rüttler
100
AcDbLine
 10
7315.230462030227
 20
3991.91615655005
 30
0.0
 11
7331.831482544662
 21
3991.91615655005
 31
0.0
  0
LINE
  5
423A
330
1F
100
AcDbEntity
  8
Rüttler
100
AcDbLine
 10
7370.230462030227
 20
3906.91615655005
 30
0.0
 11
7370.230462030227
 21
3987.91615655005
 31
0.0
  0
LINE
  5
423B
330
1F
100
AcDbEntity
  8
Rüttler
100
AcDbLine
 10
7358.230462030228
 20
3906.91615655005
 30
0.0
 11
7358.230462030228
 21
3987.91615655005
 31
0.0
  0
LINE
  5
423C
330
1F
100
AcDbEntity
  8
Rüttler
100
AcDbLine
 10
7281.730462030228
 20
3841.91615655005
 30
0.0
 11
7281.730462030228
 21
3932.816156550051
 31
0.0
  0
LINE
  5
423D
330
1F
100
AcDbEntity
  8
Rüttler
100
AcDbLine
 10
7286.730462030227
 20
3841.91615655005
 30
0.0
 11
7286.730462030227
 21
3932.816156550051
 31
0.0
  0
LINE
  5
423E
330
1F
100
AcDbEntity
  8
Rüttler
100
AcDbLine
 10
7301.73046203023
 20
3841.91615655005
 30
0.0
 11
7301.730462030228
 21
3932.816156550051
 31
0.0
  0
LINE
  5
423F
330
1F
100
AcDbEntity
  8
Rüttler
100
AcDbLine
 10
7306.730462030228
 20
3841.91615655005
 30
0.0
 11
7306.730462030228
 21
3932.816156550051
 31
0.0
  0
LINE
  5
4240
330
1F
100
AcDbEntity
  8
Rüttler
100
AcDbLine
 10
7321.730462030227
 20
3841.91615655005
 30
0.0
 11
7321.730462030227
 21
3932.816156550051
 31
0.0
  0
LINE
  5
4241
330
1F
100
AcDbEntity
  8
Rüttler
100
AcDbLine
 10
7326.730462030228
 20
3841.91615655005
 30
0.0
 11
7326.730462030228
 21
3932.816156550051
 31
0.0
  0
LINE
  5
4242
330
1F
100
AcDbEntity
  8
Rüttler
100
AcDbLine
 10
7341.730462030227
 20
3841.91615655005
 30
0.0
 11
7341.730462030227
 21
3952.81615655005
 31
0.0
  0
LINE
  5
4243
330
1F
100
AcDbEntity
  8
Rüttler
100
AcDbLine
 10
7346.730462030227
 20
3841.91615655005
 30
0.0
 11
7346.730462030227
 21
3952.81615655005
 31
0.0
  0
LINE
  5
4244
330
1F
100
AcDbEntity
  8
Rüttler
100
AcDbLine
 10
7381.730462030228
 20
3892.378560854931
 30
0.0
 11
7381.730462030228
 21
3952.81615655005
 31
0.0
  0
LINE
  5
4245
330
1F
100
AcDbEntity
  8
Rüttler
100
AcDbLine
 10
7386.730462030228
 20
3893.048462170617
 30
0.0
 11
7386.730462030228
 21
3952.81615655005
 31
0.0
  0
LINE
  5
4246
330
1F
100
AcDbEntity
  8
Rüttler
100
AcDbLine
 10
7401.730462030228
 20
3893.718363486305
 30
0.0
 11
7401.730462030228
 21
3932.71615655005
 31
0.0
  0
LINE
  5
4247
330
1F
100
AcDbEntity
  8
Rüttler
100
AcDbLine
 10
7406.730462030228
 20
3894.455254933784
 30
0.0
 11
7406.730462030228
 21
3932.71615655005
 31
0.0
  0
LINE
  5
4248
330
1F
100
AcDbEntity
  8
Rüttler
100
AcDbLine
 10
7421.730462030227
 20
3893.785353617921
 30
0.0
 11
7421.730462030227
 21
3932.71615655005
 31
0.0
  0
LINE
  5
4249
330
1F
100
AcDbEntity
  8
Rüttler
100
AcDbLine
 10
7426.730462030228
 20
3893.115452302186
 30
0.0
 11
7426.730462030228
 21
3932.71615655005
 31
0.0
  0
LINE
  5
424A
330
1F
100
AcDbEntity
  8
Rüttler
100
AcDbLine
 10
7446.730462030227
 20
3891.727972734596
 30
0.0
 11
7446.730462030227
 21
3932.71615655005
 31
0.0
  0
LINE
  5
424B
330
1F
100
AcDbEntity
  8
Rüttler
100
AcDbLine
 10
7441.730462030228
 20
3892.167832630365
 30
0.0
 11
7441.730462030228
 21
3932.71615655005
 31
0.0
  0
LINE
  5
424C
330
1F
100
AcDbEntity
  8
Rüttler
100
AcDbLine
 10
7467.730462030228
 20
3841.91615655005
 30
0.0
 11
7467.730462030228
 21
3956.91615655005
 31
0.0
  0
LINE
  5
424D
330
1F
100
AcDbEntity
  8
Rüttler
100
AcDbLine
 10
7463.230462030228
 20
3850.91615655005
 30
0.0
 11
7463.230462030228
 21
3913.91615655005
 31
0.0
  0
LINE
  5
424E
330
1F
100
AcDbEntity
  8
Rüttler
100
AcDbLine
 10
7265.230462030228
 20
3841.91615655005
 30
0.0
 11
7265.230462030228
 21
3913.91615655005
 31
0.0
  0
LINE
  5
424F
330
1F
100
AcDbEntity
  8
Rüttler
100
AcDbLine
 10
7382.730462030227
 20
3892.445550986499
 30
0.0
 11
7382.730462030227
 21
3954.605010932051
 31
0.0
  0
LINE
  5
4250
330
1F
100
AcDbEntity
  8
Rüttler
100
AcDbLine
 10
7385.730462030227
 20
3892.981472039048
 30
0.0
 11
7385.730462030227
 21
3954.60501093205
 31
0.0
  0
LINE
  5
4251
330
1F
100
AcDbEntity
  8
Rüttler
100
AcDbLine
 10
7402.730462030227
 20
3893.785353617873
 30
0.0
 11
7402.730462030227
 21
3932.31615655005
 31
0.0
  0
LINE
  5
4252
330
1F
100
AcDbEntity
  8
Rüttler
100
AcDbLine
 10
7405.730462030227
 20
3894.321274670423
 30
0.0
 11
7405.730462030227
 21
3932.31615655005
 31
0.0
  0
LINE
  5
4253
330
1F
100
AcDbEntity
  8
Rüttler
100
AcDbLine
 10
7422.730462030227
 20
3893.718363486334
 30
0.0
 11
7422.730462030227
 21
3932.31615655005
 31
0.0
  0
LINE
  5
4254
330
1F
100
AcDbEntity
  8
Rüttler
100
AcDbLine
 10
7425.730462030228
 20
3893.182442433754
 30
0.0
 11
7425.730462030228
 21
3932.36615655005
 31
0.0
  0
LINE
  5
4255
330
1F
100
AcDbEntity
  8
Rüttler
100
AcDbLine
 10
7442.730462030228
 20
3892.378560854931
 30
0.0
 11
7442.730462030228
 21
3932.31615655005
 31
0.0
  0
LINE
  5
4256
330
1F
100
AcDbEntity
  8
Rüttler
100
AcDbLine
 10
7445.730462030228
 20
3891.850856489968
 30
0.0
 11
7445.730462030228
 21
3932.31615655005
 31
0.0
  0
LINE
  5
4257
330
1F
100
AcDbEntity
  8
Rüttler
100
AcDbLine
 10
7342.730462030228
 20
3841.91615655005
 30
0.0
 11
7342.730462030228
 21
3954.605010932049
 31
0.0
  0
LINE
  5
4258
330
1F
100
AcDbEntity
  8
Rüttler
100
AcDbLine
 10
7345.730462030228
 20
3841.91615655005
 30
0.0
 11
7345.730462030228
 21
3954.60501093205
 31
0.0
  0
LINE
  5
4259
330
1F
100
AcDbEntity
  8
Rüttler
100
AcDbLine
 10
7322.730462030228
 20
3841.91615655005
 30
0.0
 11
7322.730462030228
 21
3932.416156550049
 31
0.0
  0
LINE
  5
425A
330
1F
100
AcDbEntity
  8
Rüttler
100
AcDbLine
 10
7325.730462030228
 20
3841.91615655005
 30
0.0
 11
7325.730462030228
 21
3932.416156550049
 31
0.0
  0
LINE
  5
425B
330
1F
100
AcDbEntity
  8
Rüttler
100
AcDbLine
 10
7305.730462030227
 20
3841.91615655005
 30
0.0
 11
7305.730462030227
 21
3932.416156550049
 31
0.0
  0
LINE
  5
425C
330
1F
100
AcDbEntity
  8
Rüttler
100
AcDbLine
 10
7302.730462030227
 20
3841.91615655005
 30
0.0
 11
7302.730462030227
 21
3932.416156550049
 31
0.0
  0
LINE
  5
425D
330
1F
100
AcDbEntity
  8
Rüttler
100
AcDbLine
 10
7282.730462030227
 20
3841.91615655005
 30
0.0
 11
7282.730462030227
 21
3932.416156550049
 31
0.0
  0
LINE
  5
425E
330
1F
100
AcDbEntity
  8
Rüttler
100
AcDbLine
 10
7285.730462030227
 20
3841.91615655005
 30
0.0
 11
7285.730462030227
 21
3932.416156550049
 31
0.0
  0
LINE
  5
425F
330
1F
100
AcDbEntity
  8
Rüttler
100
AcDbLine
 10
7265.230462030228
 20
3913.91615655005
 30
0.0
 11
7265.230462030228
 21
3956.91615655005
 31
0.0
  0
LINE
  5
4260
330
1F
100
AcDbEntity
  8
Rüttler
100
AcDbLine
 10
7463.230462030228
 20
3913.91615655005
 30
0.0
 11
7463.230462030228
 21
3956.91615655005
 31
0.0
  0
LINE
  5
4264
330
1F
100
AcDbEntity
  8
ACHSEN
 48
10.0
100
AcDbLine
 10
7304.230462030227
 20
3935.127094369286
 30
0.0
 11
7304.230462030227
 21
3994.705218730814
 31
0.0
  0
LINE
  5
4265
330
1F
100
AcDbEntity
  8
Rüttler
100
AcDbLine
 10
7260.730462030227
 20
3841.91615655005
 30
0.0
 11
7260.730462030227
 21
3956.91615655005
 31
0.0
  0
LINE
  5
4266
330
1F
100
AcDbEntity
  8
Rüttler
100
AcDbLine
 10
7409.730462030228
 20
3891.91615655005
 30
0.0
 11
7448.312372163131
 21
3889.331549314075
 31
0.0
  0
LINE
  5
4267
330
1F
100
AcDbEntity
  8
Rüttler
100
AcDbLine
 10
7409.730462030228
 20
3891.91615655005
 30
0.0
 11
7371.148551897326
 21
3889.331549314075
 31
0.0
  0
ARC
  5
4268
330
1F
100
AcDbEntity
  8
Rüttler
100
AcDbCircle
 10
7379.230462030228
 20
3892.378560854931
 30
0.0
 40
2.5
100
AcDbArc
 50
273.8325256060329
 51
0.0
  0
ARC
  5
4269
330
1F
100
AcDbEntity
  8
Rüttler
100
AcDbCircle
 10
7380.230462030228
 20
3892.445550986499
 30
0.0
 40
2.5
100
AcDbArc
 50
273.8325256060329
 51
0.0
  0
ARC
  5
426A
330
1F
100
AcDbEntity
  8
Rüttler
100
AcDbCircle
 10
7389.230462030228
 20
3893.048462170617
 30
0.0
 40
2.5
100
AcDbArc
 50
180.0
 51
273.8325256060329
  0
ARC
  5
426B
330
1F
100
AcDbEntity
  8
Rüttler
100
AcDbCircle
 10
7388.230462030228
 20
3892.981472039048
 30
0.0
 40
2.5
100
AcDbArc
 50
180.0
 51
273.8325256060329
  0
ARC
  5
426C
330
1F
100
AcDbEntity
  8
Rüttler
100
AcDbCircle
 10
7399.230462030228
 20
3893.718363486305
 30
0.0
 40
2.5
100
AcDbArc
 50
273.8325256060329
 51
0.0
  0
ARC
  5
426D
330
1F
100
AcDbEntity
  8
Rüttler
100
AcDbCircle
 10
7400.230462030228
 20
3893.785353617873
 30
0.0
 40
2.5
100
AcDbArc
 50
273.8325256060329
 51
0.0
  0
ARC
  5
426E
330
1F
100
AcDbEntity
  8
Rüttler
100
AcDbCircle
 10
7408.230462030228
 20
3894.321274670423
 30
0.0
 40
2.5
100
AcDbArc
 50
180.0
 51
273.8325256060329
  0
ARC
  5
426F
330
1F
100
AcDbEntity
  8
Rüttler
100
AcDbCircle
 10
7409.730462033355
 20
3889.410553232324
 30
0.0
 40
2.5
100
AcDbArc
 50
86.16747439396705
 51
93.83252560603295
  0
ARC
  5
4270
330
1F
100
AcDbEntity
  8
Rüttler
100
AcDbCircle
 10
7419.230462030228
 20
3893.785353617921
 30
0.0
 40
2.5
100
AcDbArc
 50
266.1674743929227
 51
0.0
  0
ARC
  5
4271
330
1F
100
AcDbEntity
  8
Rüttler
100
AcDbCircle
 10
7420.230462030227
 20
3893.718363486334
 30
0.0
 40
2.5
100
AcDbArc
 50
266.1674743929227
 51
0.0
  0
ARC
  5
4272
330
1F
100
AcDbEntity
  8
Rüttler
100
AcDbCircle
 10
7429.230462030227
 20
3893.115452302186
 30
0.0
 40
2.5
100
AcDbArc
 50
180.0
 51
266.167474393967
  0
ARC
  5
4273
330
1F
100
AcDbEntity
  8
Rüttler
100
AcDbCircle
 10
7428.230462030227
 20
3893.182442433754
 30
0.0
 40
2.5
100
AcDbArc
 50
180.0
 51
266.167474393967
  0
ARC
  5
4274
330
1F
100
AcDbEntity
  8
Rüttler
100
AcDbCircle
 10
7409.230462030227
 20
3894.455254933784
 30
0.0
 40
2.5
100
AcDbArc
 50
180.0
 51
266.1674743929227
  0
LINE
  5
4275
330
1F
100
AcDbEntity
  8
ACHSEN
 48
15.0
100
AcDbLine
 10
7403.730462030228
 20
3781.844646379765
 30
0.0
 11
7403.730462030228
 21
3672.286818067719
 31
0.0
  0
LINE
  5
4276
330
1F
100
AcDbEntity
  8
ACHSEN
 48
5.0
100
AcDbLine
 10
7261.586476527796
 20
3822.416156550051
 30
0.0
 11
7243.874447532658
 21
3822.416156550051
 31
0.0
  0
ARC
  5
4277
330
1F
100
AcDbEntity
  8
Rüttler
100
AcDbCircle
 10
6580.730462030228
 20
3841.91615655005
 30
0.0
 40
1000.0
100
AcDbArc
 50
353.8369116885837
 51
6.163088311416228
  0
LINE
  5
4278
330
1F
100
AcDbEntity
  8
Rüttler
100
AcDbLine
 10
7467.730462030228
 20
3956.41615655005
 30
0.0
 11
7566.99703350064
 21
3956.41615655005
 31
0.0
  0
LINE
  5
4279
330
1F
100
AcDbEntity
  8
Rüttler
100
AcDbLine
 10
7467.730462030228
 20
3727.41615655005
 30
0.0
 11
7566.99703350064
 21
3727.41615655005
 31
0.0
  0
ARC
  5
427A
330
1F
100
AcDbEntity
  8
Rüttler
100
AcDbCircle
 10
7566.99703350064
 20
3735.416156550051
 30
0.0
 40
8.0
100
AcDbArc
 50
270.0
 51
353.8369116885837
  0
ARC
  5
427B
330
1F
100
AcDbEntity
  8
Rüttler
100
AcDbCircle
 10
7566.99703350064
 20
3948.416156550051
 30
0.0
 40
8.0
100
AcDbArc
 50
6.163088311416228
 51
90.0
  0
LINE
  5
427C
330
1F
100
AcDbEntity
  8
Rüttler
100
AcDbLine
 10
7463.230462030228
 20
3726.916156550051
 30
0.0
 11
7467.730462030228
 21
3726.916156550051
 31
0.0
  0
LINE
  5
427D
330
1F
100
AcDbEntity
  8
Rüttler
100
AcDbLine
 10
7463.230462030228
 20
3956.91615655005
 30
0.0
 11
7467.730462030228
 21
3956.91615655005
 31
0.0
  0
LINE
  5
427E
330
1F
100
AcDbEntity
  8
Rüttler
100
AcDbLine
 10
7260.730462030227
 20
3956.91615655005
 30
0.0
 11
7265.230462030228
 21
3956.91615655005
 31
0.0
  0
LINE
  5
427F
330
1F
100
AcDbEntity
  8
Rüttler
100
AcDbLine
 10
7260.730462030227
 20
3726.916156550051
 30
0.0
 11
7265.230462030228
 21
3726.916156550051
 31
0.0
  0
ARC
  5
428C
330
1F
100
AcDbEntity
  8
Rüttler
100
AcDbCircle
 10
7161.463890559817
 20
3948.416156550051
 30
0.0
 40
8.0
100
AcDbArc
 50
90.0
 51
173.8369116885837
  0
ARC
  5
428D
330
1F
100
AcDbEntity
  8
Rüttler
100
AcDbCircle
 10
7161.463890559817
 20
3735.416156550051
 30
0.0
 40
8.0
100
AcDbArc
 50
186.1630883114162
 51
270.0
  0
ARC
  5
428E
330
1F
100
AcDbEntity
  8
Rüttler
100
AcDbCircle
 10
8147.730462030228
 20
3841.91615655005
 30
0.0
 40
1000.0
100
AcDbArc
 50
173.8369116885837
 51
186.1630883114162
  0
LINE
  5
428F
330
1F
100
AcDbEntity
  8
Rüttler
100
AcDbLine
 10
7260.730462030227
 20
3727.41615655005
 30
0.0
 11
7161.463890559817
 21
3727.41615655005
 31
0.0
  0
LINE
  5
4290
330
1F
100
AcDbEntity
  8
Rüttler
100
AcDbLine
 10
7260.730462030227
 20
3956.41615655005
 30
0.0
 11
7161.463890559817
 21
3956.41615655005
 31
0.0
  0
ARC
  5
4291
330
1F
100
AcDbEntity
  8
Rüttler
100
AcDbCircle
 10
7928.098187013107
 20
4209.52937119156
 30
0.0
 40
115.0
100
AcDbArc
 50
90.0
 51
17.45634633777207
  0
ARC
  5
4292
330
1F
100
AcDbEntity
  8
Rüttler
100
AcDbCircle
 10
8055.61318019038
 20
4208.34155467836
 30
0.0
 40
20.0
100
AcDbArc
 50
2.000000000003928
 51
60.00000000000375
  0
LINE
  5
4293
330
1F
100
AcDbEntity
  8
Rüttler
100
AcDbLine
 10
8065.61318019038
 20
4225.662062754049
 30
0.0
 11
8038.641400873839
 21
4241.234226802978
 31
0.0
  0
CIRCLE
  5
4294
330
1F
100
AcDbEntity
  8
Rüttler
100
AcDbCircle
 10
8054.098187013106
 20
4204.529371191561
 30
0.0
 40
10.0
  0
LINE
  5
4295
330
1F
100
AcDbEntity
  8
ACHSEN
 48
10.0
100
AcDbLine
 10
8067.098187013106
 20
4204.529371191561
 30
0.0
 11
8041.098187013107
 21
4204.529371191561
 31
0.0
  0
LINE
  5
4296
330
1F
100
AcDbEntity
  8
ACHSEN
 48
10.0
100
AcDbLine
 10
8054.098187013106
 20
4217.529371191561
 30
0.0
 11
8054.098187013106
 21
4191.529371191561
 31
0.0
  0
LINE
  5
4297
330
1F
100
AcDbEntity
  8
Rüttler
100
AcDbLine
 10
8078.098187013107
 20
4137.52937119156
 30
0.0
 11
8075.600996730763
 21
4209.03954461241
 31
0.0
  0
LINE
  5
4298
330
1F
100
AcDbEntity
  8
AVERDECKTE
100
AcDbLine
 10
7822.500294814524
 20
4142.529371191561
 30
0.0
 11
7827.598187013106
 21
4142.529371191561
 31
0.0
  0
LINE
  5
44C0
330
1F
100
AcDbEntity
  8
Rüttler
100
AcDbLine
 10
7998.098187013106
 20
4323.029371191561
 30
0.0
 11
7994.098187013107
 21
4323.029371191561
 31
0.0
  0
LINE
  5
44C1
330
1F
100
AcDbEntity
  8
Rüttler
100
AcDbLine
 10
8000.098187013106
 20
4321.029371191561
 30
0.0
 11
8000.098187013106
 21
4299.200994350729
 31
0.0
  0
LINE
  5
44C2
330
1F
100
AcDbEntity
  8
Rüttler
100
AcDbLine
 10
8000.098187013106
 20
4308.029371191561
 30
0.0
 11
7992.098187013105
 21
4308.029371191561
 31
0.0
  0
ARC
  5
44C3
330
1F
100
AcDbEntity
  8
Rüttler
100
AcDbCircle
 10
7998.098187013106
 20
4321.029371191561
 30
0.0
 40
2.0
100
AcDbArc
 50
0.0
 51
90.0
  0
LINE
  5
44C4
330
1F
100
AcDbEntity
  8
Rüttler
100
AcDbLine
 10
7992.098187013105
 20
4321.029371191561
 30
0.0
 11
7992.098187013105
 21
4305.07517172722
 31
0.0
  0
ARC
  5
44C5
330
1F
100
AcDbEntity
  8
Rüttler
100
AcDbCircle
 10
7994.098187013107
 20
4321.029371191561
 30
0.0
 40
2.0
100
AcDbArc
 50
90.0
 51
180.0
  0
LINE
  5
44C6
330
1F
100
AcDbEntity
  8
Rüttler
100
AcDbLine
 10
8000.098187013106
 20
4320.52937119156
 30
0.0
 11
8036.928150049227
 21
4319.148247577706
 31
0.0
  0
LINE
  5
44C7
330
1F
100
AcDbEntity
  8
Rüttler
100
AcDbLine
 10
8004.269510330606
 20
4295.685795815966
 30
0.0
 11
8037.931814268848
 21
4296.948132213652
 31
0.0
  0
LINE
  5
44C8
330
1F
100
AcDbEntity
  8
Rüttler
100
AcDbLine
 10
8090.240123230556
 20
4315.029371191561
 30
0.0
 11
8038.117773410631
 21
4315.029371191561
 31
0.0
  0
LINE
  5
44C9
330
1F
100
AcDbEntity
  8
Rüttler
100
AcDbLine
 10
8093.193901547991
 20
4301.02937119156
 30
0.0
 11
8038.657225571308
 21
4301.02937119156
 31
0.0
  0
LINE
  5
44CA
330
1F
100
AcDbEntity
  8
Rüttler
100
AcDbLine
 10
8036.928150049227
 20
4319.148247577706
 30
0.0
 11
8036.928150049227
 21
4318.645077867425
 31
0.0
  0
LINE
  5
44CB
330
1F
100
AcDbEntity
  8
Rüttler
100
AcDbLine
 10
8036.928150049227
 20
4318.645077867425
 30
0.0
 11
8037.213487821714
 21
4317.504182031782
 31
0.0
  0
LINE
  5
44CC
330
1F
100
AcDbEntity
  8
Rüttler
100
AcDbLine
 10
8037.213487821714
 20
4317.504182031782
 30
0.0
 11
8037.784161534309
 21
4316.36328619614
 31
0.0
  0
LINE
  5
44CD
330
1F
100
AcDbEntity
  8
Rüttler
100
AcDbLine
 10
8037.784161534309
 20
4316.36328619614
 30
0.0
 11
8038.069499306796
 21
4315.222390360496
 31
0.0
  0
LINE
  5
44CE
330
1F
100
AcDbEntity
  8
Rüttler
100
AcDbLine
 10
8038.069499306796
 20
4315.222390360496
 30
0.0
 11
8038.354837079282
 21
4314.081495857316
 31
0.0
  0
LINE
  5
44CF
330
1F
100
AcDbEntity
  8
Rüttler
100
AcDbLine
 10
8038.354837079282
 20
4314.081495857316
 30
0.0
 11
8038.069499306796
 21
4312.940600021672
 31
0.0
  0
LINE
  5
44D0
330
1F
100
AcDbEntity
  8
Rüttler
100
AcDbLine
 10
8038.069499306796
 20
4312.940600021672
 30
0.0
 11
8037.784161534309
 21
4311.51448022712
 31
0.0
  0
LINE
  5
44D1
330
1F
100
AcDbEntity
  8
Rüttler
100
AcDbLine
 10
8037.784161534309
 20
4311.51448022712
 30
0.0
 11
8037.498823761822
 21
4310.373584391477
 31
0.0
  0
LINE
  5
44D2
330
1F
100
AcDbEntity
  8
Rüttler
100
AcDbLine
 10
8037.498823761822
 20
4310.373584391477
 30
0.0
 11
8037.498823761822
 21
4309.232688555835
 31
0.0
  0
LINE
  5
44D3
330
1F
100
AcDbEntity
  8
Rüttler
100
AcDbLine
 10
8037.498823761822
 20
4309.232688555835
 30
0.0
 11
8037.784161534309
 21
4308.09179272019
 31
0.0
  0
LINE
  5
44D4
330
1F
100
AcDbEntity
  8
Rüttler
100
AcDbLine
 10
8037.784161534309
 20
4308.09179272019
 30
0.0
 11
8037.784161534309
 21
4306.950896884548
 31
0.0
  0
LINE
  5
44D5
330
1F
100
AcDbEntity
  8
Rüttler
100
AcDbLine
 10
8037.784161534309
 20
4306.950896884548
 30
0.0
 11
8038.354837079282
 21
4305.810001048906
 31
0.0
  0
LINE
  5
44D6
330
1F
100
AcDbEntity
  8
Rüttler
100
AcDbLine
 10
8038.354837079282
 20
4305.810001048906
 30
0.0
 11
8038.640174851769
 21
4304.669105213263
 31
0.0
  0
LINE
  5
44D7
330
1F
100
AcDbEntity
  8
Rüttler
100
AcDbLine
 10
8038.640174851769
 20
4304.669105213263
 30
0.0
 11
8038.925510791877
 21
4303.24298675117
 31
0.0
  0
LINE
  5
44D8
330
1F
100
AcDbEntity
  8
Rüttler
100
AcDbLine
 10
8038.925510791877
 20
4303.24298675117
 30
0.0
 11
8038.925510791877
 21
4302.102090915528
 31
0.0
  0
LINE
  5
44D9
330
1F
100
AcDbEntity
  8
Rüttler
100
AcDbLine
 10
8038.925510791877
 20
4302.102090915528
 30
0.0
 11
8038.640174851769
 21
4300.961195079885
 31
0.0
  0
LINE
  5
44DA
330
1F
100
AcDbEntity
  8
Rüttler
100
AcDbLine
 10
8038.640174851769
 20
4300.961195079885
 30
0.0
 11
8038.069499306796
 21
4299.820299244243
 31
0.0
  0
LINE
  5
44DB
330
1F
100
AcDbEntity
  8
Rüttler
100
AcDbLine
 10
8038.069499306796
 20
4299.820299244243
 30
0.0
 11
8037.784161534309
 21
4298.679403408601
 31
0.0
  0
LINE
  5
44DC
330
1F
100
AcDbEntity
  8
Rüttler
100
AcDbLine
 10
8037.784161534309
 20
4298.679403408601
 30
0.0
 11
8037.784161534309
 21
4297.538507572956
 31
0.0
  0
LINE
  5
44DD
330
1F
100
AcDbEntity
  8
Rüttler
100
AcDbLine
 10
8037.784161534309
 20
4297.538507572956
 30
0.0
 11
8037.931814268848
 21
4296.948132213652
 31
0.0
  0
LINE
  5
44DE
330
1F
100
AcDbEntity
  8
Rüttler
100
AcDbLine
 10
8090.240123230556
 20
4315.029371191561
 30
0.0
 11
8090.2862438738
 21
4314.937166401586
 31
0.0
  0
LINE
  5
44DF
330
1F
100
AcDbEntity
  8
Rüttler
100
AcDbLine
 10
8090.2862438738
 20
4314.937166401586
 30
0.0
 11
8090.856919418772
 21
4313.796271898405
 31
0.0
  0
LINE
  5
44E0
330
1F
100
AcDbEntity
  8
Rüttler
100
AcDbLine
 10
8090.856919418772
 20
4313.796271898405
 30
0.0
 11
8091.427593131367
 21
4312.655376062762
 31
0.0
  0
LINE
  5
44E1
330
1F
100
AcDbEntity
  8
Rüttler
100
AcDbLine
 10
8091.427593131367
 20
4312.655376062762
 30
0.0
 11
8091.712930903852
 21
4311.51448022712
 31
0.0
  0
LINE
  5
44E2
330
1F
100
AcDbEntity
  8
Rüttler
100
AcDbLine
 10
8091.712930903852
 20
4311.51448022712
 30
0.0
 11
8091.427593131367
 21
4310.373584391477
 31
0.0
  0
LINE
  5
44E3
330
1F
100
AcDbEntity
  8
Rüttler
100
AcDbLine
 10
8091.427593131367
 20
4310.373584391477
 30
0.0
 11
8091.142257191258
 21
4309.232688555835
 31
0.0
  0
LINE
  5
44E4
330
1F
100
AcDbEntity
  8
Rüttler
100
AcDbLine
 10
8091.142257191258
 20
4309.232688555835
 30
0.0
 11
8091.142257191258
 21
4305.810001048906
 31
0.0
  0
LINE
  5
44E5
330
1F
100
AcDbEntity
  8
Rüttler
100
AcDbLine
 10
8091.142257191258
 20
4305.810001048906
 30
0.0
 11
8091.712930903852
 21
4304.669105213263
 31
0.0
  0
LINE
  5
44E6
330
1F
100
AcDbEntity
  8
Rüttler
100
AcDbLine
 10
8091.712930903852
 20
4304.669105213263
 30
0.0
 11
8092.56894422131
 21
4303.528209377621
 31
0.0
  0
LINE
  5
44E7
330
1F
100
AcDbEntity
  8
Rüttler
100
AcDbLine
 10
8092.56894422131
 20
4303.528209377621
 30
0.0
 11
8092.85428016142
 21
4302.387314874438
 31
0.0
  0
LINE
  5
44E8
330
1F
100
AcDbEntity
  8
Rüttler
100
AcDbLine
 10
8092.85428016142
 20
4302.387314874438
 30
0.0
 11
8093.193901547991
 21
4301.02937119156
 31
0.0
  0
LINE
  5
44E9
330
1F
100
AcDbEntity
  8
Rüttler
100
AcDbLine
 10
7878.098187013107
 20
4329.029371191561
 30
0.0
 11
7992.098187013105
 21
4329.029371191561
 31
0.0
  0
LINE
  5
44EA
330
1F
100
AcDbEntity
  8
Rüttler
100
AcDbLine
 10
7882.282859634054
 20
4339.029371191561
 30
0.0
 11
7988.098187013107
 21
4339.029371191561
 31
0.0
  0
ARC
  5
44EB
330
1F
100
AcDbEntity
  8
Rüttler
100
AcDbCircle
 10
7882.282859634054
 20
4335.029371191561
 30
0.0
 40
4.0
100
AcDbArc
 50
90.0
 51
178.5000000000101
  0
ARC
  5
44EC
330
1F
100
AcDbEntity
  8
Rüttler
100
AcDbCircle
 10
7988.098187013107
 20
4335.029371191561
 30
0.0
 40
4.0
100
AcDbArc
 50
0.0
 51
90.0
  0
CIRCLE
  5
4550
330
1F
100
AcDbEntity
  8
Rüttler
100
AcDbCircle
 10
7252.730462030227
 20
3841.91615655005
 30
0.0
 40
6.5
  0
LINE
  5
4551
330
1F
100
AcDbEntity
  8
Rüttler
100
AcDbLine
 10
7251.287086357253
 20
3844.916156550051
 30
0.0
 11
7254.173837703202
 21
3844.916156550051
 31
0.0
  0
LINE
  5
4552
330
1F
100
AcDbEntity
  8
Rüttler
100
AcDbLine
 10
7249.410697982388
 20
3842.16615655005
 30
0.0
 11
7250.854073655363
 21
3844.66615655005
 31
0.0
  0
LINE
  5
4553
330
1F
100
AcDbEntity
  8
Rüttler
100
AcDbLine
 10
7250.854073655363
 20
3839.16615655005
 30
0.0
 11
7249.410697982388
 21
3841.666156550051
 31
0.0
  0
LINE
  5
4554
330
1F
100
AcDbEntity
  8
Rüttler
100
AcDbLine
 10
7254.17383770441
 20
3838.91615655005
 30
0.0
 11
7251.287086357253
 21
3838.91615655005
 31
0.0
  0
LINE
  5
4555
330
1F
100
AcDbEntity
  8
Rüttler
100
AcDbLine
 10
7256.05022607807
 20
3841.666156546562
 30
0.0
 11
7254.606850406242
 21
3839.166156549945
 31
0.0
  0
LINE
  5
4556
330
1F
100
AcDbEntity
  8
Rüttler
100
AcDbLine
 10
7254.606850405095
 20
3844.66615655005
 30
0.0
 11
7256.05022607807
 21
3842.166156546562
 31
0.0
  0
ARC
  5
4557
330
1F
100
AcDbEntity
  8
Rüttler
100
AcDbCircle
 10
7251.287086357253
 20
3844.41615655005
 30
0.0
 40
0.5
100
AcDbArc
 50
90.0
 51
149.9999999999914
  0
ARC
  5
4558
330
1F
100
AcDbEntity
  8
Rüttler
100
AcDbCircle
 10
7254.173837703202
 20
3844.41615655005
 30
0.0
 40
0.5
100
AcDbArc
 50
30.00000000000856
 51
90.0
  0
ARC
  5
4559
330
1F
100
AcDbEntity
  8
Rüttler
100
AcDbCircle
 10
7255.617213376176
 20
3841.916156546562
 30
0.0
 40
0.5
100
AcDbArc
 50
329.9999999999914
 51
30.00000000000856
  0
ARC
  5
455A
330
1F
100
AcDbEntity
  8
Rüttler
100
AcDbCircle
 10
7254.17383770441
 20
3839.416156550051
 30
0.0
 40
0.5
100
AcDbArc
 50
270.0
 51
329.9999999861108
  0
ARC
  5
455B
330
1F
100
AcDbEntity
  8
Rüttler
100
AcDbCircle
 10
7251.287086357253
 20
3839.416156550051
 30
0.0
 40
0.5
100
AcDbArc
 50
210.0000000000085
 51
270.0
  0
ARC
  5
455C
330
1F
100
AcDbEntity
  8
Rüttler
100
AcDbCircle
 10
7249.84371068428
 20
3841.91615655005
 30
0.0
 40
0.5
100
AcDbArc
 50
149.9999999999914
 51
210.0000000000085
  0
CIRCLE
  5
455D
330
1F
100
AcDbEntity
  8
Rüttler
100
AcDbCircle
 10
7252.730462030227
 20
3841.91615655005
 30
0.0
 40
3.666343461697351
  0
CIRCLE
  5
455E
330
1F
100
AcDbEntity
  8
Rüttler
100
AcDbCircle
 10
7252.730462030227
 20
3822.416156550051
 30
0.0
 40
5.0
  0
LINE
  5
455F
330
1F
100
AcDbEntity
  8
Rüttler
100
AcDbLine
 10
7254.058367649147
 20
3824.916156550051
 30
0.0
 11
7251.402556411092
 21
3824.916156550051
 31
0.0
  0
LINE
  5
4560
330
1F
100
AcDbEntity
  8
Rüttler
100
AcDbLine
 10
7251.229351330336
 20
3824.81615655005
 30
0.0
 11
7249.901445711199
 21
3822.516156547834
 31
0.0
  0
LINE
  5
4561
330
1F
100
AcDbEntity
  8
Rüttler
100
AcDbLine
 10
7249.901445711199
 20
3822.316156547834
 30
0.0
 11
7251.229351330336
 21
3820.01615655005
 31
0.0
  0
LINE
  5
4562
330
1F
100
AcDbEntity
  8
Rüttler
100
AcDbLine
 10
7251.402556411092
 20
3819.916156550051
 30
0.0
 11
7254.058367649363
 21
3819.916156550051
 31
0.0
  0
LINE
  5
4563
330
1F
100
AcDbEntity
  8
Rüttler
100
AcDbLine
 10
7254.231572730121
 20
3820.01615655005
 30
0.0
 11
7255.559478349258
 21
3822.316156549339
 31
0.0
  0
LINE
  5
4564
330
1F
100
AcDbEntity
  8
Rüttler
100
AcDbLine
 10
7255.559478349258
 20
3822.516156549339
 30
0.0
 11
7254.23157272991
 21
3824.816156550039
 31
0.0
  0
ARC
  5
4565
330
1F
100
AcDbEntity
  8
Rüttler
100
AcDbCircle
 10
7251.402556411092
 20
3820.11615655005
 30
0.0
 40
0.2
100
AcDbArc
 50
210.0000000000085
 51
270.0
  0
ARC
  5
4566
330
1F
100
AcDbEntity
  8
Rüttler
100
AcDbCircle
 10
7254.058367649363
 20
3820.11615655005
 30
0.0
 40
0.2
100
AcDbArc
 50
270.0
 51
329.9999999999914
  0
ARC
  5
4567
330
1F
100
AcDbEntity
  8
Rüttler
100
AcDbCircle
 10
7255.386273268502
 20
3822.416156549339
 30
0.0
 40
0.2
100
AcDbArc
 50
329.9999999999914
 51
30.00000000000856
  0
ARC
  5
4568
330
1F
100
AcDbEntity
  8
Rüttler
100
AcDbCircle
 10
7254.058367649147
 20
3824.716156550049
 30
0.0
 40
0.2
100
AcDbArc
 50
29.99999999639066
 51
90.0
  0
ARC
  5
4569
330
1F
100
AcDbEntity
  8
Rüttler
100
AcDbCircle
 10
7251.402556411092
 20
3824.716156550049
 30
0.0
 40
0.2
100
AcDbArc
 50
90.0
 51
149.9999999999914
  0
ARC
  5
456A
330
1F
100
AcDbEntity
  8
Rüttler
100
AcDbCircle
 10
7250.074650791956
 20
3822.416156547834
 30
0.0
 40
0.2
100
AcDbArc
 50
149.9999999999914
 51
210.0000000000085
  0
CIRCLE
  5
456B
330
1F
100
AcDbEntity
  8
Rüttler
100
AcDbCircle
 10
7252.730462030227
 20
3822.416156550051
 30
0.0
 40
2.926872422734504
  0
CIRCLE
  5
456C
330
1F
100
AcDbEntity
  8
Rüttler
100
AcDbCircle
 10
7475.730462030227
 20
3841.91615655005
 30
0.0
 40
3.666343461697351
  0
ARC
  5
456D
330
1F
100
AcDbEntity
  8
Rüttler
100
AcDbCircle
 10
7478.617213376175
 20
3841.91615655005
 30
0.0
 40
0.5
100
AcDbArc
 50
329.9999999999914
 51
30.00000000000856
  0
ARC
  5
456E
330
1F
100
AcDbEntity
  8
Rüttler
100
AcDbCircle
 10
7477.173837703202
 20
3839.416156550051
 30
0.0
 40
0.5
100
AcDbArc
 50
270.0
 51
329.9999999999914
  0
ARC
  5
456F
330
1F
100
AcDbEntity
  8
Rüttler
100
AcDbCircle
 10
7474.287086356046
 20
3839.416156550051
 30
0.0
 40
0.5
100
AcDbArc
 50
210.000000013889
 51
270.0
  0
ARC
  5
4570
330
1F
100
AcDbEntity
  8
Rüttler
100
AcDbCircle
 10
7472.843710684279
 20
3841.916156546562
 30
0.0
 40
0.5
100
AcDbArc
 50
149.9999999999914
 51
210.0000000000085
  0
ARC
  5
4571
330
1F
100
AcDbEntity
  8
Rüttler
100
AcDbCircle
 10
7474.287086357254
 20
3844.41615655005
 30
0.0
 40
0.5
100
AcDbArc
 50
90.0
 51
149.9999999999914
  0
ARC
  5
4572
330
1F
100
AcDbEntity
  8
Rüttler
100
AcDbCircle
 10
7477.173837703202
 20
3844.41615655005
 30
0.0
 40
0.5
100
AcDbArc
 50
30.00000000000856
 51
90.0
  0
LINE
  5
4573
330
1F
100
AcDbEntity
  8
Rüttler
100
AcDbLine
 10
7473.854073655363
 20
3844.66615655005
 30
0.0
 11
7472.410697982389
 21
3842.166156546562
 31
0.0
  0
LINE
  5
4574
330
1F
100
AcDbEntity
  8
Rüttler
100
AcDbLine
 10
7472.410697982389
 20
3841.666156546562
 30
0.0
 11
7473.854073654215
 21
3839.166156549945
 31
0.0
  0
LINE
  5
4575
330
1F
100
AcDbEntity
  8
Rüttler
100
AcDbLine
 10
7474.287086356046
 20
3838.91615655005
 30
0.0
 11
7477.173837703202
 21
3838.91615655005
 31
0.0
  0
LINE
  5
4576
330
1F
100
AcDbEntity
  8
Rüttler
100
AcDbLine
 10
7477.606850405094
 20
3839.16615655005
 30
0.0
 11
7479.050226078069
 21
3841.666156550051
 31
0.0
  0
LINE
  5
4577
330
1F
100
AcDbEntity
  8
Rüttler
100
AcDbLine
 10
7479.050226078069
 20
3842.16615655005
 30
0.0
 11
7477.606850405094
 21
3844.66615655005
 31
0.0
  0
LINE
  5
4578
330
1F
100
AcDbEntity
  8
Rüttler
100
AcDbLine
 10
7477.173837703202
 20
3844.916156550051
 30
0.0
 11
7474.287086357254
 21
3844.916156550051
 31
0.0
  0
CIRCLE
  5
4579
330
1F
100
AcDbEntity
  8
Rüttler
100
AcDbCircle
 10
7475.730462030227
 20
3841.91615655005
 30
0.0
 40
6.5
  0
CIRCLE
  5
457A
330
1F
100
AcDbEntity
  8
Rüttler
100
AcDbCircle
 10
7475.730462030227
 20
3861.416156550051
 30
0.0
 40
5.0
  0
LINE
  5
457B
330
1F
100
AcDbEntity
  8
Rüttler
100
AcDbLine
 10
7474.402556411312
 20
3858.916156550051
 30
0.0
 11
7477.058367649364
 21
3858.916156550051
 31
0.0
  0
LINE
  5
457C
330
1F
100
AcDbEntity
  8
Rüttler
100
AcDbLine
 10
7477.231572730122
 20
3859.01615655005
 30
0.0
 11
7478.559478349258
 21
3861.316156552266
 31
0.0
  0
LINE
  5
457D
330
1F
100
AcDbEntity
  8
Rüttler
100
AcDbLine
 10
7478.559478349258
 20
3861.516156552266
 30
0.0
 11
7477.231572730122
 21
3863.81615655005
 31
0.0
  0
LINE
  5
457E
330
1F
100
AcDbEntity
  8
Rüttler
100
AcDbLine
 10
7477.058367649364
 20
3863.91615655005
 30
0.0
 11
7474.402556411092
 21
3863.91615655005
 31
0.0
  0
LINE
  5
457F
330
1F
100
AcDbEntity
  8
Rüttler
100
AcDbLine
 10
7474.229351330335
 20
3863.81615655005
 30
0.0
 11
7472.901445711198
 21
3861.516156550761
 31
0.0
  0
LINE
  5
4580
330
1F
100
AcDbEntity
  8
Rüttler
100
AcDbLine
 10
7472.901445711198
 20
3861.316156550762
 30
0.0
 11
7474.229351330547
 21
3859.016156550061
 31
0.0
  0
ARC
  5
4581
330
1F
100
AcDbEntity
  8
Rüttler
100
AcDbCircle
 10
7477.058367649364
 20
3863.716156550049
 30
0.0
 40
0.2
100
AcDbArc
 50
30.00000000000856
 51
90.0
  0
ARC
  5
4582
330
1F
100
AcDbEntity
  8
Rüttler
100
AcDbCircle
 10
7474.402556411092
 20
3863.716156550049
 30
0.0
 40
0.2
100
AcDbArc
 50
90.0
 51
149.9999999999914
  0
ARC
  5
4583
330
1F
100
AcDbEntity
  8
Rüttler
100
AcDbCircle
 10
7473.074650791956
 20
3861.416156550762
 30
0.0
 40
0.2
100
AcDbArc
 50
149.9999999999914
 51
210.0000000000085
  0
ARC
  5
4584
330
1F
100
AcDbEntity
  8
Rüttler
100
AcDbCircle
 10
7474.402556411312
 20
3859.116156550051
 30
0.0
 40
0.2
100
AcDbArc
 50
209.9999999963906
 51
270.0
  0
ARC
  5
4585
330
1F
100
AcDbEntity
  8
Rüttler
100
AcDbCircle
 10
7477.058367649364
 20
3859.116156550051
 30
0.0
 40
0.2
100
AcDbArc
 50
270.0
 51
329.9999999999914
  0
ARC
  5
4586
330
1F
100
AcDbEntity
  8
Rüttler
100
AcDbCircle
 10
7478.386273268501
 20
3861.416156552266
 30
0.0
 40
0.2
100
AcDbArc
 50
329.9999999999914
 51
30.00000000000856
  0
CIRCLE
  5
4587
330
1F
100
AcDbEntity
  8
Rüttler
100
AcDbCircle
 10
7475.730462030227
 20
3861.416156550051
 30
0.0
 40
2.926872422734504
  0
LINE
  5
4588
330
1F
100
AcDbEntity
  8
Rüttler
100
AcDbLine
 10
7398.088405713107
 20
3677.160063401737
 30
0.0
 11
7396.730462030227
 21
3676.820442015166
 31
0.0
  0
LINE
  5
4589
330
1F
100
AcDbEntity
  8
Rüttler
100
AcDbLine
 10
7399.229300216288
 20
3677.445399341847
 30
0.0
 11
7398.088405713107
 21
3677.160063401737
 31
0.0
  0
LINE
  5
458A
330
1F
100
AcDbEntity
  8
Rüttler
100
AcDbLine
 10
7400.37019605193
 20
3678.301412659304
 30
0.0
 11
7399.229300216288
 21
3677.445399341847
 31
0.0
  0
LINE
  5
458B
330
1F
100
AcDbEntity
  8
Rüttler
100
AcDbLine
 10
7401.511091887572
 20
3678.872086371899
 30
0.0
 11
7400.37019605193
 21
3678.301412659304
 31
0.0
  0
LINE
  5
458C
330
1F
100
AcDbEntity
  8
Rüttler
100
AcDbLine
 10
7404.933779394501
 20
3678.872086371899
 30
0.0
 11
7401.511091887572
 21
3678.872086371899
 31
0.0
  0
LINE
  5
458D
330
1F
100
AcDbEntity
  8
Rüttler
100
AcDbLine
 10
7406.074675230144
 20
3678.58675043179
 30
0.0
 11
7404.933779394501
 21
3678.872086371899
 31
0.0
  0
LINE
  5
458E
330
1F
100
AcDbEntity
  8
Rüttler
100
AcDbLine
 10
7407.215571065787
 20
3678.301412659304
 30
0.0
 11
7406.074675230144
 21
3678.58675043179
 31
0.0
  0
LINE
  5
458F
330
1F
100
AcDbEntity
  8
Rüttler
100
AcDbLine
 10
7408.35646690143
 20
3678.58675043179
 30
0.0
 11
7407.215571065787
 21
3678.301412659304
 31
0.0
  0
LINE
  5
4590
330
1F
100
AcDbEntity
  8
Rüttler
100
AcDbLine
 10
7409.497362737074
 20
3679.157424144386
 30
0.0
 11
7408.35646690143
 21
3678.58675043179
 31
0.0
  0
LINE
  5
4591
330
1F
100
AcDbEntity
  8
Rüttler
100
AcDbLine
 10
7410.638257240255
 20
3679.728099689357
 30
0.0
 11
7409.497362737074
 21
3679.157424144386
 31
0.0
  0
LINE
  5
4592
330
1F
100
AcDbEntity
  8
Rüttler
100
AcDbLine
 10
7410.730462030227
 20
3679.774220332602
 30
0.0
 11
7410.638257240255
 21
3679.728099689357
 31
0.0
  0
LINE
  5
4593
330
1F
100
AcDbEntity
  8
Rüttler
100
AcDbLine
 10
7393.239598411625
 20
3732.230182028848
 30
0.0
 11
7392.649223052318
 21
3732.082529294309
 31
0.0
  0
LINE
  5
4594
330
1F
100
AcDbEntity
  8
Rüttler
100
AcDbLine
 10
7394.380494247267
 20
3732.230182028848
 30
0.0
 11
7393.239598411625
 21
3732.230182028848
 31
0.0
  0
LINE
  5
4595
330
1F
100
AcDbEntity
  8
Rüttler
100
AcDbLine
 10
7395.521390082909
 20
3731.944844256362
 30
0.0
 11
7394.380494247267
 21
3732.230182028848
 31
0.0
  0
LINE
  5
4596
330
1F
100
AcDbEntity
  8
Rüttler
100
AcDbLine
 10
7396.662285918553
 20
3731.374168711389
 30
0.0
 11
7395.521390082909
 21
3731.944844256362
 31
0.0
  0
LINE
  5
4597
330
1F
100
AcDbEntity
  8
Rüttler
100
AcDbLine
 10
7397.803181754196
 20
3731.08883277128
 30
0.0
 11
7396.662285918553
 21
3731.374168711389
 31
0.0
  0
LINE
  5
4598
330
1F
100
AcDbEntity
  8
Rüttler
100
AcDbLine
 10
7398.944077589838
 20
3731.08883277128
 30
0.0
 11
7397.803181754196
 21
3731.08883277128
 31
0.0
  0
LINE
  5
4599
330
1F
100
AcDbEntity
  8
Rüttler
100
AcDbLine
 10
7400.37019605193
 20
3731.374168711389
 30
0.0
 11
7398.944077589838
 21
3731.08883277128
 31
0.0
  0
LINE
  5
459A
330
1F
100
AcDbEntity
  8
Rüttler
100
AcDbLine
 10
7401.511091887572
 20
3731.659506483875
 30
0.0
 11
7400.37019605193
 21
3731.374168711389
 31
0.0
  0
LINE
  5
459B
330
1F
100
AcDbEntity
  8
Rüttler
100
AcDbLine
 10
7402.651987723217
 20
3732.230182028848
 30
0.0
 11
7401.511091887572
 21
3731.659506483875
 31
0.0
  0
LINE
  5
459C
330
1F
100
AcDbEntity
  8
Rüttler
100
AcDbLine
 10
7403.792883558859
 20
3732.230182028848
 30
0.0
 11
7402.651987723217
 21
3732.230182028848
 31
0.0
  0
LINE
  5
459D
330
1F
100
AcDbEntity
  8
Rüttler
100
AcDbLine
 10
7404.933779394501
 20
3732.515519801335
 30
0.0
 11
7403.792883558859
 21
3732.230182028848
 31
0.0
  0
LINE
  5
459E
330
1F
100
AcDbEntity
  8
Rüttler
100
AcDbLine
 10
7406.074675230144
 20
3732.515519801335
 30
0.0
 11
7404.933779394501
 21
3732.515519801335
 31
0.0
  0
LINE
  5
459F
330
1F
100
AcDbEntity
  8
Rüttler
100
AcDbLine
 10
7407.215571065787
 20
3732.230182028848
 30
0.0
 11
7406.074675230144
 21
3732.515519801335
 31
0.0
  0
LINE
  5
45A0
330
1F
100
AcDbEntity
  8
Rüttler
100
AcDbLine
 10
7408.641690860341
 20
3731.944844256362
 30
0.0
 11
7407.215571065787
 21
3732.230182028848
 31
0.0
  0
LINE
  5
45A1
330
1F
100
AcDbEntity
  8
Rüttler
100
AcDbLine
 10
7409.782586695984
 20
3731.659506483875
 30
0.0
 11
7408.641690860341
 21
3731.944844256362
 31
0.0
  0
LINE
  5
45A2
330
1F
100
AcDbEntity
  8
Rüttler
100
AcDbLine
 10
7410.923481199164
 20
3731.944844256362
 30
0.0
 11
7409.782586695984
 21
3731.659506483875
 31
0.0
  0
LINE
  5
45A3
330
1F
100
AcDbEntity
  8
Rüttler
100
AcDbLine
 10
7412.064377034806
 20
3732.230182028848
 30
0.0
 11
7410.923481199164
 21
3731.944844256362
 31
0.0
  0
LINE
  5
45A4
330
1F
100
AcDbEntity
  8
Rüttler
100
AcDbLine
 10
7413.205272870451
 20
3732.800855741443
 30
0.0
 11
7412.064377034806
 21
3732.230182028848
 31
0.0
  0
LINE
  5
45A5
330
1F
100
AcDbEntity
  8
Rüttler
100
AcDbLine
 10
7414.346168706093
 20
3733.086193513929
 30
0.0
 11
7413.205272870451
 21
3732.800855741443
 31
0.0
  0
LINE
  5
45A6
330
1F
100
AcDbEntity
  8
Rüttler
100
AcDbLine
 10
7414.849338416374
 20
3733.086193513929
 30
0.0
 11
7414.346168706093
 21
3733.086193513929
 31
0.0
  0
LINE
  5
45A7
330
1F
100
AcDbEntity
  8
Rüttler
100
AcDbLine
 10
7396.730462030227
 20
3676.820442015166
 30
0.0
 11
7396.730462030227
 21
3731.357117991849
 31
0.0
  0
LINE
  5
45A8
330
1F
100
AcDbEntity
  8
Rüttler
100
AcDbLine
 10
7410.730462030227
 20
3679.774220332602
 30
0.0
 11
7410.730462030227
 21
3731.896570152526
 31
0.0
  0
LINE
  5
45A9
330
1F
100
AcDbEntity
  8
Rüttler
100
AcDbLine
 10
7391.230462030228
 20
3769.916156550051
 30
0.0
 11
7392.649223052318
 21
3732.082529294309
 31
0.0
  0
LINE
  5
45AA
330
1F
100
AcDbEntity
  8
Rüttler
100
AcDbLine
 10
7416.230462030227
 20
3769.916156550051
 30
0.0
 11
7414.849338416374
 21
3733.086193513929
 31
0.0
  0
ARC
  5
45AB
330
1F
100
AcDbEntity
  8
Rüttler
100
AcDbCircle
 10
7416.730462030227
 20
3775.91615655005
 30
0.0
 40
2.0
100
AcDbArc
 50
0.0
 51
90.0
  0
LINE
  5
45AC
330
1F
100
AcDbEntity
  8
Rüttler
100
AcDbLine
 10
7416.730462030227
 20
3777.91615655005
 30
0.0
 11
7390.730462030226
 21
3777.91615655005
 31
0.0
  0
ARC
  5
45AD
330
1F
100
AcDbEntity
  8
Rüttler
100
AcDbCircle
 10
7416.730462030227
 20
3771.91615655005
 30
0.0
 40
2.0
100
AcDbArc
 50
270.0
 51
0.0
  0
LINE
  5
45AE
330
1F
100
AcDbEntity
  8
Rüttler
100
AcDbLine
 10
7403.730462030228
 20
3769.916156550051
 30
0.0
 11
7403.730462030228
 21
3777.91615655005
 31
0.0
  0
LINE
  5
45AF
330
1F
100
AcDbEntity
  8
Rüttler
100
AcDbLine
 10
7416.730462030227
 20
3769.916156550051
 30
0.0
 11
7390.730462030226
 21
3769.916156550051
 31
0.0
  0
LINE
  5
45B0
330
1F
100
AcDbEntity
  8
Rüttler
100
AcDbLine
 10
7418.730462030227
 20
3771.91615655005
 30
0.0
 11
7418.730462030227
 21
3775.91615655005
 31
0.0
  0
LINE
  5
45B1
330
1F
100
AcDbEntity
  8
Rüttler
100
AcDbLine
 10
7388.730462030228
 20
3771.91615655005
 30
0.0
 11
7388.730462030228
 21
3775.91615655005
 31
0.0
  0
ARC
  5
45B2
330
1F
100
AcDbEntity
  8
Rüttler
100
AcDbCircle
 10
7390.730462030226
 20
3771.91615655005
 30
0.0
 40
2.0
100
AcDbArc
 50
180.0
 51
270.0
  0
ARC
  5
45B3
330
1F
100
AcDbEntity
  8
Rüttler
100
AcDbCircle
 10
7390.730462030226
 20
3775.91615655005
 30
0.0
 40
2.0
100
AcDbArc
 50
90.0
 51
180.0
  0
LINE
  5
45B4
330
1F
100
AcDbEntity
  8
Rüttler
100
AcDbLine
 10
7410.730462030227
 20
3691.916156550051
 30
0.0
 11
7413.230462030227
 21
3691.916156550051
 31
0.0
  0
CIRCLE
  5
45B5
330
1F
100
AcDbEntity
  8
Rüttler
100
AcDbCircle
 10
7372.253802627341
 20
3879.392815952937
 30
0.0
 40
5.0
  0
LINE
  5
45B6
330
1F
100
AcDbEntity
  8
Rüttler
100
AcDbLine
 10
7370.925897008205
 20
3881.892815952937
 30
0.0
 11
7373.581708246476
 21
3881.892815952937
 31
0.0
  0
LINE
  5
45B7
330
1F
100
AcDbEntity
  8
Rüttler
100
AcDbLine
 10
7369.424786308311
 20
3879.492815954078
 30
0.0
 11
7370.752691927449
 21
3881.792815952937
 31
0.0
  0
LINE
  5
45B8
330
1F
100
AcDbEntity
  8
Rüttler
100
AcDbLine
 10
7370.752691927634
 20
3876.992815952963
 30
0.0
 11
7369.424786308311
 21
3879.292815954078
 31
0.0
  0
LINE
  5
45B9
330
1F
100
AcDbEntity
  8
Rüttler
100
AcDbLine
 10
7373.581708246084
 20
3876.892815952936
 30
0.0
 11
7370.925897008406
 21
3876.892815952936
 31
0.0
  0
LINE
  5
45BA
330
1F
100
AcDbEntity
  8
Rüttler
100
AcDbLine
 10
7375.082818946371
 20
3879.292815954961
 30
0.0
 11
7373.754913326866
 21
3876.992815952981
 31
0.0
  0
LINE
  5
45BB
330
1F
100
AcDbEntity
  8
Rüttler
100
AcDbLine
 10
7373.754913327234
 20
3881.792815952937
 30
0.0
 11
7375.082818946371
 21
3879.492815954962
 31
0.0
  0
ARC
  5
45BC
330
1F
100
AcDbEntity
  8
Rüttler
100
AcDbCircle
 10
7370.925897008205
 20
3881.692815952936
 30
0.0
 40
0.2
100
AcDbArc
 50
90.0
 51
149.9999999999914
  0
ARC
  5
45BD
330
1F
100
AcDbEntity
  8
Rüttler
100
AcDbCircle
 10
7369.59799138907
 20
3879.392815954079
 30
0.0
 40
0.2
100
AcDbArc
 50
149.9999999999914
 51
210.0000000000085
  0
ARC
  5
45BE
330
1F
100
AcDbEntity
  8
Rüttler
100
AcDbCircle
 10
7370.925897008406
 20
3877.092815952937
 30
0.0
 40
0.2
100
AcDbArc
 50
209.9999999914637
 51
270.0
  0
ARC
  5
45BF
330
1F
100
AcDbEntity
  8
Rüttler
100
AcDbCircle
 10
7373.581708246476
 20
3881.692815952936
 30
0.0
 40
0.2
100
AcDbArc
 50
30.00000000000856
 51
90.0
  0
ARC
  5
45C0
330
1F
100
AcDbEntity
  8
Rüttler
100
AcDbCircle
 10
7374.909613865613
 20
3879.392815954961
 30
0.0
 40
0.2
100
AcDbArc
 50
329.9999999999914
 51
30.00000000000856
  0
ARC
  5
45C1
330
1F
100
AcDbEntity
  8
Rüttler
100
AcDbCircle
 10
7373.581708246084
 20
3877.092815952937
 30
0.0
 40
0.2
100
AcDbArc
 50
270.0
 51
330.0000000144647
  0
CIRCLE
  5
45C2
330
1F
100
AcDbEntity
  8
Rüttler
100
AcDbCircle
 10
7372.253802627341
 20
3879.392815952937
 30
0.0
 40
3.155098710735842
  0
CIRCLE
  5
45C3
330
1F
100
AcDbEntity
  8
Rüttler
100
AcDbCircle
 10
7447.541258509719
 20
3879.392815952937
 30
0.0
 40
3.155098710735842
  0
ARC
  5
45C4
330
1F
100
AcDbEntity
  8
Rüttler
100
AcDbCircle
 10
7446.213352890976
 20
3877.092815952937
 30
0.0
 40
0.2
100
AcDbArc
 50
209.9999999855351
 51
270.0
  0
ARC
  5
45C5
330
1F
100
AcDbEntity
  8
Rüttler
100
AcDbCircle
 10
7444.885447271447
 20
3879.392815954961
 30
0.0
 40
0.2
100
AcDbArc
 50
149.9999999999914
 51
210.0000000000085
  0
ARC
  5
45C6
330
1F
100
AcDbEntity
  8
Rüttler
100
AcDbCircle
 10
7446.213352890584
 20
3881.692815952936
 30
0.0
 40
0.2
100
AcDbArc
 50
90.0
 51
149.9999999999914
  0
ARC
  5
45C7
330
1F
100
AcDbEntity
  8
Rüttler
100
AcDbCircle
 10
7448.869164128653
 20
3877.092815952937
 30
0.0
 40
0.2
100
AcDbArc
 50
270.0
 51
330.0000000085362
  0
ARC
  5
45C8
330
1F
100
AcDbEntity
  8
Rüttler
100
AcDbCircle
 10
7450.197069747992
 20
3879.392815954079
 30
0.0
 40
0.2
100
AcDbArc
 50
329.9999999999914
 51
30.00000000000856
  0
ARC
  5
45C9
330
1F
100
AcDbEntity
  8
Rüttler
100
AcDbCircle
 10
7448.869164128855
 20
3881.692815952936
 30
0.0
 40
0.2
100
AcDbArc
 50
30.00000000000856
 51
90.0
  0
LINE
  5
45CA
330
1F
100
AcDbEntity
  8
Rüttler
100
AcDbLine
 10
7446.040147809826
 20
3881.792815952937
 30
0.0
 11
7444.712242190689
 21
3879.492815954962
 31
0.0
  0
LINE
  5
45CB
330
1F
100
AcDbEntity
  8
Rüttler
100
AcDbLine
 10
7444.712242190689
 20
3879.292815954961
 30
0.0
 11
7446.040147810196
 21
3876.992815952981
 31
0.0
  0
LINE
  5
45CC
330
1F
100
AcDbEntity
  8
Rüttler
100
AcDbLine
 10
7446.213352890976
 20
3876.892815952936
 30
0.0
 11
7448.869164128653
 21
3876.892815952936
 31
0.0
  0
LINE
  5
45CD
330
1F
100
AcDbEntity
  8
Rüttler
100
AcDbLine
 10
7449.042369209426
 20
3876.992815952963
 30
0.0
 11
7450.370274828749
 21
3879.292815954078
 31
0.0
  0
LINE
  5
45CE
330
1F
100
AcDbEntity
  8
Rüttler
100
AcDbLine
 10
7450.370274828749
 20
3879.492815954078
 30
0.0
 11
7449.042369209611
 21
3881.792815952937
 31
0.0
  0
LINE
  5
45CF
330
1F
100
AcDbEntity
  8
Rüttler
100
AcDbLine
 10
7448.869164128855
 20
3881.892815952937
 30
0.0
 11
7446.213352890584
 21
3881.892815952937
 31
0.0
  0
CIRCLE
  5
45D0
330
1F
100
AcDbEntity
  8
Rüttler
100
AcDbCircle
 10
7447.541258509719
 20
3879.392815952937
 30
0.0
 40
5.0
  0
CIRCLE
  5
48C9
330
1F
100
AcDbEntity
  8
Rüttler
100
AcDbCircle
 10
7928.098187013107
 20
4209.52937119156
 30
0.0
 40
115.0
  0
LINE
  5
61BA
330
1F
100
AcDbEntity
  8
ACHSEN
 48
20.0
100
AcDbLine
 10
7134.475564877409
 20
3841.91615655005
 30
0.0
 11
7593.985359183045
 21
3841.91615655005
 31
0.0
  0
LINE
  5
66B5
330
1F
100
AcDbEntity
  8
ACHSEN
 48
10.0
100
AcDbLine
 10
7394.441399849464
 20
3718.91615655005
 30
0.0
 11
7454.019524210991
 21
3718.91615655005
 31
0.0
  0
LINE
  5
66B6
330
1F
100
AcDbEntity
  8
ACHSEN
 48
10.0
100
AcDbLine
 10
7394.441399849464
 20
3964.916156550049
 30
0.0
 11
7454.019524210991
 21
3964.916156550049
 31
0.0
  0
LINE
  5
695F
330
1F
100
AcDbEntity
  8
Rüttler
100
AcDbLine
 10
7467.730462030226
 20
4319.77937119156
 30
0.0
 11
7467.730462030228
 21
4095.029371191561
 31
0.0
  0
LINE
  5
6960
330
1F
100
AcDbEntity
  8
AVERDECKTE
 48
50.0
370
    18
100
AcDbLine
 10
7470.730462030228
 20
4319.77937119156
 30
0.0
 11
7470.730462030228
 21
4096.529371191561
 31
0.0
  0
LINE
  5
6961
330
1F
100
AcDbEntity
  8
Rüttler
100
AcDbLine
 10
7265.230462030228
 20
4137.52937119156
 30
0.0
 11
7265.230462030228
 21
4092.529371191561
 31
0.0
  0
LINE
  5
6962
330
1F
100
AcDbEntity
  8
Rüttler
100
AcDbLine
 10
7463.230462030228
 20
4137.52937119156
 30
0.0
 11
7463.230462030228
 21
4092.529371191561
 31
0.0
  0
LINE
  5
6963
330
1F
100
AcDbEntity
  8
Rüttler
100
AcDbLine
 10
7334.230462030227
 20
4140.029371191561
 30
0.0
 11
7334.230462030227
 21
4092.529371191561
 31
0.0
  0
LINE
  5
6964
330
1F
100
AcDbEntity
  8
Rüttler
100
AcDbLine
 10
7394.230462030228
 20
4140.029371191561
 30
0.0
 11
7394.230462030228
 21
4092.529371191561
 31
0.0
  0
LINE
  5
6965
330
1F
100
AcDbEntity
  8
AVERDECKTE
 48
50.0
100
AcDbLine
 10
7410.730462030227
 20
4140.52937119156
 30
0.0
 11
7410.730462030227
 21
4092.529371191561
 31
0.0
  0
LINE
  5
6966
330
1F
100
AcDbEntity
  8
AVERDECKTE
 48
50.0
100
AcDbLine
 10
7437.730462030228
 20
4140.52937119156
 30
0.0
 11
7437.730462030228
 21
4092.529371191561
 31
0.0
  0
LINE
  5
6967
330
1F
100
AcDbEntity
  8
AVERDECKTE
 48
50.0
100
AcDbLine
 10
7317.730462030226
 20
4140.52937119156
 30
0.0
 11
7317.730462030228
 21
4092.529371191561
 31
0.0
  0
LINE
  5
6968
330
1F
100
AcDbEntity
  8
AVERDECKTE
 48
50.0
100
AcDbLine
 10
7290.730462030227
 20
4140.52937119156
 30
0.0
 11
7290.730462030227
 21
4092.529371191561
 31
0.0
  0
LINE
  5
6969
330
1F
100
AcDbEntity
  8
AVERDECKTE
 48
50.0
100
AcDbLine
 10
7324.230462030228
 20
4120.029371191561
 30
0.0
 11
7324.230462030228
 21
4092.529371191561
 31
0.0
  0
LINE
  5
696A
330
1F
100
AcDbEntity
  8
AVERDECKTE
 48
50.0
100
AcDbLine
 10
7404.230462030226
 20
4120.029371191561
 30
0.0
 11
7404.230462030227
 21
4092.529371191561
 31
0.0
  0
LINE
  5
696B
330
1F
100
AcDbEntity
  8
AVERDECKTE
 48
50.0
370
    18
100
AcDbLine
 10
7481.730462030228
 20
4322.529371191561
 30
0.0
 11
7481.730462030228
 21
4096.529371191561
 31
0.0
  0
LINE
  5
696C
330
1F
100
AcDbEntity
  8
AVERDECKTE
 48
50.0
100
AcDbLine
 10
7257.730462030227
 20
4319.77937119156
 30
0.0
 11
7257.730462030227
 21
4096.529371191561
 31
0.0
  0
LINE
  5
696D
330
1F
100
AcDbEntity
  8
Rüttler
100
AcDbLine
 10
7260.730462030227
 20
4319.77937119156
 30
0.0
 11
7260.730462030227
 21
4095.029371191561
 31
0.0
  0
LINE
  5
696E
330
1F
100
AcDbEntity
  8
ACHSEN
 48
20.0
370
    18
100
AcDbLine
 10
7364.230462030228
 20
4349.106714544911
 30
0.0
 11
7364.230462030228
 21
4126.022983606786
 31
0.0
  0
LINE
  5
696F
330
1F
100
AcDbEntity
  8
AVERDECKTE
 48
50.0
100
AcDbLine
 10
7246.730462030225
 20
4322.52937119156
 30
0.0
 11
7246.730462030227
 21
4096.529371191561
 31
0.0
  0
LINE
  5
6970
330
1F
100
AcDbEntity
  8
Rüttler
100
AcDbLine
 10
7265.230462030228
 20
4092.529371191561
 30
0.0
 11
7463.230462030228
 21
4092.529371191561
 31
0.0
  0
LINE
  5
6971
330
1F
100
AcDbEntity
  8
AVERDECKTE
 48
50.0
100
AcDbLine
 10
7265.230462030228
 20
4095.529371191561
 30
0.0
 11
7463.230462030228
 21
4095.529371191561
 31
0.0
  0
LINE
  5
6972
330
1F
100
AcDbEntity
  8
AVERDECKTE
 48
50.0
100
AcDbLine
 10
7257.730462030227
 20
4099.279371191561
 30
0.0
 11
7260.730462030227
 21
4099.279371191561
 31
0.0
  0
LINE
  5
6973
330
1F
100
AcDbEntity
  8
AVERDECKTE
 48
50.0
100
AcDbLine
 10
7246.730462030227
 20
4096.529371191561
 30
0.0
 11
7257.730462030227
 21
4096.529371191561
 31
0.0
  0
LINE
  5
6974
330
1F
100
AcDbEntity
  8
Rüttler
100
AcDbLine
 10
7260.730462030227
 20
4095.029371191561
 30
0.0
 11
7265.230462030228
 21
4095.029371191561
 31
0.0
  0
LINE
  5
6975
330
1F
100
AcDbEntity
  8
AVERDECKTE
 48
50.0
370
    18
100
AcDbLine
 10
7470.730462030228
 20
4096.529371191561
 30
0.0
 11
7481.730462030228
 21
4096.529371191561
 31
0.0
  0
LINE
  5
6976
330
1F
100
AcDbEntity
  8
AVERDECKTE
 48
50.0
370
    18
100
AcDbLine
 10
7467.730462030226
 20
4099.279371191561
 30
0.0
 11
7470.730462030228
 21
4099.279371191561
 31
0.0
  0
POINT
  5
6977
330
1F
100
AcDbEntity
  8
AVERDECKTE
 48
50.0
370
    18
100
AcDbPoint
 10
7470.657917319254
 20
4099.295366673676
 30
0.0
  0
LINE
  5
6978
330
1F
100
AcDbEntity
  8
Rüttler
100
AcDbLine
 10
7463.230462030228
 20
4095.029371191561
 30
0.0
 11
7467.730462030228
 21
4095.029371191561
 31
0.0
  0
ARC
  5
6979
330
1F
100
AcDbEntity
  8
Rüttler
100
AcDbCircle
 10
7399.230462030226
 20
4145.029371191561
 30
0.0
 40
2.5
100
AcDbArc
 50
270.0
 51
0.0
  0
LINE
  5
697A
330
1F
100
AcDbEntity
  8
AVERDECKTE
 48
50.0
100
AcDbLine
 10
7326.730462030228
 20
4122.529371191561
 30
0.0
 11
7339.751769824596
 21
4122.529371191561
 31
0.0
  0
LINE
  5
697B
330
1F
100
AcDbEntity
  8
ACHSEN
 48
20.0
370
    18
100
AcDbLine
 10
7134.475564877409
 20
4209.52937119156
 30
0.0
 11
7593.985359183045
 21
4209.52937119156
 31
0.0
  0
LINE
  5
697C
330
1F
100
AcDbEntity
  8
Rüttler
100
AcDbLine
 10
7396.730462030227
 20
4142.529371191561
 30
0.0
 11
7458.230462030228
 21
4142.529371191561
 31
0.0
  0
LINE
  5
697F
330
1F
100
AcDbEntity
  8
Rüttler
100
AcDbLine
 10
7273.230462030227
 20
4294.52937119156
 30
0.0
 11
7273.230462030227
 21
4142.529371191561
 31
0.0
  0
LINE
  5
6980
330
1F
100
AcDbEntity
  8
Rüttler
100
AcDbLine
 10
7370.230462030227
 20
4262.301626942082
 30
0.0
 11
7370.230462030227
 21
4142.029371191561
 31
0.0
  0
LINE
  5
6981
330
1F
100
AcDbEntity
  8
Rüttler
100
AcDbLine
 10
7358.230462030228
 20
4262.301626942082
 30
0.0
 11
7358.230462030228
 21
4142.029371191561
 31
0.0
  0
LINE
  5
6982
330
1F
100
AcDbEntity
  8
Rüttler
100
AcDbLine
 10
7281.730462030228
 20
4296.464689916216
 30
0.0
 11
7281.730462030228
 21
4145.029371191561
 31
0.0
  0
LINE
  5
6983
330
1F
100
AcDbEntity
  8
Rüttler
100
AcDbLine
 10
7286.730462030227
 20
4296.464689916213
 30
0.0
 11
7286.730462030227
 21
4145.029371191561
 31
0.0
  0
LINE
  5
6984
330
1F
100
AcDbEntity
  8
Rüttler
100
AcDbLine
 10
7301.730462030228
 20
4296.464689916216
 30
0.0
 11
7301.730462030228
 21
4145.029371191561
 31
0.0
  0
LINE
  5
6985
330
1F
100
AcDbEntity
  8
Rüttler
100
AcDbLine
 10
7306.730462030228
 20
4296.464689916213
 30
0.0
 11
7306.730462030228
 21
4145.029371191561
 31
0.0
  0
LINE
  5
6986
330
1F
100
AcDbEntity
  8
Rüttler
100
AcDbLine
 10
7321.730462030227
 20
4296.464689916216
 30
0.0
 11
7321.730462030227
 21
4145.029371191561
 31
0.0
  0
LINE
  5
6987
330
1F
100
AcDbEntity
  8
Rüttler
100
AcDbLine
 10
7326.730462030228
 20
4296.464689916213
 30
0.0
 11
7326.730462030228
 21
4145.029371191561
 31
0.0
  0
LINE
  5
6988
330
1F
100
AcDbEntity
  8
Rüttler
100
AcDbLine
 10
7341.730462030227
 20
4296.464689916218
 30
0.0
 11
7341.730462030227
 21
4145.029371191561
 31
0.0
  0
LINE
  5
6989
330
1F
100
AcDbEntity
  8
Rüttler
100
AcDbLine
 10
7346.730462030227
 20
4296.464689916213
 30
0.0
 11
7346.730462030227
 21
4145.029371191561
 31
0.0
  0
LINE
  5
698A
330
1F
100
AcDbEntity
  8
Rüttler
100
AcDbLine
 10
7381.730462030228
 20
4280.124763851164
 30
0.0
 11
7381.730462030228
 21
4145.029371191561
 31
0.0
  0
LINE
  5
698B
330
1F
100
AcDbEntity
  8
Rüttler
100
AcDbLine
 10
7386.730462030229
 20
4276.663440922443
 30
0.0
 11
7386.730462030228
 21
4145.029371191561
 31
0.0
  0
LINE
  5
698E
330
1F
100
AcDbEntity
  8
Rüttler
100
AcDbLine
 10
7265.230462030228
 20
4297.029371191561
 30
0.0
 11
7265.230462030228
 21
4154.61315725624
 31
0.0
  0
LINE
  5
698F
330
1F
100
AcDbEntity
  8
Rüttler
100
AcDbLine
 10
7382.730462030227
 20
4282.357518462536
 30
0.0
 11
7382.730462030227
 21
4145.029371191561
 31
0.0
  0
LINE
  5
6990
330
1F
100
AcDbEntity
  8
Rüttler
100
AcDbLine
 10
7385.730462030227
 20
4282.357518462536
 30
0.0
 11
7385.730462030227
 21
4145.029371191561
 31
0.0
  0
LINE
  5
6991
330
1F
100
AcDbEntity
  8
Rüttler
100
AcDbLine
 10
7342.730462030228
 20
4318.850606562568
 30
0.0
 11
7342.730462030228
 21
4145.029371191561
 31
0.0
  0
LINE
  5
6992
330
1F
100
AcDbEntity
  8
Rüttler
100
AcDbLine
 10
7345.730462030228
 20
4318.850606562565
 30
0.0
 11
7345.730462030228
 21
4145.029371191561
 31
0.0
  0
LINE
  5
6993
330
1F
100
AcDbEntity
  8
Rüttler
100
AcDbLine
 10
7322.730462030228
 20
4318.850606562568
 30
0.0
 11
7322.730462030228
 21
4145.029371191561
 31
0.0
  0
LINE
  5
6994
330
1F
100
AcDbEntity
  8
Rüttler
100
AcDbLine
 10
7325.730462030228
 20
4318.850606562568
 30
0.0
 11
7325.730462030228
 21
4145.029371191561
 31
0.0
  0
LINE
  5
6995
330
1F
100
AcDbEntity
  8
Rüttler
100
AcDbLine
 10
7305.730462030227
 20
4318.850606562567
 30
0.0
 11
7305.730462030227
 21
4145.029371191561
 31
0.0
  0
LINE
  5
6996
330
1F
100
AcDbEntity
  8
Rüttler
100
AcDbLine
 10
7302.730462030227
 20
4318.850606562567
 30
0.0
 11
7302.730462030227
 21
4145.029371191561
 31
0.0
  0
LINE
  5
6997
330
1F
100
AcDbEntity
  8
Rüttler
100
AcDbLine
 10
7282.730462030227
 20
4318.850606562568
 30
0.0
 11
7282.730462030227
 21
4145.029371191561
 31
0.0
  0
LINE
  5
6998
330
1F
100
AcDbEntity
  8
Rüttler
100
AcDbLine
 10
7285.730462030229
 20
4318.850606562565
 30
0.0
 11
7285.730462030227
 21
4145.029371191561
 31
0.0
  0
ARC
  5
6999
330
1F
100
AcDbEntity
  8
Rüttler
100
AcDbCircle
 10
7308.230462030228
 20
4145.029371191561
 30
0.0
 40
2.5
100
AcDbArc
 50
180.0
 51
270.0
  0
LINE
  5
699A
330
1F
100
AcDbEntity
  8
Rüttler
100
AcDbLine
 10
7270.230462030227
 20
4142.529371191561
 30
0.0
 11
7331.730462030228
 21
4142.529371191561
 31
0.0
  0
LINE
  5
699B
330
1F
100
AcDbEntity
  8
AVERDECKTE
 48
50.0
100
AcDbLine
 10
7281.730462030227
 20
4140.52937119156
 30
0.0
 11
7326.730462030228
 21
4140.52937119156
 31
0.0
  0
LINE
  5
699D
330
1F
100
AcDbEntity
  8
Rüttler
100
AcDbLine
 10
7265.230462030228
 20
4154.61315725624
 30
0.0
 11
7265.230462030228
 21
4149.182654103586
 31
0.0
  0
ARC
  5
69A0
330
1F
100
AcDbEntity
  8
Rüttler
100
AcDbCircle
 10
7280.230462030228
 20
4145.029371191561
 30
0.0
 40
2.5
100
AcDbArc
 50
270.0
 51
0.0
  0
ARC
  5
69A1
330
1F
100
AcDbEntity
  8
Rüttler
100
AcDbCircle
 10
7279.230462030227
 20
4145.029371191561
 30
0.0
 40
2.5
100
AcDbArc
 50
270.0
 51
0.0
  0
ARC
  5
69A2
330
1F
100
AcDbEntity
  8
Rüttler
100
AcDbCircle
 10
7270.230462030227
 20
4137.52937119156
 30
0.0
 40
5.0
100
AcDbArc
 50
90.0
 51
180.0
  0
LINE
  5
69A3
330
1F
100
AcDbEntity
  8
Rüttler
100
AcDbLine
 10
7265.230462030228
 20
4139.029496762346
 30
0.0
 11
7265.230462030228
 21
4137.52937119156
 31
0.0
  0
LINE
  5
69A4
330
1F
100
AcDbEntity
  8
Rüttler
100
AcDbLine
 10
7265.230462030228
 20
4141.182654103585
 30
0.0
 11
7265.230462030228
 21
4139.029496762346
 31
0.0
  0
LINE
  5
69A5
330
1F
100
AcDbEntity
  8
Rüttler
100
AcDbLine
 10
7265.230462030228
 20
4149.182654103586
 30
0.0
 11
7265.230462030228
 21
4141.182654103585
 31
0.0
  0
LINE
  5
69A6
330
1F
100
AcDbEntity
  8
AVERDECKTE
 48
50.0
100
AcDbLine
 10
7281.730462030227
 20
4142.529371191561
 30
0.0
 11
7281.730462030227
 21
4140.52937119156
 31
0.0
  0
ARC
  5
69A7
330
1F
100
AcDbEntity
  8
Rüttler
100
AcDbCircle
 10
7289.230462030229
 20
4145.029371191561
 30
0.0
 40
2.5
100
AcDbArc
 50
180.0
 51
270.0
  0
ARC
  5
69A8
330
1F
100
AcDbEntity
  8
Rüttler
100
AcDbCircle
 10
7288.230462030227
 20
4145.029371191561
 30
0.0
 40
2.5
100
AcDbArc
 50
180.0
 51
270.0
  0
ARC
  5
69A9
330
1F
100
AcDbEntity
  8
Rüttler
100
AcDbCircle
 10
7299.230462030227
 20
4145.029371191561
 30
0.0
 40
2.5
100
AcDbArc
 50
270.0
 51
0.0
  0
ARC
  5
69AA
330
1F
100
AcDbEntity
  8
Rüttler
100
AcDbCircle
 10
7300.230462030228
 20
4145.029371191561
 30
0.0
 40
2.5
100
AcDbArc
 50
270.0
 51
0.0
  0
LINE
  5
69AB
330
1F
100
AcDbEntity
  8
Rüttler
100
AcDbLine
 10
7331.730462030228
 20
4142.529371191561
 30
0.0
 11
7355.730462030227
 21
4142.529371191561
 31
0.0
  0
ARC
  5
69AC
330
1F
100
AcDbEntity
  8
AVERDECKTE
 48
50.0
100
AcDbCircle
 10
7326.730462030228
 20
4120.029371191561
 30
0.0
 40
2.5
100
AcDbArc
 50
90.0
 51
180.0
  0
LINE
  5
69AD
330
1F
100
AcDbEntity
  8
0
100
AcDbLine
 10
7342.230462030227
 20
4119.029013931431
 30
0.0
 11
7342.230462030227
 21
4116.029728451691
 31
0.0
  0
CIRCLE
  5
69AE
330
1F
100
AcDbEntity
  8
0
100
AcDbCircle
 10
7342.230462030227
 20
4117.529371191561
 30
0.0
 40
0.95
  0
LINE
  5
69AF
330
1F
100
AcDbEntity
  8
0
100
AcDbLine
 10
7340.730819290357
 20
4117.529371191561
 30
0.0
 11
7343.730104770099
 21
4117.529371191561
 31
0.0
  0
ARC
  5
69B0
330
1F
100
AcDbEntity
  8
Rüttler
100
AcDbCircle
 10
7329.230462030228
 20
4145.029371191561
 30
0.0
 40
2.5
100
AcDbArc
 50
180.0
 51
270.0
  0
ARC
  5
69B1
330
1F
100
AcDbEntity
  8
Rüttler
100
AcDbCircle
 10
7309.230462030227
 20
4145.029371191561
 30
0.0
 40
2.5
100
AcDbArc
 50
180.0
 51
270.0
  0
LINE
  5
69B2
330
1F
100
AcDbEntity
  8
AVERDECKTE
 48
50.0
100
AcDbLine
 10
7326.730462030226
 20
4142.529371191561
 30
0.0
 11
7326.730462030226
 21
4140.52937119156
 31
0.0
  0
ARC
  5
69B3
330
1F
100
AcDbEntity
  8
Rüttler
100
AcDbCircle
 10
7328.230462030226
 20
4145.029371191561
 30
0.0
 40
2.5
100
AcDbArc
 50
180.0
 51
270.0
  0
ARC
  5
69B4
330
1F
100
AcDbEntity
  8
Rüttler
100
AcDbCircle
 10
7319.230462030228
 20
4145.029371191561
 30
0.0
 40
2.5
100
AcDbArc
 50
270.0
 51
0.0
  0
ARC
  5
69B5
330
1F
100
AcDbEntity
  8
Rüttler
100
AcDbCircle
 10
7320.230462030227
 20
4145.029371191561
 30
0.0
 40
2.5
100
AcDbArc
 50
270.0
 51
0.0
  0
ARC
  5
69B6
330
1F
100
AcDbEntity
  8
Rüttler
100
AcDbCircle
 10
7339.230462030228
 20
4145.029371191561
 30
0.0
 40
2.5
100
AcDbArc
 50
270.0
 51
0.0
  0
ARC
  5
69B7
330
1F
100
AcDbEntity
  8
Rüttler
100
AcDbCircle
 10
7340.230462030227
 20
4145.029371191561
 30
0.0
 40
2.5
100
AcDbArc
 50
270.0
 51
0.0
  0
ARC
  5
69B8
330
1F
100
AcDbEntity
  8
Rüttler
100
AcDbCircle
 10
7331.730462030228
 20
4140.029371191561
 30
0.0
 40
2.5
100
AcDbArc
 50
0.0
 51
90.0
  0
ARC
  5
69B9
330
1F
100
AcDbEntity
  8
Rüttler
100
AcDbCircle
 10
7349.230462030227
 20
4145.029371191561
 30
0.0
 40
2.5
100
AcDbArc
 50
180.0
 51
270.0
  0
ARC
  5
69BA
330
1F
100
AcDbEntity
  8
Rüttler
100
AcDbCircle
 10
7348.230462030227
 20
4145.029371191561
 30
0.0
 40
2.5
100
AcDbArc
 50
180.0
 51
270.0
  0
LINE
  5
69BB
330
1F
100
AcDbEntity
  8
0
100
AcDbLine
 10
7386.230462030228
 20
4119.029013931431
 30
0.0
 11
7386.230462030228
 21
4116.029728451691
 31
0.0
  0
CIRCLE
  5
69BC
330
1F
100
AcDbEntity
  8
0
100
AcDbCircle
 10
7386.230462030228
 20
4117.529371191561
 30
0.0
 40
0.95
  0
LINE
  5
69BD
330
1F
100
AcDbEntity
  8
0
100
AcDbLine
 10
7384.730819290358
 20
4117.529371191561
 30
0.0
 11
7387.730104770098
 21
4117.529371191561
 31
0.0
  0
LINE
  5
69BE
330
1F
100
AcDbEntity
  8
Rüttler
100
AcDbLine
 10
7372.730462030228
 20
4142.529371191561
 30
0.0
 11
7396.730462030227
 21
4142.529371191561
 31
0.0
  0
LINE
  5
69BF
330
1F
100
AcDbEntity
  8
Rüttler
100
AcDbLine
 10
7358.230462030228
 20
4140.029371191561
 30
0.0
 11
7370.230462030227
 21
4140.029371191561
 31
0.0
  0
LINE
  5
69C0
330
1F
100
AcDbEntity
  8
Rüttler
100
AcDbLine
 10
7355.730462030227
 20
4142.529371191561
 30
0.0
 11
7372.730462030228
 21
4142.529371191561
 31
0.0
  0
ARC
  5
69C1
330
1F
100
AcDbEntity
  8
Rüttler
100
AcDbCircle
 10
7356.230462030227
 20
4142.029371191561
 30
0.0
 40
2.0
100
AcDbArc
 50
270.0
 51
0.0
  0
ARC
  5
69C2
330
1F
100
AcDbEntity
  8
Rüttler
100
AcDbCircle
 10
7355.730462030227
 20
4145.029371191561
 30
0.0
 40
2.5
100
AcDbArc
 50
270.0
 51
0.0
  0
ARC
  5
69C3
330
1F
100
AcDbEntity
  8
Rüttler
100
AcDbCircle
 10
7372.230462030228
 20
4142.029371191561
 30
0.0
 40
2.0
100
AcDbArc
 50
180.0
 51
270.0
  0
ARC
  5
69C4
330
1F
100
AcDbEntity
  8
Rüttler
100
AcDbCircle
 10
7372.730462030228
 20
4145.029371191561
 30
0.0
 40
2.5
100
AcDbArc
 50
180.0
 51
270.0
  0
ARC
  5
69C5
330
1F
100
AcDbEntity
  8
Rüttler
100
AcDbCircle
 10
7388.230462030228
 20
4145.029371191561
 30
0.0
 40
2.5
100
AcDbArc
 50
180.0
 51
270.0
  0
ARC
  5
69C6
330
1F
100
AcDbEntity
  8
Rüttler
100
AcDbCircle
 10
7389.230462030228
 20
4145.029371191561
 30
0.0
 40
2.5
100
AcDbArc
 50
180.0
 51
270.0
  0
ARC
  5
69C7
330
1F
100
AcDbEntity
  8
Rüttler
100
AcDbCircle
 10
7379.230462030228
 20
4145.029371191561
 30
0.0
 40
2.5
100
AcDbArc
 50
270.0
 51
0.0
  0
ARC
  5
69C8
330
1F
100
AcDbEntity
  8
Rüttler
100
AcDbCircle
 10
7380.230462030228
 20
4145.029371191561
 30
0.0
 40
2.5
100
AcDbArc
 50
270.0
 51
0.0
  0
ARC
  5
69C9
330
1F
100
AcDbEntity
  8
Rüttler
100
AcDbCircle
 10
7396.730462030227
 20
4140.029371191561
 30
0.0
 40
2.5
100
AcDbArc
 50
90.0
 51
180.0
  0
ARC
  5
69CA
330
1F
100
AcDbEntity
  8
Rüttler
100
AcDbCircle
 10
7304.322331623339
 20
4317.72937119156
 30
0.0
 40
1.8
100
AcDbArc
 50
1.4999999999898
 51
90.0
  0
LINE
  5
69CB
330
1F
100
AcDbEntity
  8
AVERDECKTE
 48
50.0
100
AcDbLine
 10
7257.730462030227
 20
4319.77937119156
 30
0.0
 11
7260.730462030227
 21
4319.77937119156
 31
0.0
  0
LINE
  5
69CD
330
1F
100
AcDbEntity
  8
AVERDECKTE
 48
50.0
100
AcDbLine
 10
7257.730462030227
 20
4322.529371191561
 30
0.0
 11
7257.730462030227
 21
4319.77937119156
 31
0.0
  0
LINE
  5
69CE
330
1F
100
AcDbEntity
  8
AVERDECKTE
 48
50.0
100
AcDbLine
 10
7246.730462030225
 20
4322.52937119156
 30
0.0
 11
7257.730462030227
 21
4322.529371191561
 31
0.0
  0
LINE
  5
69D1
330
1F
100
AcDbEntity
  8
Rüttler
100
AcDbLine
 10
7282.33920925216
 20
4317.776489698515
 30
0.0
 11
7281.794213165362
 21
4296.963928820792
 31
0.0
  0
LINE
  5
69D2
330
1F
100
AcDbEntity
  8
Rüttler
100
AcDbLine
 10
7286.121714808294
 20
4317.776489698515
 30
0.0
 11
7286.666710895092
 21
4296.963928820792
 31
0.0
  0
LINE
  5
69D3
330
1F
100
AcDbEntity
  8
Rüttler
100
AcDbLine
 10
7302.33920925216
 20
4317.776489698515
 30
0.0
 11
7301.794213165361
 21
4296.963928820792
 31
0.0
  0
LINE
  5
69D4
330
1F
100
AcDbEntity
  8
Rüttler
100
AcDbLine
 10
7265.230462030228
 20
4325.02937119156
 30
0.0
 11
7265.230462030228
 21
4297.029371191561
 31
0.0
  0
ARC
  5
69D5
330
1F
100
AcDbEntity
  8
Rüttler
100
AcDbCircle
 10
7279.295069852922
 20
4297.029371191561
 30
0.0
 40
2.5
100
AcDbArc
 50
270.0
 51
358.5000000000102
  0
ARC
  5
69D6
330
1F
100
AcDbEntity
  8
Rüttler
100
AcDbCircle
 10
7267.730462030228
 20
4297.029371191561
 30
0.0
 40
2.5
100
AcDbArc
 50
180.0
 51
270.0
  0
LINE
  5
69D7
330
1F
100
AcDbEntity
  8
Rüttler
100
AcDbLine
 10
7267.730462030228
 20
4294.52937119156
 30
0.0
 11
7279.295069852922
 21
4294.52937119156
 31
0.0
  0
POINT
  5
69D8
330
1F
100
AcDbEntity
  8
Rüttler
  6
ByBlock
 62
     0
100
AcDbPoint
 10
7267.730462030228
 20
4294.52937119156
 30
0.0
  0
ARC
  5
69D9
330
1F
100
AcDbEntity
  8
Rüttler
100
AcDbCircle
 10
7299.295069852923
 20
4297.029371191561
 30
0.0
 40
2.5
100
AcDbArc
 50
270.0
 51
358.5000000000102
  0
ARC
  5
69DA
330
1F
100
AcDbEntity
  8
Rüttler
100
AcDbCircle
 10
7289.165854207531
 20
4297.029371191561
 30
0.0
 40
2.5
100
AcDbArc
 50
181.4999999999898
 51
270.0
  0
LINE
  5
69DB
330
1F
100
AcDbEntity
  8
Rüttler
100
AcDbLine
 10
7289.165854207531
 20
4294.52937119156
 30
0.0
 11
7299.295069852923
 21
4294.52937119156
 31
0.0
  0
LINE
  5
69DC
330
1F
100
AcDbEntity
  8
Rüttler
100
AcDbLine
 10
7260.730462030227
 20
4325.02937119156
 30
0.0
 11
7260.730462030227
 21
4319.77937119156
 31
0.0
  0
LINE
  5
69DD
330
1F
100
AcDbEntity
  8
Rüttler
100
AcDbLine
 10
7260.730462030227
 20
4325.02937119156
 30
0.0
 11
7265.230462030228
 21
4325.02937119156
 31
0.0
  0
LINE
  5
69DE
330
1F
100
AcDbEntity
  8
Rüttler
100
AcDbLine
 10
7284.138592437116
 20
4319.529371191561
 30
0.0
 11
7284.322331623339
 21
4319.529371191561
 31
0.0
  0
ARC
  5
69DF
330
1F
100
AcDbEntity
  8
Rüttler
100
AcDbCircle
 10
7284.322331623338
 20
4317.729371191561
 30
0.0
 40
1.8
100
AcDbArc
 50
1.4999999999898
 51
90.0
  0
ARC
  5
69E0
330
1F
100
AcDbEntity
  8
Rüttler
100
AcDbCircle
 10
7284.138592437116
 20
4317.729371191561
 30
0.0
 40
1.8
100
AcDbArc
 50
90.0
 51
178.5000000000102
  0
LINE
  5
69E1
330
1F
100
AcDbEntity
  8
Rüttler
100
AcDbLine
 10
7304.138592437116
 20
4319.529371191561
 30
0.0
 11
7304.322331623338
 21
4319.529371191561
 31
0.0
  0
ARC
  5
69E2
330
1F
100
AcDbEntity
  8
Rüttler
100
AcDbCircle
 10
7304.138592437117
 20
4317.72937119156
 30
0.0
 40
1.8
100
AcDbArc
 50
90.0
 51
178.5000000000102
  0
POINT
  5
69E3
330
1F
100
AcDbEntity
  8
Rüttler
  6
ByBlock
 62
     0
100
AcDbPoint
 10
7304.230462030226
 20
4319.529371191561
 30
0.0
  0
LINE
  5
69E4
330
1F
100
AcDbEntity
  8
Rüttler
100
AcDbLine
 10
7359.730462030228
 20
4328.02937119156
 30
0.0
 11
7358.853233657659
 21
4294.52937119156
 31
0.0
  0
LINE
  5
69E5
330
1F
100
AcDbEntity
  8
Rüttler
100
AcDbLine
 10
7349.165854207531
 20
4294.52937119156
 30
0.0
 11
7358.853233657659
 21
4294.52937119156
 31
0.0
  0
LINE
  5
69E6
330
1F
100
AcDbEntity
  8
Rüttler
100
AcDbLine
 10
7326.121714808294
 20
4317.776489698515
 30
0.0
 11
7326.666710895093
 21
4296.963928820792
 31
0.0
  0
LINE
  5
69E7
330
1F
100
AcDbEntity
  8
Rüttler
100
AcDbLine
 10
7342.339209252159
 20
4317.776489698515
 30
0.0
 11
7341.794213165361
 21
4296.963928820792
 31
0.0
  0
LINE
  5
69E8
330
1F
100
AcDbEntity
  8
Rüttler
100
AcDbLine
 10
7346.121714808294
 20
4317.776489698515
 30
0.0
 11
7346.666710895092
 21
4296.963928820792
 31
0.0
  0
LINE
  5
69E9
330
1F
100
AcDbEntity
  8
Rüttler
100
AcDbLine
 10
7306.121714808295
 20
4317.776489698515
 30
0.0
 11
7306.666710895092
 21
4296.963928820792
 31
0.0
  0
LINE
  5
69EA
330
1F
100
AcDbEntity
  8
Rüttler
100
AcDbLine
 10
7322.33920925216
 20
4317.776489698515
 30
0.0
 11
7321.794213165361
 21
4296.963928820792
 31
0.0
  0
ARC
  5
69EB
330
1F
100
AcDbEntity
  8
Rüttler
100
AcDbCircle
 10
7329.165854207531
 20
4297.029371191561
 30
0.0
 40
2.5
100
AcDbArc
 50
181.4999999999898
 51
270.0
  0
ARC
  5
69EC
330
1F
100
AcDbEntity
  8
Rüttler
100
AcDbCircle
 10
7309.165854207531
 20
4297.029371191561
 30
0.0
 40
2.5
100
AcDbArc
 50
181.4999999999898
 51
270.0
  0
ARC
  5
69ED
330
1F
100
AcDbEntity
  8
Rüttler
100
AcDbCircle
 10
7319.295069852923
 20
4297.029371191561
 30
0.0
 40
2.5
100
AcDbArc
 50
270.0
 51
358.5000000000102
  0
LINE
  5
69EE
330
1F
100
AcDbEntity
  8
Rüttler
100
AcDbLine
 10
7309.165854207531
 20
4294.52937119156
 30
0.0
 11
7319.295069852923
 21
4294.52937119156
 31
0.0
  0
ARC
  5
69EF
330
1F
100
AcDbEntity
  8
Rüttler
100
AcDbCircle
 10
7349.165854207531
 20
4297.029371191561
 30
0.0
 40
2.5
100
AcDbArc
 50
181.4999999999898
 51
270.0
  0
ARC
  5
69F0
330
1F
100
AcDbEntity
  8
Rüttler
100
AcDbCircle
 10
7339.295069852923
 20
4297.029371191562
 30
0.0
 40
2.5
100
AcDbArc
 50
270.0
 51
358.5000000000102
  0
LINE
  5
69F1
330
1F
100
AcDbEntity
  8
Rüttler
100
AcDbLine
 10
7329.165854207531
 20
4294.52937119156
 30
0.0
 11
7339.295069852923
 21
4294.529371191561
 31
0.0
  0
LINE
  5
69F2
330
1F
100
AcDbEntity
  8
Rüttler
100
AcDbLine
 10
7324.138592437115
 20
4319.529371191561
 30
0.0
 11
7324.322331623339
 21
4319.529371191561
 31
0.0
  0
ARC
  5
69F3
330
1F
100
AcDbEntity
  8
Rüttler
100
AcDbCircle
 10
7324.322331623339
 20
4317.729371191561
 30
0.0
 40
1.8
100
AcDbArc
 50
1.4999999999898
 51
90.0
  0
ARC
  5
69F4
330
1F
100
AcDbEntity
  8
Rüttler
100
AcDbCircle
 10
7324.138592437115
 20
4317.729371191561
 30
0.0
 40
1.8
100
AcDbArc
 50
90.0
 51
178.5000000000102
  0
LINE
  5
69F5
330
1F
100
AcDbEntity
  8
Rüttler
100
AcDbLine
 10
7344.138592437116
 20
4319.529371191562
 30
0.0
 11
7344.322331623338
 21
4319.529371191561
 31
0.0
  0
ARC
  5
69F6
330
1F
100
AcDbEntity
  8
Rüttler
100
AcDbCircle
 10
7344.138592437116
 20
4317.729371191561
 30
0.0
 40
1.8
100
AcDbArc
 50
90.0
 51
178.5000000000102
  0
ARC
  5
69F7
330
1F
100
AcDbEntity
  8
Rüttler
100
AcDbCircle
 10
7344.322331623338
 20
4317.729371191561
 30
0.0
 40
1.8
100
AcDbArc
 50
1.4999999999898
 51
90.0
  0
LINE
  5
69F9
330
1F
100
AcDbEntity
  8
Rüttler
100
AcDbLine
 10
7359.730462030228
 20
4328.02937119156
 30
0.0
 11
7459.664311641323
 21
4328.02937119156
 31
0.0
  0
LINE
  5
69FD
330
1F
100
AcDbEntity
  8
Rüttler
100
AcDbLine
 10
7455.230462030228
 20
4209.52937119156
 30
0.0
 11
7455.230462030228
 21
4142.529371191561
 31
0.0
  0
LINE
  5
69FE
330
1F
100
AcDbEntity
  8
Rüttler
100
AcDbLine
 10
7421.730462030229
 20
4276.663440922443
 30
0.0
 11
7421.730462030227
 21
4145.029371191561
 31
0.0
  0
LINE
  5
69FF
330
1F
100
AcDbEntity
  8
Rüttler
100
AcDbLine
 10
7426.730462030228
 20
4280.124763851154
 30
0.0
 11
7426.730462030228
 21
4145.029371191561
 31
0.0
  0
LINE
  5
6A00
330
1F
100
AcDbEntity
  8
Rüttler
100
AcDbLine
 10
7446.730462030228
 20
4296.450298021533
 30
0.0
 11
7446.730462030227
 21
4145.029371191561
 31
0.0
  0
LINE
  5
6A01
330
1F
100
AcDbEntity
  8
Rüttler
100
AcDbLine
 10
7441.730462030228
 20
4296.450298021555
 30
0.0
 11
7441.730462030228
 21
4145.029371191561
 31
0.0
  0
LINE
  5
6A02
330
1F
100
AcDbEntity
  8
Rüttler
100
AcDbLine
 10
7463.230462030228
 20
4325.02937119156
 30
0.0
 11
7463.230462030228
 21
4137.52937119156
 31
0.0
  0
LINE
  5
6A03
330
1F
100
AcDbEntity
  8
Rüttler
100
AcDbLine
 10
7422.730462030227
 20
4282.357518462536
 30
0.0
 11
7422.730462030227
 21
4145.029371191561
 31
0.0
  0
LINE
  5
6A04
330
1F
100
AcDbEntity
  8
Rüttler
100
AcDbLine
 10
7425.730462030228
 20
4282.357518462536
 30
0.0
 11
7425.730462030228
 21
4145.029371191561
 31
0.0
  0
LINE
  5
6A05
330
1F
100
AcDbEntity
  8
Rüttler
100
AcDbLine
 10
7442.730462030228
 20
4306.352246847093
 30
0.0
 11
7442.730462030228
 21
4145.029371191561
 31
0.0
  0
LINE
  5
6A06
330
1F
100
AcDbEntity
  8
Rüttler
100
AcDbLine
 10
7445.730462030228
 20
4306.352246847093
 30
0.0
 11
7445.730462030228
 21
4145.029371191561
 31
0.0
  0
LINE
  5
6A07
330
1F
100
AcDbEntity
  8
Rüttler
100
AcDbLine
 10
7401.730462030228
 20
4276.663440922443
 30
0.0
 11
7401.730462030228
 21
4145.029371191561
 31
0.0
  0
LINE
  5
6A08
330
1F
100
AcDbEntity
  8
Rüttler
100
AcDbLine
 10
7406.730462030228
 20
4276.663440922443
 30
0.0
 11
7406.730462030228
 21
4145.029371191561
 31
0.0
  0
LINE
  5
6A09
330
1F
100
AcDbEntity
  8
Rüttler
100
AcDbLine
 10
7402.730462030227
 20
4282.357518462536
 30
0.0
 11
7402.730462030227
 21
4145.029371191561
 31
0.0
  0
LINE
  5
6A0A
330
1F
100
AcDbEntity
  8
Rüttler
100
AcDbLine
 10
7405.730462030227
 20
4282.357518462536
 30
0.0
 11
7405.730462030227
 21
4145.029371191561
 31
0.0
  0
LINE
  5
6A0B
330
1F
100
AcDbEntity
  8
Rüttler
100
AcDbLine
 10
7475.730462030227
 20
4163.004884616712
 30
0.0
 11
7475.730462030227
 21
4148.582419623789
 31
0.0
  0
LWPOLYLINE
  5
6A0C
330
1F
100
AcDbEntity
  8
Rüttler
100
AcDbPolyline
 90
       16
 70
     1
 43
0.0
 10
7479.539700264992
 20
4153.064780517413
 42
0.1152473474875003
 10
7479.261117059209
 20
4154.257359276305
 42
0.1039261918609342
 10
7478.424000217184
 20
4155.322552219089
 42
0.0911095336308345
 10
7477.217111219072
 20
4156.007010371406
 42
0.0837397361705116
 10
7475.730462030227
 20
4156.257751878666
 42
0.0837397361704992
 10
7474.243812841383
 20
4156.007010371406
 42
0.0911095336308369
 10
7473.03692384327
 20
4155.322552219089
 42
0.103926191860964
 10
7472.199807001245
 20
4154.257359276305
 42
0.1152473474875286
 10
7471.921223795462
 20
4153.064780517413
 42
0.1152473474875163
 10
7472.199807001245
 20
4151.872201758521
 42
0.1039261918609735
 10
7473.03692384327
 20
4150.807008815737
 42
0.0911095336308524
 10
7474.243812841383
 20
4150.122550663422
 42
0.0837397361705303
 10
7475.730462030227
 20
4149.87180915616
 42
0.0837397361705148
 10
7477.217111219072
 20
4150.122550663422
 42
0.0911095336308444
 10
7478.424000217184
 20
4150.807008815737
 42
0.1039261918609476
 10
7479.261117059209
 20
4151.872201758521
 42
0.1152473474875057
  0
ARC
  5
6A0D
330
1F
100
AcDbEntity
  8
Rüttler
100
AcDbCircle
 10
7448.230462030227
 20
4145.029371191561
 30
0.0
 40
2.5
100
AcDbArc
 50
180.0
 51
270.0
  0
ARC
  5
6A0E
330
1F
100
AcDbEntity
  8
Rüttler
100
AcDbCircle
 10
7449.230462030228
 20
4145.029371191561
 30
0.0
 40
2.5
100
AcDbArc
 50
180.0
 51
270.0
  0
ARC
  5
6A0F
330
1F
100
AcDbEntity
  8
AVERDECKTE
 48
50.0
100
AcDbCircle
 10
7401.730462030227
 20
4120.029371191561
 30
0.0
 40
2.5
100
AcDbArc
 50
0.0
 51
90.0
  0
LINE
  5
6A10
330
1F
100
AcDbEntity
  8
AVERDECKTE
 48
50.0
100
AcDbLine
 10
7401.730462030228
 20
4140.52937119156
 30
0.0
 11
7446.730462030227
 21
4140.52937119156
 31
0.0
  0
ARC
  5
6A11
330
1F
100
AcDbEntity
  8
Rüttler
100
AcDbCircle
 10
7409.230462030227
 20
4145.029371191561
 30
0.0
 40
2.5
100
AcDbArc
 50
180.0
 51
270.0
  0
LINE
  5
6A12
330
1F
100
AcDbEntity
  8
AVERDECKTE
 48
50.0
100
AcDbLine
 10
7401.730462030228
 20
4142.529371191561
 30
0.0
 11
7401.730462030228
 21
4140.52937119156
 31
0.0
  0
ARC
  5
6A13
330
1F
100
AcDbEntity
  8
Rüttler
100
AcDbCircle
 10
7400.230462030227
 20
4145.029371191561
 30
0.0
 40
2.5
100
AcDbArc
 50
270.0
 51
0.0
  0
ARC
  5
6A14
330
1F
100
AcDbEntity
  8
Rüttler
100
AcDbCircle
 10
7408.230462030227
 20
4145.029371191561
 30
0.0
 40
2.5
100
AcDbArc
 50
180.0
 51
270.0
  0
ARC
  5
6A15
330
1F
100
AcDbEntity
  8
Rüttler
100
AcDbCircle
 10
7419.230462030228
 20
4145.029371191561
 30
0.0
 40
2.5
100
AcDbArc
 50
270.0
 51
0.0
  0
ARC
  5
6A16
330
1F
100
AcDbEntity
  8
Rüttler
100
AcDbCircle
 10
7420.230462030227
 20
4145.029371191561
 30
0.0
 40
2.5
100
AcDbArc
 50
270.0
 51
0.0
  0
ARC
  5
6A17
330
1F
100
AcDbEntity
  8
Rüttler
100
AcDbCircle
 10
7428.230462030227
 20
4145.029371191561
 30
0.0
 40
2.5
100
AcDbArc
 50
180.0
 51
270.0
  0
ARC
  5
6A18
330
1F
100
AcDbEntity
  8
Rüttler
100
AcDbCircle
 10
7429.230462030227
 20
4145.029371191561
 30
0.0
 40
2.5
100
AcDbArc
 50
180.0
 51
270.0
  0
LINE
  5
6A19
330
1F
100
AcDbEntity
  8
AVERDECKTE
 48
50.0
100
AcDbLine
 10
7446.730462030227
 20
4142.529371191561
 30
0.0
 11
7446.730462030227
 21
4140.52937119156
 31
0.0
  0
ARC
  5
6A1A
330
1F
100
AcDbEntity
  8
Rüttler
100
AcDbCircle
 10
7439.230462030228
 20
4145.029371191561
 30
0.0
 40
2.5
100
AcDbArc
 50
270.0
 51
0.0
  0
ARC
  5
6A1B
330
1F
100
AcDbEntity
  8
Rüttler
100
AcDbCircle
 10
7440.230462030227
 20
4145.029371191561
 30
0.0
 40
2.5
100
AcDbArc
 50
270.0
 51
0.0
  0
ARC
  5
6A1C
330
1F
100
AcDbEntity
  8
Rüttler
100
AcDbCircle
 10
7458.230462030228
 20
4137.52937119156
 30
0.0
 40
5.0
100
AcDbArc
 50
0.0
 51
90.0
  0
LINE
  5
6A1D
330
1F
100
AcDbEntity
  8
Rüttler
100
AcDbLine
 10
7486.877016385351
 20
4153.064780517413
 30
0.0
 11
7465.751856158295
 21
4153.064780517413
 31
0.0
  0
LWPOLYLINE
  5
6A1E
330
1F
100
AcDbEntity
  8
Rüttler
100
AcDbPolyline
 90
       16
 70
     1
 43
0.0
 10
7477.930440666629
 20
4153.064780517413
 42
0.1129097447109814
 10
7477.768600744643
 20
4153.772322139587
 42
0.1033410160611244
 10
7477.286081842492
 20
4154.399610197274
 42
0.0921750902238399
 10
7476.58704097142
 20
4154.804816276151
 42
0.0855826990582644
 10
7475.730462030227
 20
4154.952514754131
 42
0.08558269905827
 10
7474.873883089036
 20
4154.804816276151
 42
0.0921750902238577
 10
7474.174842217962
 20
4154.399610197274
 42
0.1033410160611022
 10
7473.692323315811
 20
4153.772322139587
 42
0.1129097447109726
 10
7473.530483393827
 20
4153.064780517413
 42
0.1129097447109726
 10
7473.692323315811
 20
4152.357238895239
 42
0.1033410160611022
 10
7474.174842217962
 20
4151.729950837553
 42
0.0921750902238221
 10
7474.873883089036
 20
4151.324744758675
 42
0.0855826990582588
 10
7475.730462030227
 20
4151.177046280696
 42
0.0855826990582431
 10
7476.58704097142
 20
4151.324744758675
 42
0.0921750902238445
 10
7477.286081842492
 20
4151.729950837553
 42
0.1033410160611313
 10
7477.768600744643
 20
4152.357238895239
 42
0.1129097447110112
  0
POINT
  5
6A1F
330
1F
100
AcDbEntity
  8
Rüttler
  6
ByBlock
 62
     0
100
AcDbPoint
 10
7426.730462030228
 20
4209.52937119156
 30
0.0
  0
POINT
  5
6A20
330
1F
100
AcDbEntity
  8
Rüttler
  6
ByBlock
 62
     0
100
AcDbPoint
 10
7440.981057159331
 20
4209.52937119156
 30
0.0
  0
LINE
  5
6A21
330
1F
100
AcDbEntity
  8
Rüttler
100
AcDbLine
 10
7459.730462030228
 20
4328.02937119156
 30
0.0
 11
7459.730462030228
 21
4325.02937119156
 31
0.0
  0
LINE
  5
6A25
330
1F
100
AcDbEntity
  8
AVERDECKTE
 48
50.0
100
AcDbLine
 10
7470.730462030228
 20
4322.529371191561
 30
0.0
 11
7472.730462030227
 21
4322.529371191561
 31
0.0
  0
LINE
  5
6A26
330
1F
100
AcDbEntity
  8
Rüttler
100
AcDbLine
 10
7467.730462030228
 20
4325.02937119156
 30
0.0
 11
7467.730462030228
 21
4319.77937119156
 31
0.0
  0
LINE
  5
6A27
330
1F
100
AcDbEntity
  8
AVERDECKTE
 48
50.0
100
AcDbLine
 10
7470.730462030228
 20
4322.529371191561
 30
0.0
 11
7470.730462030228
 21
4319.77937119156
 31
0.0
  0
LINE
  5
6A28
330
1F
100
AcDbEntity
  8
AVERDECKTE
 48
50.0
100
AcDbLine
 10
7467.730462030228
 20
4319.77937119156
 30
0.0
 11
7470.730462030228
 21
4319.77937119156
 31
0.0
  0
POINT
  5
6A29
330
1F
100
AcDbEntity
  8
AVERDECKTE
 48
50.0
100
AcDbPoint
 10
7467.730462030228
 20
4319.77937119156
 30
0.0
  0
LINE
  5
6A2A
330
1F
100
AcDbEntity
  8
Rüttler
100
AcDbLine
 10
7459.730462030228
 20
4325.02937119156
 30
0.0
 11
7467.730462030228
 21
4325.02937119156
 31
0.0
  0
LINE
  5
6A2B
330
1F
100
AcDbEntity
  8
AVERDECKTE
 48
50.0
100
AcDbLine
 10
7478.730462030227
 20
4322.529371191561
 30
0.0
 11
7481.730462030228
 21
4322.529371191561
 31
0.0
  0
LINE
  5
6A2C
330
1F
100
AcDbEntity
  8
AVERDECKTE
 48
50.0
100
AcDbLine
 10
7472.730462030227
 20
4322.529371191561
 30
0.0
 11
7478.730462030227
 21
4322.529371191561
 31
0.0
  0
LINE
  5
6C4C
330
1F
100
AcDbEntity
  8
Rüttler
100
AcDbLine
 10
7363.8227983407
 20
4339.029371191561
 30
0.0
 11
7455.638125719755
 21
4339.029371191561
 31
0.0
  0
LINE
  5
6C4D
330
1F
100
AcDbEntity
  8
Rüttler
100
AcDbLine
 10
7359.638125719754
 20
4329.029371191561
 30
0.0
 11
7459.638125719753
 21
4329.029371191561
 31
0.0
  0
LINE
  5
6C4E
330
1F
100
AcDbEntity
  8
Rüttler
100
AcDbLine
 10
7438.365741733493
 20
4279.185943850884
 30
0.0
 11
7428.683080018583
 21
4279.185943850884
 31
0.0
  0
LINE
  5
6C4F
330
1F
100
AcDbEntity
  8
Rüttler
100
AcDbLine
 10
7359.638125719754
 20
4329.029371191561
 30
0.0
 11
7358.448914576837
 21
4283.615229864671
 31
0.0
  0
ARC
  5
6C50
330
1F
100
AcDbEntity
  8
Rüttler
100
AcDbCircle
 10
7403.730462030228
 20
4308.029371191561
 30
0.0
 40
22.0
100
AcDbArc
 50
114.6199773286481
 51
65.38002267135191
  0
LINE
  5
6C51
330
1F
100
AcDbEntity
  8
ACHSEN
 48
10.0
100
AcDbLine
 10
7403.730462030228
 20
4335.093399450982
 30
0.0
 11
7403.730462030228
 21
4280.96534293214
 31
0.0
  0
LINE
  5
6C52
330
1F
100
AcDbEntity
  8
ACHSEN
 48
10.0
100
AcDbLine
 10
7376.666433770806
 20
4308.029371191561
 30
0.0
 11
7430.794490289649
 21
4308.029371191561
 31
0.0
  0
ARC
  5
6C53
330
1F
100
AcDbEntity
  8
Rüttler
100
AcDbCircle
 10
7390.230462030228
 20
4265.421037153318
 30
0.0
 40
2.5
100
AcDbArc
 50
90.0
 51
180.0
  0
ARC
  5
6C5B
330
1F
100
AcDbEntity
  8
Rüttler
100
AcDbCircle
 10
7355.949771264397
 20
4283.68067223544
 30
0.0
 40
2.5
100
AcDbArc
 50
281.575590974346
 51
358.4999999999581
  0
LINE
  5
6C5D
330
1F
100
AcDbEntity
  8
Rüttler
100
AcDbLine
 10
7386.230462030228
 20
4281.034642807003
 30
0.0
 11
7387.730462030228
 21
4267.921037153318
 31
0.0
  0
ARC
  5
6C60
330
1F
100
AcDbEntity
  8
Rüttler
100
AcDbCircle
 10
7379.777844041865
 20
4281.685943850883
 30
0.0
 40
2.5
100
AcDbArc
 50
270.0
 51
351.6781491454955
  0
ARC
  5
6C61
330
1F
100
AcDbEntity
  8
Rüttler
100
AcDbCircle
 10
7384.230462030227
 20
4281.034642807003
 30
0.0
 40
2.0
100
AcDbArc
 50
0.0
 51
171.6781491454956
  0
LINE
  5
6C62
330
1F
100
AcDbEntity
  8
Rüttler
100
AcDbLine
 10
7382.230462030228
 20
4281.034642807003
 30
0.0
 11
7382.230462030228
 21
4277.836235293775
 31
0.0
  0
LINE
  5
6C69
330
1F
100
AcDbEntity
  8
Rüttler
100
AcDbLine
 10
7418.230462030227
 20
4267.921037153318
 30
0.0
 11
7410.230462030227
 21
4267.921037153318
 31
0.0
  0
LINE
  5
6C6A
330
1F
100
AcDbEntity
  8
Rüttler
100
AcDbLine
 10
7406.230462030227
 20
4281.034642807003
 30
0.0
 11
7407.730462030227
 21
4267.921037153318
 31
0.0
  0
LINE
  5
6C6B
330
1F
100
AcDbEntity
  8
Rüttler
100
AcDbLine
 10
7402.230462030228
 20
4281.034642807003
 30
0.0
 11
7400.730462030228
 21
4267.921037153318
 31
0.0
  0
ARC
  5
6C6C
330
1F
100
AcDbEntity
  8
Rüttler
100
AcDbCircle
 10
7398.230462030227
 20
4265.421037153318
 30
0.0
 40
2.5
100
AcDbArc
 50
0.0
 51
90.0
  0
LINE
  5
6C6D
330
1F
100
AcDbEntity
  8
Rüttler
100
AcDbLine
 10
7398.230462030227
 20
4267.921037153318
 30
0.0
 11
7390.230462030228
 21
4267.921037153318
 31
0.0
  0
ARC
  5
6C6E
330
1F
100
AcDbEntity
  8
Rüttler
100
AcDbCircle
 10
7410.230462030227
 20
4265.421037153318
 30
0.0
 40
2.5
100
AcDbArc
 50
90.0
 51
180.0
  0
ARC
  5
6C6F
330
1F
100
AcDbEntity
  8
Rüttler
100
AcDbCircle
 10
7404.230462030227
 20
4281.034642807003
 30
0.0
 40
2.0
100
AcDbArc
 50
0.0
 51
180.0
  0
LINE
  5
6C70
330
1F
100
AcDbEntity
  8
Rüttler
100
AcDbLine
 10
7422.230462030228
 20
4281.034642807003
 30
0.0
 11
7420.730462030228
 21
4267.921037153318
 31
0.0
  0
ARC
  5
6C71
330
1F
100
AcDbEntity
  8
Rüttler
100
AcDbCircle
 10
7418.230462030227
 20
4265.421037153318
 30
0.0
 40
2.5
100
AcDbArc
 50
0.0
 51
90.0
  0
ARC
  5
6C72
330
1F
100
AcDbEntity
  8
Rüttler
100
AcDbCircle
 10
7424.230462030227
 20
4281.034642807003
 30
0.0
 40
2.0
100
AcDbArc
 50
8.321850854511881
 51
180.0
  0
ARC
  5
6C73
330
1F
100
AcDbEntity
  8
Rüttler
100
AcDbCircle
 10
7428.683080018583
 20
4281.685943850884
 30
0.0
 40
2.5
100
AcDbArc
 50
188.3218508545043
 51
270.0
  0
LINE
  5
6C74
330
1F
100
AcDbEntity
  8
Rüttler
100
AcDbLine
 10
7426.230462030227
 20
4281.034642807003
 30
0.0
 11
7426.230462030227
 21
4277.836235293775
 31
0.0
  0
CIRCLE
  5
6C75
330
1F
100
AcDbEntity
  8
Rüttler
100
AcDbCircle
 10
7403.730462030228
 20
4308.029371191561
 30
0.0
 40
13.0
  0
CIRCLE
  5
6C76
330
1F
100
AcDbEntity
  8
Rüttler
100
AcDbCircle
 10
7403.730462030228
 20
4308.029371191561
 30
0.0
 40
8.75
  0
ARC
  5
6C77
330
1F
100
AcDbEntity
  8
Rüttler
100
AcDbCircle
 10
7363.8227983407
 20
4335.029371191561
 30
0.0
 40
4.0
100
AcDbArc
 50
90.0
 51
178.5000000000102
  0
LINE
  5
6C78
330
1F
100
AcDbEntity
  8
Rüttler
100
AcDbLine
 10
7359.824169040798
 20
4335.134078984792
 30
0.0
 11
7359.664311641323
 21
4329.029371191561
 31
0.0
  0
LINE
  5
6C7A
330
1F
100
AcDbEntity
  8
Rüttler
100
AcDbLine
 10
7459.638125719753
 20
4329.029371191561
 30
0.0
 11
7460.827336862671
 21
4283.615229864671
 31
0.0
  0
LINE
  5
6C7B
330
1F
100
AcDbEntity
  8
Rüttler
100
AcDbLine
 10
7446.230462030228
 20
4305.029371191561
 30
0.0
 11
7447.599045852853
 21
4281.547009684381
 31
0.0
  0
LINE
  5
6C7C
330
1F
100
AcDbEntity
  8
Rüttler
100
AcDbLine
 10
7442.230462030227
 20
4305.029371191561
 30
0.0
 11
7440.861878207602
 21
4281.547009684383
 31
0.0
  0
ARC
  5
6C7D
330
1F
100
AcDbEntity
  8
Rüttler
100
AcDbCircle
 10
7438.365741733493
 20
4281.685943850884
 30
0.0
 40
2.5
100
AcDbArc
 50
270.0
 51
356.8142221712026
  0
ARC
  5
6C7E
330
1F
100
AcDbEntity
  8
Rüttler
100
AcDbCircle
 10
7450.095182326963
 20
4281.685943850883
 30
0.0
 40
2.5
100
AcDbArc
 50
183.1857778287453
 51
270.0
  0
ARC
  5
6C7F
330
1F
100
AcDbEntity
  8
Rüttler
100
AcDbCircle
 10
7463.326480175111
 20
4283.68067223544
 30
0.0
 40
2.5
100
AcDbArc
 50
181.4999999999898
 51
270.0
  0
ARC
  5
6C81
330
1F
100
AcDbEntity
  8
Rüttler
100
AcDbCircle
 10
7444.230462030228
 20
4305.029371191561
 30
0.0
 40
2.0
100
AcDbArc
 50
0.0
 51
180.0
  0
LINE
  5
6C84
330
1F
100
AcDbEntity
  8
Rüttler
100
AcDbLine
 10
7459.638125719753
 20
4335.029371191561
 30
0.0
 11
7459.638125719753
 21
4329.029371191561
 31
0.0
  0
ARC
  5
6C85
330
1F
100
AcDbEntity
  8
Rüttler
100
AcDbCircle
 10
7455.638125719755
 20
4335.029371191561
 30
0.0
 40
4.0
100
AcDbArc
 50
0.0
 51
90.0
  0
LINE
  5
6C91
330
1F
100
AcDbEntity
  8
Rüttler
100
AcDbLine
 10
7358.230462030228
 20
4264.301626942081
 30
0.0
 11
7370.230462030227
 21
4264.301626942081
 31
0.0
  0
ARC
  5
6C92
330
1F
100
AcDbEntity
  8
Rüttler
100
AcDbCircle
 10
7356.230462030227
 20
4262.301626942082
 30
0.0
 40
2.0
100
AcDbArc
 50
0.0
 51
90.00000000000001
  0
ARC
  5
6C93
330
1F
100
AcDbEntity
  8
Rüttler
100
AcDbCircle
 10
7372.230462030228
 20
4262.301626942082
 30
0.0
 40
2.0
100
AcDbArc
 50
90.00000000000001
 51
180.0
  0
ARC
  5
6C9A
330
1F
100
AcDbEntity
  8
Rüttler
100
AcDbCircle
 10
6580.730462030228
 20
4209.52937119156
 30
0.0
 40
1000.0
100
AcDbArc
 50
353.8369116885837
 51
6.163088311416228
  0
LINE
  5
6C9B
330
1F
100
AcDbEntity
  8
Rüttler
100
AcDbLine
 10
7467.730462030228
 20
4324.029371191561
 30
0.0
 11
7566.99703350064
 21
4324.029371191561
 31
0.0
  0
LINE
  5
6C9C
330
1F
100
AcDbEntity
  8
Rüttler
100
AcDbLine
 10
7467.730462030228
 20
4095.029371191561
 30
0.0
 11
7566.99703350064
 21
4095.029371191561
 31
0.0
  0
ARC
  5
6C9D
330
1F
100
AcDbEntity
  8
Rüttler
100
AcDbCircle
 10
7566.99703350064
 20
4103.029371191561
 30
0.0
 40
8.0
100
AcDbArc
 50
270.0
 51
353.8369116885837
  0
ARC
  5
6C9E
330
1F
100
AcDbEntity
  8
Rüttler
100
AcDbCircle
 10
7566.99703350064
 20
4316.029371191561
 30
0.0
 40
8.0
100
AcDbArc
 50
6.163088311416228
 51
90.0
  0
ARC
  5
6C9F
330
1F
100
AcDbEntity
  8
Rüttler
100
AcDbCircle
 10
7161.463890559817
 20
4316.029371191561
 30
0.0
 40
8.0
100
AcDbArc
 50
90.0
 51
173.8369116885837
  0
ARC
  5
6CA0
330
1F
100
AcDbEntity
  8
Rüttler
100
AcDbCircle
 10
7161.463890559817
 20
4103.029371191561
 30
0.0
 40
8.0
100
AcDbArc
 50
186.1630883114162
 51
270.0
  0
ARC
  5
6CA1
330
1F
100
AcDbEntity
  8
Rüttler
100
AcDbCircle
 10
8147.730462030228
 20
4209.52937119156
 30
0.0
 40
1000.0
100
AcDbArc
 50
173.8369116885837
 51
186.1630883114162
  0
LINE
  5
6CA2
330
1F
100
AcDbEntity
  8
Rüttler
100
AcDbLine
 10
7260.730462030227
 20
4095.029371191561
 30
0.0
 11
7161.463890559817
 21
4095.029371191561
 31
0.0
  0
LINE
  5
6CA3
330
1F
100
AcDbEntity
  8
Rüttler
100
AcDbLine
 10
7260.730462030227
 20
4324.029371191561
 30
0.0
 11
7161.463890559817
 21
4324.029371191561
 31
0.0
  0
LINE
  5
6CA9
330
1F
100
AcDbEntity
  8
Rüttler
100
AcDbLine
 10
7459.777844041875
 20
4279.185943850882
 30
0.0
 11
7450.095182326963
 21
4279.185943850882
 31
0.0
  0
LINE
  5
6CAA
330
1F
100
AcDbEntity
  8
Rüttler
100
AcDbLine
 10
7381.730462030228
 20
4308.029371191561
 30
0.0
 11
7381.730462030228
 21
4283.034642807003
 31
0.0
  0
LINE
  5
6CAB
330
1F
100
AcDbEntity
  8
Rüttler
100
AcDbLine
 10
7425.730462030228
 20
4308.029371191561
 30
0.0
 11
7425.730462030228
 21
4283.034642807003
 31
0.0
  0
LINE
  5
6CAD
330
1F
100
AcDbEntity
  8
Rüttler
100
AcDbLine
 10
7381.730462030228
 20
4283.034642807003
 30
0.0
 11
7425.730462030228
 21
4283.034642807003
 31
0.0
  0
LINE
  5
6D7F
330
1F
100
AcDbEntity
  8
0
370
    18
100
AcDbLine
 10
7380.341284138842
 20
4114.347029991653
 30
0.0
 11
7381.333866365773
 21
4118.051397293243
 31
0.0
  0
ARC
  5
6D80
330
1F
100
AcDbEntity
  8
0
370
    18
100
AcDbCircle
 10
7389.155976446177
 20
4114.227635322558
 30
0.0
 40
8.224997010073714
100
AcDbArc
 50
157.387404400784
 51
171.020015179947
  0
ARC
  5
6D81
330
1F
100
AcDbEntity
  8
0
370
    18
100
AcDbCircle
 10
7381.97880302626
 20
4115.361817957321
 30
0.0
 40
0.9587608077068694
100
AcDbArc
 50
171.020015179947
 51
262.0635437036924
  0
LINE
  5
6D82
330
1F
100
AcDbEntity
  8
0
370
    18
100
AcDbLine
 10
7381.333866365773
 20
4118.051397293243
 30
0.0
 11
7380.018495226214
 21
4118.051397293243
 31
0.0
  0
LWPOLYLINE
  5
6D83
330
1F
100
AcDbEntity
  8
0
370
    18
100
AcDbPolyline
 90
        4
 70
     1
 43
0.0
 10
7361.20351451286
 20
4113.758546064564
 10
7360.607965176702
 20
4111.535925683609
 10
7383.658971094806
 20
4111.535925683609
 10
7384.254520430964
 20
4113.758546064564
  0
LWPOLYLINE
  5
6D84
330
1F
100
AcDbEntity
  8
0
  6
Continuous
100
AcDbPolyline
 90
        4
 70
     1
 43
0.0
 10
7339.751769824596
 20
4109.035758776335
 10
7388.709154235859
 20
4109.035758776335
 10
7388.709154235859
 20
4126.022983606786
 10
7339.751769824596
 20
4126.022983606786
  0
LINE
  5
6D85
330
1F
100
AcDbEntity
  8
0
370
    18
100
AcDbLine
 10
7354.829754827675
 20
4114.347029991653
 30
0.0
 11
7353.100710496535
 21
4114.347029991653
 31
0.0
  0
ARC
  5
6D86
330
1F
100
AcDbEntity
  8
0
370
    18
100
AcDbCircle
 10
7353.244280149905
 20
4115.526443187387
 30
0.0
 40
0.4602051876992975
100
AcDbArc
 50
270.0
 51
334.2263645027551
  0
ARC
  5
6D87
330
1F
100
AcDbEntity
  8
0
370
    18
100
AcDbCircle
 10
7354.221858896959
 20
4103.584301208444
 30
0.0
 40
14.46807838019826
100
AcDbArc
 50
83.51735091136767
 51
95.92334440423565
  0
ARC
  5
6D88
330
1F
100
AcDbEntity
  8
0
370
    18
100
AcDbCircle
 10
7353.613991693531
 20
4116.628548195431
 30
0.0
 40
0.4602051876992975
100
AcDbArc
 50
93.02614479233071
 51
158.0969939507821
  0
LINE
  5
6D89
330
1F
100
AcDbEntity
  8
0
370
    18
100
AcDbLine
 10
7354.517777986592
 20
4122.424638950591
 30
0.0
 11
7353.256592139326
 21
4122.424638950591
 31
0.0
  0
LINE
  5
6D8A
330
1F
100
AcDbEntity
  8
0
370
    18
100
AcDbLine
 10
7352.264009912397
 20
4118.720271648999
 30
0.0
 11
7353.566571754107
 21
4118.720271648999
 31
0.0
  0
LINE
  5
6D8B
330
1F
100
AcDbEntity
  8
0
370
    18
100
AcDbLine
 10
7349.166232518051
 20
4118.051397293243
 30
0.0
 11
7349.875822532799
 21
4116.299238061713
 31
0.0
  0
LINE
  5
6D8C
330
1F
100
AcDbEntity
  8
0
370
    18
100
AcDbLine
 10
7349.394056356222
 20
4114.347029991653
 30
0.0
 11
7350.668101096527
 21
4114.347029991653
 31
0.0
  0
LINE
  5
6D8D
330
1F
100
AcDbEntity
  8
0
370
    18
100
AcDbLine
 10
7349.8446246493
 20
4120.435293292408
 30
0.0
 11
7349.385085984947
 21
4118.720271648999
 31
0.0
  0
LINE
  5
6D8E
330
1F
100
AcDbEntity
  8
0
370
    18
100
AcDbLine
 10
7350.377668211875
 20
4122.424638950591
 30
0.0
 11
7349.035403081088
 21
4122.424638950591
 31
0.0
  0
LINE
  5
6D8F
330
1F
100
AcDbEntity
  8
0
370
    18
100
AcDbLine
 10
7347.905046670785
 20
4118.051397293243
 30
0.0
 11
7346.912464443855
 21
4114.347029991653
 31
0.0
  0
LINE
  5
6D90
330
1F
100
AcDbEntity
  8
0
370
    18
100
AcDbLine
 10
7346.381458573604
 20
4114.347029991653
 30
0.0
 11
7346.654200873908
 21
4115.364918113749
 31
0.0
  0
LINE
  5
6D91
330
1F
100
AcDbEntity
  8
0
370
    18
100
AcDbLine
 10
7348.686921049773
 20
4116.108165227493
 30
0.0
 11
7348.215026285568
 21
4114.347029991653
 31
0.0
  0
LINE
  5
6D92
330
1F
100
AcDbEntity
  8
0
370
    18
100
AcDbLine
 10
7346.912464443855
 20
4114.347029991653
 30
0.0
 11
7348.215026285568
 21
4114.347029991653
 31
0.0
  0
LINE
  5
6D93
330
1F
100
AcDbEntity
  8
0
370
    18
100
AcDbLine
 10
7346.778512497526
 20
4115.82885540907
 30
0.0
 11
7346.976906552438
 21
4116.569272101916
 31
0.0
  0
LINE
  5
6D94
330
1F
100
AcDbEntity
  8
0
370
    18
100
AcDbLine
 10
7349.394056356222
 20
4114.347029991653
 30
0.0
 11
7348.686921049773
 21
4116.108165227493
 31
0.0
  0
LINE
  5
6D95
330
1F
100
AcDbEntity
  8
0
370
    18
100
AcDbLine
 10
7347.100953627187
 20
4117.032222087411
 30
0.0
 11
7347.374040800535
 21
4118.051397293243
 31
0.0
  0
LINE
  5
6D96
330
1F
100
AcDbEntity
  8
0
370
    18
100
AcDbLine
 10
7347.100953627187
 20
4117.032222087411
 30
0.0
 11
7344.597899559783
 21
4117.032222087411
 31
0.0
  0
LINE
  5
6D97
330
1F
100
AcDbEntity
  8
0
370
    18
100
AcDbLine
 10
7349.035403081088
 20
4122.424638950591
 30
0.0
 11
7348.042820854157
 21
4118.720271648999
 31
0.0
  0
LINE
  5
6D98
330
1F
100
AcDbEntity
  8
0
370
    18
100
AcDbLine
 10
7349.166232518051
 20
4118.051397293243
 30
0.0
 11
7347.905046670785
 21
4118.051397293243
 31
0.0
  0
LINE
  5
6D99
330
1F
100
AcDbEntity
  8
0
370
    18
100
AcDbLine
 10
7348.042820854157
 20
4118.720271648999
 30
0.0
 11
7349.385085984947
 21
4118.720271648999
 31
0.0
  0
LINE
  5
6D9A
330
1F
100
AcDbEntity
  8
0
370
    18
100
AcDbLine
 10
7350.668101096527
 20
4114.347029991653
 30
0.0
 11
7351.660683323458
 21
4118.051397293243
 31
0.0
  0
LINE
  5
6D9B
330
1F
100
AcDbEntity
  8
0
370
    18
100
AcDbLine
 10
7349.875822532799
 20
4116.299238061713
 30
0.0
 11
7350.345312183899
 21
4118.051397293243
 31
0.0
  0
ARC
  5
6D9C
330
1F
100
AcDbEntity
  8
0
370
    18
100
AcDbCircle
 10
7359.53537643136
 20
4114.227635322558
 30
0.0
 40
8.224997010073714
100
AcDbArc
 50
157.387404400784
 51
171.020015179947
  0
ARC
  5
6D9D
330
1F
100
AcDbEntity
  8
0
370
    18
100
AcDbCircle
 10
7358.959410633632
 20
4114.479377781343
 30
0.0
 40
6.22149298766157
100
AcDbArc
 50
158.0969939507821
 51
170.4856136403549
  0
ARC
  5
6D9E
330
1F
100
AcDbEntity
  8
0
370
    18
100
AcDbCircle
 10
7353.208811514817
 20
4121.463303856336
 30
0.0
 40
7.119253077153191
100
AcDbArc
 50
262.0635437036924
 51
271.65762504198
  0
LINE
  5
6D9F
330
1F
100
AcDbEntity
  8
0
370
    18
100
AcDbLine
 10
7353.202589928068
 20
4115.066237999687
 30
0.0
 11
7353.244280149905
 21
4115.066237999687
 31
0.0
  0
ARC
  5
6DA0
330
1F
100
AcDbEntity
  8
0
370
    18
100
AcDbCircle
 10
7353.202589928068
 20
4115.44974232277
 30
0.0
 40
0.3835043230827479
100
AcDbArc
 50
171.2985646492441
 51
270.0
  0
ARC
  5
6DA1
330
1F
100
AcDbEntity
  8
0
370
    18
100
AcDbCircle
 10
7352.358203011441
 20
4115.361817957321
 30
0.0
 40
0.9587608077068694
100
AcDbArc
 50
171.020015179947
 51
262.0635437036924
  0
LINE
  5
6DA2
330
1F
100
AcDbEntity
  8
0
370
    18
100
AcDbLine
 10
7351.27596000207
 20
4122.424638950591
 30
0.0
 11
7349.979868810625
 21
4120.940031373902
 31
0.0
  0
LINE
  5
6DA3
330
1F
100
AcDbEntity
  8
0
370
    18
100
AcDbLine
 10
7350.377668211875
 20
4122.424638950591
 30
0.0
 11
7349.979868810625
 21
4120.940031373902
 31
0.0
  0
LINE
  5
6DA4
330
1F
100
AcDbEntity
  8
0
370
    18
100
AcDbLine
 10
7352.870446311915
 20
4122.424638950591
 30
0.0
 11
7351.211448293034
 21
4120.52433977041
 31
0.0
  0
LINE
  5
6DA5
330
1F
100
AcDbEntity
  8
0
370
    18
100
AcDbLine
 10
7352.870446311915
 20
4122.424638950591
 30
0.0
 11
7351.27596000207
 21
4122.424638950591
 31
0.0
  0
LINE
  5
6DA6
330
1F
100
AcDbEntity
  8
0
370
    18
100
AcDbLine
 10
7351.660683323458
 20
4118.051397293243
 30
0.0
 11
7350.345312183899
 21
4118.051397293243
 31
0.0
  0
LINE
  5
6DA7
330
1F
100
AcDbEntity
  8
0
370
    18
100
AcDbLine
 10
7350.43726370169
 20
4118.720271648999
 30
0.0
 11
7351.877864084984
 21
4118.720271648999
 31
0.0
  0
ARC
  5
6DA8
330
1F
100
AcDbEntity
  8
0
370
    18
100
AcDbCircle
 10
7352.827726953555
 20
4117.021490549924
 30
0.0
 40
0.9587608077068694
100
AcDbArc
 50
95.92334440423565
 51
157.387404400784
  0
LINE
  5
6DA9
330
1F
100
AcDbEntity
  8
0
370
    18
100
AcDbLine
 10
7349.8446246493
 20
4120.435293292408
 30
0.0
 11
7350.473238173631
 21
4118.733560479905
 31
0.0
  0
LINE
  5
6DAA
330
1F
100
AcDbEntity
  8
0
370
    18
100
AcDbLine
 10
7353.256592139326
 20
4122.424638950591
 30
0.0
 11
7352.264009912397
 21
4118.720271648999
 31
0.0
  0
LINE
  5
6DAB
330
1F
100
AcDbEntity
  8
0
370
    18
100
AcDbLine
 10
7351.211448293034
 20
4120.52433977041
 30
0.0
 11
7351.877864084984
 21
4118.720271648999
 31
0.0
  0
LINE
  5
6DAC
330
1F
100
AcDbEntity
  8
0
370
    18
100
AcDbLine
 10
7343.578700858786
 20
4118.051397293243
 30
0.0
 11
7342.586118631856
 21
4114.347029991653
 31
0.0
  0
LINE
  5
6DAD
330
1F
100
AcDbEntity
  8
0
370
    18
100
AcDbLine
 10
7344.285734397489
 20
4115.82885540907
 30
0.0
 11
7344.161422773869
 21
4115.364918113749
 31
0.0
  0
LINE
  5
6DAE
330
1F
100
AcDbEntity
  8
0
370
    18
100
AcDbLine
 10
7344.285734397489
 20
4115.82885540907
 30
0.0
 11
7344.171698741236
 21
4115.403268546059
 31
0.0
  0
LINE
  5
6DAF
330
1F
100
AcDbEntity
  8
0
370
    18
100
AcDbLine
 10
7344.608175527149
 20
4117.032222087411
 30
0.0
 11
7344.484128452399
 21
4116.569272101916
 31
0.0
  0
LINE
  5
6DB0
330
1F
100
AcDbEntity
  8
0
370
    18
100
AcDbLine
 10
7342.586118631856
 20
4114.347029991653
 30
0.0
 11
7346.381458573604
 21
4114.347029991653
 31
0.0
  0
LINE
  5
6DB1
330
1F
100
AcDbEntity
  8
0
370
    18
100
AcDbLine
 10
7346.976906552438
 20
4116.569272101916
 30
0.0
 11
7344.484128452399
 21
4116.569272101916
 31
0.0
  0
LINE
  5
6DB2
330
1F
100
AcDbEntity
  8
0
370
    18
100
AcDbLine
 10
7344.161422773869
 20
4115.364918113749
 30
0.0
 11
7346.664476841272
 21
4115.364918113749
 31
0.0
  0
LINE
  5
6DB3
330
1F
100
AcDbEntity
  8
0
370
    18
100
AcDbLine
 10
7344.285734397489
 20
4115.82885540907
 30
0.0
 11
7346.778512497526
 21
4115.82885540907
 31
0.0
  0
LINE
  5
6DB4
330
1F
100
AcDbEntity
  8
0
370
    18
100
AcDbLine
 10
7347.374040800535
 20
4118.051397293243
 30
0.0
 11
7343.578700858786
 21
4118.051397293243
 31
0.0
  0
LWPOLYLINE
  5
6DB5
330
1F
100
AcDbEntity
  8
0
370
    18
100
AcDbPolyline
 90
        4
 70
     1
 43
0.0
 10
7344.431357641212
 20
4121.002641331259
 10
7343.835808305055
 20
4118.780020950304
 10
7347.287347212798
 20
4118.780020950304
 10
7347.882896548957
 20
4121.002641331259
  0
LINE
  5
6DB6
330
1F
100
AcDbEntity
  8
0
370
    18
100
AcDbLine
 10
7365.562654569024
 20
4114.347029991653
 30
0.0
 11
7369.357994510777
 21
4114.347029991653
 31
0.0
  0
LINE
  5
6DB7
330
1F
100
AcDbEntity
  8
0
370
    18
100
AcDbLine
 10
7367.137958711038
 20
4115.364918113749
 30
0.0
 11
7369.641012778443
 21
4115.364918113749
 31
0.0
  0
LINE
  5
6DB8
330
1F
100
AcDbEntity
  8
0
370
    18
100
AcDbLine
 10
7367.26227033466
 20
4115.82885540907
 30
0.0
 11
7369.755048434696
 21
4115.82885540907
 31
0.0
  0
LINE
  5
6DB9
330
1F
100
AcDbEntity
  8
0
370
    18
100
AcDbLine
 10
7366.979560445608
 20
4119.738159771098
 30
0.0
 11
7369.482614513014
 21
4119.738159771098
 31
0.0
  0
LINE
  5
6DBA
330
1F
100
AcDbEntity
  8
0
370
    18
100
AcDbLine
 10
7370.192178472274
 20
4122.424638950591
 30
0.0
 11
7366.396838530523
 21
4122.424638950591
 31
0.0
  0
LINE
  5
6DBB
330
1F
100
AcDbEntity
  8
0
370
    18
100
AcDbLine
 10
7370.350576737705
 20
4118.051397293243
 30
0.0
 11
7366.555236795957
 21
4118.051397293243
 31
0.0
  0
LINE
  5
6DBC
330
1F
100
AcDbEntity
  8
0
370
    18
100
AcDbLine
 10
7365.404256303595
 20
4118.720271648999
 30
0.0
 11
7369.199596245343
 21
4118.720271648999
 31
0.0
  0
LINE
  5
6DBD
330
1F
100
AcDbEntity
  8
0
370
    18
100
AcDbLine
 10
7367.103872069226
 20
4120.202097066417
 30
0.0
 11
7369.596650169265
 21
4120.202097066417
 31
0.0
  0
LINE
  5
6DBE
330
1F
100
AcDbEntity
  8
0
370
    18
100
AcDbLine
 10
7360.848558568712
 20
4114.347029991653
 30
0.0
 11
7361.84114079564
 21
4118.051397293243
 31
0.0
  0
ARC
  5
6DBF
330
1F
100
AcDbEntity
  8
0
370
    18
100
AcDbCircle
 10
7362.252516399141
 20
4119.740761633615
 30
0.0
 40
0.9587608077068694
100
AcDbArc
 50
165.0000000000055
 51
261.6882763531171
  0
LINE
  5
6DC0
330
1F
100
AcDbEntity
  8
0
370
    18
100
AcDbLine
 10
7361.84114079564
 20
4118.051397293243
 30
0.0
 11
7360.525769656082
 21
4118.051397293243
 31
0.0
  0
LINE
  5
6DC1
330
1F
100
AcDbEntity
  8
0
370
    18
100
AcDbLine
 10
7359.346689990234
 20
4118.051397293243
 30
0.0
 11
7360.056280004984
 21
4116.299238061713
 31
0.0
  0
LINE
  5
6DC2
330
1F
100
AcDbEntity
  8
0
370
    18
100
AcDbLine
 10
7360.056280004984
 20
4116.299238061713
 30
0.0
 11
7360.525769656082
 21
4118.051397293243
 31
0.0
  0
LINE
  5
6DC3
330
1F
100
AcDbEntity
  8
0
370
    18
100
AcDbLine
 10
7358.867378521956
 20
4116.108165227493
 30
0.0
 11
7358.39548375775
 21
4114.347029991653
 31
0.0
  0
LINE
  5
6DC4
330
1F
100
AcDbEntity
  8
0
370
    18
100
AcDbLine
 10
7359.574513828407
 20
4114.347029991653
 30
0.0
 11
7358.867378521956
 21
4116.108165227493
 31
0.0
  0
LINE
  5
6DC5
330
1F
100
AcDbEntity
  8
0
370
    18
100
AcDbLine
 10
7359.574513828407
 20
4114.347029991653
 30
0.0
 11
7360.848558568712
 21
4114.347029991653
 31
0.0
  0
LINE
  5
6DC6
330
1F
100
AcDbEntity
  8
0
370
    18
100
AcDbLine
 10
7361.046988685266
 20
4118.718335780791
 30
0.0
 11
7360.859661642556
 21
4122.424638950591
 31
0.0
  0
LINE
  5
6DC7
330
1F
100
AcDbEntity
  8
0
370
    18
100
AcDbLine
 10
7358.651999798898
 20
4120.052719381289
 30
0.0
 11
7359.675679419639
 21
4120.052719381289
 31
0.0
  0
LINE
  5
6DC8
330
1F
100
AcDbEntity
  8
0
370
    18
100
AcDbLine
 10
7358.651999798898
 20
4120.052719381289
 30
0.0
 11
7359.588956181152
 21
4121.768556075529
 31
0.0
  0
LINE
  5
6DC9
330
1F
100
AcDbEntity
  8
0
370
    18
100
AcDbLine
 10
7359.675679419639
 20
4120.052719381289
 30
0.0
 11
7359.588956181152
 21
4121.768556075529
 31
0.0
  0
LINE
  5
6DCA
330
1F
100
AcDbEntity
  8
0
370
    18
100
AcDbLine
 10
7359.743025095863
 20
4118.720271648999
 30
0.0
 11
7359.716319006496
 21
4119.248656991778
 31
0.0
  0
LINE
  5
6DCB
330
1F
100
AcDbEntity
  8
0
370
    18
100
AcDbLine
 10
7360.859661642556
 20
4122.424638950591
 30
0.0
 11
7358.349222802953
 21
4122.424638950591
 31
0.0
  0
LINE
  5
6DCC
330
1F
100
AcDbEntity
  8
0
370
    18
100
AcDbLine
 10
7359.743025095863
 20
4118.720271648999
 30
0.0
 11
7361.046890841014
 21
4118.720271648999
 31
0.0
  0
LINE
  5
6DCD
330
1F
100
AcDbEntity
  8
0
370
    18
100
AcDbLine
 10
7362.319501422399
 20
4118.051397293243
 30
0.0
 11
7361.326919195469
 21
4114.347029991653
 31
0.0
  0
LINE
  5
6DCE
330
1F
100
AcDbEntity
  8
0
370
    18
100
AcDbLine
 10
7366.555236795957
 20
4118.051397293243
 30
0.0
 11
7365.562654569024
 21
4114.347029991653
 31
0.0
  0
LINE
  5
6DCF
330
1F
100
AcDbEntity
  8
0
370
    18
100
AcDbLine
 10
7363.348976090763
 20
4117.032222087411
 30
0.0
 11
7363.224929016016
 21
4116.569272101916
 31
0.0
  0
LINE
  5
6DD0
330
1F
100
AcDbEntity
  8
0
370
    18
100
AcDbLine
 10
7361.326919195469
 20
4114.347029991653
 30
0.0
 11
7365.12225913722
 21
4114.347029991653
 31
0.0
  0
LINE
  5
6DD1
330
1F
100
AcDbEntity
  8
0
370
    18
100
AcDbLine
 10
7365.12225913722
 20
4114.347029991653
 30
0.0
 11
7365.395001437521
 21
4115.364918113749
 31
0.0
  0
LINE
  5
6DD2
330
1F
100
AcDbEntity
  8
0
370
    18
100
AcDbLine
 10
7362.902223337484
 20
4115.364918113749
 30
0.0
 11
7365.405277404889
 21
4115.364918113749
 31
0.0
  0
LINE
  5
6DD3
330
1F
100
AcDbEntity
  8
0
370
    18
100
AcDbLine
 10
7363.026534961105
 20
4115.82885540907
 30
0.0
 11
7362.902223337484
 21
4115.364918113749
 31
0.0
  0
LINE
  5
6DD4
330
1F
100
AcDbEntity
  8
0
370
    18
100
AcDbLine
 10
7363.026534961105
 20
4115.82885540907
 30
0.0
 11
7365.519313061144
 21
4115.82885540907
 31
0.0
  0
LINE
  5
6DD5
330
1F
100
AcDbEntity
  8
0
370
    18
100
AcDbLine
 10
7365.519313061144
 20
4115.82885540907
 30
0.0
 11
7365.717707116054
 21
4116.569272101916
 31
0.0
  0
LINE
  5
6DD6
330
1F
100
AcDbEntity
  8
0
370
    18
100
AcDbLine
 10
7365.717707116054
 20
4116.569272101916
 30
0.0
 11
7363.224929016016
 21
4116.569272101916
 31
0.0
  0
LINE
  5
6DD7
330
1F
100
AcDbEntity
  8
0
370
    18
100
AcDbLine
 10
7363.026534961105
 20
4115.82885540907
 30
0.0
 11
7362.912499304851
 21
4115.403268546059
 31
0.0
  0
LINE
  5
6DD8
330
1F
100
AcDbEntity
  8
0
370
    18
100
AcDbLine
 10
7367.26227033466
 20
4115.82885540907
 30
0.0
 11
7367.137958711038
 21
4115.364918113749
 31
0.0
  0
LINE
  5
6DD9
330
1F
100
AcDbEntity
  8
0
370
    18
100
AcDbLine
 10
7367.26227033466
 20
4115.82885540907
 30
0.0
 11
7367.148234678406
 21
4115.403268546059
 31
0.0
  0
LINE
  5
6DDA
330
1F
100
AcDbEntity
  8
0
370
    18
100
AcDbLine
 10
7367.103872069226
 20
4120.202097066417
 30
0.0
 11
7366.979560445608
 21
4119.738159771098
 31
0.0
  0
LINE
  5
6DDB
330
1F
100
AcDbEntity
  8
0
370
    18
100
AcDbLine
 10
7367.103872069226
 20
4120.202097066417
 30
0.0
 11
7366.989836412973
 21
4119.776510203406
 31
0.0
  0
LINE
  5
6DDC
330
1F
100
AcDbEntity
  8
0
370
    18
100
AcDbLine
 10
7365.841754190801
 20
4117.032222087411
 30
0.0
 11
7366.114841364153
 21
4118.051397293243
 31
0.0
  0
LINE
  5
6DDD
330
1F
100
AcDbEntity
  8
0
370
    18
100
AcDbLine
 10
7365.841754190801
 20
4117.032222087411
 30
0.0
 11
7363.338700123398
 21
4117.032222087411
 31
0.0
  0
LINE
  5
6DDE
330
1F
100
AcDbEntity
  8
0
370
    18
100
AcDbLine
 10
7361.97907693188
 20
4122.424638950591
 30
0.0
 11
7361.326424573744
 21
4119.988907190348
 31
0.0
  0
LINE
  5
6DDF
330
1F
100
AcDbEntity
  8
0
370
    18
100
AcDbLine
 10
7363.413272666251
 20
4122.424638950591
 30
0.0
 11
7361.97907693188
 21
4122.424638950591
 31
0.0
  0
LINE
  5
6DE0
330
1F
100
AcDbEntity
  8
0
370
    18
100
AcDbLine
 10
7365.044361952584
 20
4119.551862200868
 30
0.0
 11
7365.814120162707
 21
4122.424638950591
 31
0.0
  0
LINE
  5
6DE1
330
1F
100
AcDbEntity
  8
0
370
    18
100
AcDbLine
 10
7365.814120162707
 20
4122.424638950591
 30
0.0
 11
7364.349103763551
 21
4122.424638950591
 31
0.0
  0
LINE
  5
6DE2
330
1F
100
AcDbEntity
  8
0
370
    18
100
AcDbLine
 10
7363.617779903309
 20
4119.695301147386
 30
0.0
 11
7364.349103763551
 21
4122.424638950591
 31
0.0
  0
ARC
  5
6DE3
330
1F
100
AcDbEntity
  8
0
370
    18
100
AcDbCircle
 10
7363.284386846167
 20
4119.784633547809
 30
0.0
 40
0.3451538907744731
100
AcDbArc
 50
270.0
 51
345.0000000000055
  0
LINE
  5
6DE4
330
1F
100
AcDbEntity
  8
0
370
    18
100
AcDbLine
 10
7363.284386846167
 20
4119.439479657034
 30
0.0
 11
7363.063214952257
 21
4119.439479657034
 31
0.0
  0
ARC
  5
6DE5
330
1F
100
AcDbEntity
  8
0
370
    18
100
AcDbCircle
 10
7363.063214952257
 20
4119.784633547809
 30
0.0
 40
0.3451538907744731
100
AcDbArc
 50
165.0000000000055
 51
270.0
  0
LINE
  5
6DE6
330
1F
100
AcDbEntity
  8
0
370
    18
100
AcDbLine
 10
7363.413272666251
 20
4122.424638950591
 30
0.0
 11
7362.729821895114
 21
4119.873965948233
 31
0.0
  0
LINE
  5
6DE7
330
1F
100
AcDbEntity
  8
0
370
    18
100
AcDbLine
 10
7366.114841364153
 20
4118.051397293243
 30
0.0
 11
7362.319501422399
 21
4118.051397293243
 31
0.0
  0
ARC
  5
6DE8
330
1F
100
AcDbEntity
  8
0
370
    18
100
AcDbCircle
 10
7363.143068974459
 20
4125.836545513684
 30
0.0
 40
7.119253077153191
100
AcDbArc
 50
261.6882763531171
 51
278.5178280220963
  0
ARC
  5
6DE9
330
1F
100
AcDbEntity
  8
0
370
    18
100
AcDbCircle
 10
7364.044182781154
 20
4119.81985940214
 30
0.0
 40
1.035461672323419
100
AcDbArc
 50
278.5178280220963
 51
345.0000000000055
  0
LINE
  5
6DEA
330
1F
100
AcDbEntity
  8
0
370
    18
100
AcDbLine
 10
7366.396838530523
 20
4122.424638950591
 30
0.0
 11
7365.404256303595
 21
4118.720271648999
 31
0.0
  0
LINE
  5
6DEB
330
1F
100
AcDbEntity
  8
0
370
    18
100
AcDbLine
 10
7356.281362445082
 20
4118.051397293243
 30
0.0
 11
7355.288780218152
 21
4114.347029991653
 31
0.0
  0
LINE
  5
6DEC
330
1F
100
AcDbEntity
  8
0
370
    18
100
AcDbLine
 10
7357.62362757587
 20
4118.051397293243
 30
0.0
 11
7356.631045348942
 21
4114.347029991653
 31
0.0
  0
LINE
  5
6DED
330
1F
100
AcDbEntity
  8
0
370
    18
100
AcDbLine
 10
7358.085504142967
 20
4118.051397293243
 30
0.0
 11
7357.092921916038
 21
4114.347029991653
 31
0.0
  0
LINE
  5
6DEE
330
1F
100
AcDbEntity
  8
0
370
    18
100
AcDbLine
 10
7355.288780218152
 20
4114.347029991653
 30
0.0
 11
7356.631045348942
 21
4114.347029991653
 31
0.0
  0
ARC
  5
6DEF
330
1F
100
AcDbEntity
  8
0
370
    18
100
AcDbCircle
 10
7354.004460824812
 20
4115.4975429609
 30
0.0
 40
1.150512969248243
100
AcDbArc
 50
270.0
 51
270.0
  0
ARC
  5
6DF0
330
1F
100
AcDbEntity
  8
0
370
    18
100
AcDbCircle
 10
7352.377374863329
 20
4115.945029560848
 30
0.0
 40
1.422878199650913
100
AcDbArc
 50
334.2263645027551
 51
11.71383119334301
  0
LINE
  5
6DF1
330
1F
100
AcDbEntity
  8
0
370
    18
100
AcDbLine
 10
7354.829754827675
 20
4114.347029991653
 30
0.0
 11
7355.335342137656
 21
4116.233907520166
 31
0.0
  0
LINE
  5
6DF2
330
1F
100
AcDbEntity
  8
0
370
    18
100
AcDbLine
 10
7353.770619958661
 20
4116.233907520166
 30
0.0
 11
7355.335342137656
 21
4116.233907520166
 31
0.0
  0
ARC
  5
6DF3
330
1F
100
AcDbEntity
  8
0
370
    18
100
AcDbCircle
 10
7354.057306382514
 20
4108.242816587476
 30
0.0
 40
8.85764661435673
100
AcDbArc
 50
80.02650671627876
 51
93.02614479233071
  0
LINE
  5
6DF4
330
1F
100
AcDbEntity
  8
0
370
    18
100
AcDbLine
 10
7355.227368001341
 20
4120.67247971906
 30
0.0
 11
7355.696857652441
 21
4122.424638950591
 31
0.0
  0
LINE
  5
6DF5
330
1F
100
AcDbEntity
  8
0
370
    18
100
AcDbLine
 10
7354.745601824764
 20
4118.720271648999
 30
0.0
 11
7356.019646565069
 21
4118.720271648999
 31
0.0
  0
LINE
  5
6DF6
330
1F
100
AcDbEntity
  8
0
370
    18
100
AcDbLine
 10
7354.517777986592
 20
4122.424638950591
 30
0.0
 11
7355.227368001341
 21
4120.67247971906
 31
0.0
  0
LINE
  5
6DF7
330
1F
100
AcDbEntity
  8
0
370
    18
100
AcDbLine
 10
7354.038466518315
 20
4120.481406884841
 30
0.0
 11
7353.566571754107
 21
4118.720271648999
 31
0.0
  0
LINE
  5
6DF8
330
1F
100
AcDbEntity
  8
0
370
    18
100
AcDbLine
 10
7354.745601824764
 20
4118.720271648999
 30
0.0
 11
7354.038466518315
 21
4120.481406884841
 31
0.0
  0
LINE
  5
6DF9
330
1F
100
AcDbEntity
  8
0
370
    18
100
AcDbLine
 10
7355.591384857593
 20
4116.966606290186
 30
0.0
 11
7355.855338579854
 21
4117.959872019411
 31
0.0
  0
LINE
  5
6DFA
330
1F
100
AcDbEntity
  8
0
370
    18
100
AcDbLine
 10
7357.012228792
 20
4122.424638950591
 30
0.0
 11
7355.696857652441
 21
4122.424638950591
 31
0.0
  0
LINE
  5
6DFB
330
1F
100
AcDbEntity
  8
0
370
    18
100
AcDbLine
 10
7357.62362757587
 20
4118.051397293243
 30
0.0
 11
7356.281362445082
 21
4118.051397293243
 31
0.0
  0
LINE
  5
6DFC
330
1F
100
AcDbEntity
  8
0
370
    18
100
AcDbLine
 10
7356.326401751811
 20
4118.720271648999
 30
0.0
 11
7357.924398267254
 21
4118.720271648999
 31
0.0
  0
LINE
  5
6DFD
330
1F
100
AcDbEntity
  8
0
370
    18
100
AcDbLine
 10
7356.019646565069
 20
4118.720271648999
 30
0.0
 11
7357.012228792
 21
4122.424638950591
 31
0.0
  0
LINE
  5
6DFE
330
1F
100
AcDbEntity
  8
0
370
    18
100
AcDbLine
 10
7357.924398267254
 20
4118.720271648999
 30
0.0
 11
7358.212930399051
 21
4119.248656991778
 31
0.0
  0
LINE
  5
6DFF
330
1F
100
AcDbEntity
  8
0
370
    18
100
AcDbLine
 10
7357.092921916038
 20
4114.347029991653
 30
0.0
 11
7358.39548375775
 21
4114.347029991653
 31
0.0
  0
LINE
  5
6E00
330
1F
100
AcDbEntity
  8
0
370
    18
100
AcDbLine
 10
7358.212930399051
 20
4119.248656991778
 30
0.0
 11
7359.716319006496
 21
4119.248656991778
 31
0.0
  0
LINE
  5
6E01
330
1F
100
AcDbEntity
  8
0
370
    18
100
AcDbLine
 10
7359.346689990234
 20
4118.051397293243
 30
0.0
 11
7358.085504142967
 21
4118.051397293243
 31
0.0
  0
LINE
  5
6E02
330
1F
100
AcDbEntity
  8
0
370
    18
100
AcDbLine
 10
7356.326401751811
 20
4118.720271648999
 30
0.0
 11
7358.349222802953
 21
4122.424638950591
 31
0.0
  0
ARC
  5
6E03
330
1F
100
AcDbEntity
  8
0
370
    18
100
AcDbCircle
 10
7372.717106732896
 20
4121.412177733472
 30
0.0
 40
0.7682193793950698
100
AcDbArc
 50
270.1852188608381
 51
291.3103783431873
  0
LINE
  5
6E04
330
1F
100
AcDbEntity
  8
0
370
    18
100
AcDbLine
 10
7372.602692488301
 20
4114.356955813922
 30
0.0
 11
7374.311696975208
 21
4114.356955813922
 31
0.0
  0
LINE
  5
6E05
330
1F
100
AcDbEntity
  8
0
370
    18
100
AcDbLine
 10
7372.465590212519
 20
4118.720271648999
 30
0.0
 11
7374.174594699425
 21
4118.720271648999
 31
0.0
  0
LINE
  5
6E06
330
1F
100
AcDbEntity
  8
0
370
    18
100
AcDbLine
 10
7379.549005575113
 20
4116.299238061713
 30
0.0
 11
7380.018495226214
 21
4118.051397293243
 31
0.0
  0
LINE
  5
6E07
330
1F
100
AcDbEntity
  8
0
370
    18
100
AcDbLine
 10
7378.839415560367
 20
4118.051397293243
 30
0.0
 11
7379.549005575113
 21
4116.299238061713
 31
0.0
  0
LINE
  5
6E08
330
1F
100
AcDbEntity
  8
0
370
    18
100
AcDbLine
 10
7375.774088015212
 20
4118.051397293243
 30
0.0
 11
7374.781505788283
 21
4114.347029991653
 31
0.0
  0
LINE
  5
6E09
330
1F
100
AcDbEntity
  8
0
370
    18
100
AcDbLine
 10
7377.116353146004
 20
4118.051397293243
 30
0.0
 11
7376.123770919072
 21
4114.347029991653
 31
0.0
  0
LINE
  5
6E0A
330
1F
100
AcDbEntity
  8
0
370
    18
100
AcDbLine
 10
7377.5782297131
 20
4118.051397293243
 30
0.0
 11
7376.585647486169
 21
4114.347029991653
 31
0.0
  0
LINE
  5
6E0B
330
1F
100
AcDbEntity
  8
0
370
    18
100
AcDbLine
 10
7374.903547637622
 20
4116.565772556551
 30
0.0
 11
7375.019696366729
 21
4116.999245514807
 31
0.0
  0
ARC
  5
6E0C
330
1F
100
AcDbEntity
  8
0
370
    18
100
AcDbCircle
 10
7372.888652635541
 20
4116.823846263662
 30
0.0
 40
0.5483274067590241
100
AcDbArc
 50
296.5093598874458
 51
350.9662004601295
  0
LINE
  5
6E0D
330
1F
100
AcDbEntity
  8
0
370
    18
100
AcDbLine
 10
7379.067239398536
 20
4114.347029991653
 30
0.0
 11
7378.360104092087
 21
4116.108165227493
 31
0.0
  0
LINE
  5
6E0E
330
1F
100
AcDbEntity
  8
0
370
    18
100
AcDbLine
 10
7373.308168679933
 20
4115.940431135695
 30
0.0
 11
7374.311696975208
 21
4114.356955813922
 31
0.0
  0
LINE
  5
6E0F
330
1F
100
AcDbEntity
  8
0
370
    18
100
AcDbLine
 10
7374.088586831273
 20
4115.940431135695
 30
0.0
 11
7373.308168679933
 21
4115.940431135695
 31
0.0
  0
ARC
  5
6E10
330
1F
100
AcDbEntity
  8
0
370
    18
100
AcDbCircle
 10
7372.85420900868
 20
4117.048861898394
 30
0.0
 40
0.7682193793950698
100
AcDbArc
 50
270.1852188608381
 51
291.3103783431873
  0
LINE
  5
6E11
330
1F
100
AcDbEntity
  8
0
370
    18
100
AcDbLine
 10
7374.781505788283
 20
4114.347029991653
 30
0.0
 11
7376.123770919072
 21
4114.347029991653
 31
0.0
  0
ARC
  5
6E12
330
1F
100
AcDbEntity
  8
0
370
    18
100
AcDbCircle
 10
7374.088586831273
 20
4116.784140646476
 30
0.0
 40
0.8437095107820451
100
AcDbArc
 50
270.0
 51
345.0438139040654
  0
LINE
  5
6E13
330
1F
100
AcDbEntity
  8
0
370
    18
100
AcDbLine
 10
7376.585647486169
 20
4114.347029991653
 30
0.0
 11
7377.888209327882
 21
4114.347029991653
 31
0.0
  0
LINE
  5
6E14
330
1F
100
AcDbEntity
  8
0
370
    18
100
AcDbLine
 10
7378.360104092087
 20
4116.108165227493
 30
0.0
 11
7377.888209327882
 21
4114.347029991653
 31
0.0
  0
LINE
  5
6E15
330
1F
100
AcDbEntity
  8
0
370
    18
100
AcDbLine
 10
7379.067239398536
 20
4114.347029991653
 30
0.0
 11
7380.341284138842
 21
4114.347029991653
 31
0.0
  0
LINE
  5
6E16
330
1F
100
AcDbEntity
  8
0
370
    18
100
AcDbLine
 10
7378.839415560367
 20
4118.051397293243
 30
0.0
 11
7377.5782297131
 21
4118.051397293243
 31
0.0
  0
ARC
  5
6E17
330
1F
100
AcDbEntity
  8
0
370
    18
100
AcDbCircle
 10
7373.048636251313
 20
4116.798410595217
 30
0.0
 40
0.386334411403646
100
AcDbArc
 50
350.9662004601295
 51
90.19530426564624
  0
ARC
  5
6E18
330
1F
100
AcDbEntity
  8
0
370
    18
100
AcDbCircle
 10
7374.204735560379
 20
4117.217613604731
 30
0.0
 40
0.8437095107820451
100
AcDbArc
 50
344.999952987916
 51
90.0
  0
LINE
  5
6E19
330
1F
100
AcDbEntity
  8
0
370
    18
100
AcDbLine
 10
7373.95148455549
 20
4120.303746970773
 30
0.0
 11
7373.171066404153
 21
4120.303746970773
 31
0.0
  0
ARC
  5
6E1A
330
1F
100
AcDbEntity
  8
0
370
    18
100
AcDbCircle
 10
7372.911533975531
 20
4121.161726430296
 30
0.0
 40
0.386334411403646
100
AcDbArc
 50
350.9662004601295
 51
90.19530426564624
  0
ARC
  5
6E1B
330
1F
100
AcDbEntity
  8
0
370
    18
100
AcDbCircle
 10
7372.75155035976
 20
4121.18716209874
 30
0.0
 40
0.5483274067590241
100
AcDbArc
 50
296.5093598874458
 51
350.9662004601295
  0
ARC
  5
6E1C
330
1F
100
AcDbEntity
  8
0
370
    18
100
AcDbCircle
 10
7373.95148455549
 20
4121.147456481554
 30
0.0
 40
0.8437095107820451
100
AcDbArc
 50
270.0
 51
345.0438139040654
  0
LINE
  5
6E1D
330
1F
100
AcDbEntity
  8
0
370
    18
100
AcDbLine
 10
7374.766445361841
 20
4120.92908839163
 30
0.0
 11
7374.882594090947
 21
4121.362561349884
 31
0.0
  0
ARC
  5
6E1E
330
1F
100
AcDbEntity
  8
0
370
    18
100
AcDbCircle
 10
7374.067633284596
 20
4121.58092943981
 30
0.0
 40
0.8437095107820451
100
AcDbArc
 50
344.999952987916
 51
90.0
  0
LINE
  5
6E1F
330
1F
100
AcDbEntity
  8
0
370
    18
100
AcDbLine
 10
7377.116353146004
 20
4118.051397293243
 30
0.0
 11
7375.774088015212
 21
4118.051397293243
 31
0.0
  0
LINE
  5
6E20
330
1F
100
AcDbEntity
  8
0
370
    18
100
AcDbLine
 10
7373.171066404153
 20
4120.303746970773
 30
0.0
 11
7374.174594699425
 21
4118.720271648999
 31
0.0
  0
LINE
  5
6E21
330
1F
100
AcDbEntity
  8
0
370
    18
100
AcDbLine
 10
7370.864893644541
 20
4118.061323115512
 30
0.0
 11
7369.869651801552
 21
4114.347029991653
 31
0.0
  0
LINE
  5
6E22
330
1F
100
AcDbEntity
  8
0
370
    18
100
AcDbLine
 10
7371.690324633997
 20
4116.280646533023
 30
0.0
 11
7371.932576488473
 21
4117.184742762165
 31
0.0
  0
LINE
  5
6E23
330
1F
100
AcDbEntity
  8
0
370
    18
100
AcDbLine
 10
7367.584711464317
 20
4117.032222087411
 30
0.0
 11
7367.460664389568
 21
4116.569272101916
 31
0.0
  0
LINE
  5
6E24
330
1F
100
AcDbEntity
  8
0
370
    18
100
AcDbLine
 10
7369.953442489607
 20
4116.569272101916
 30
0.0
 11
7367.460664389568
 21
4116.569272101916
 31
0.0
  0
LINE
  5
6E25
330
1F
100
AcDbEntity
  8
0
370
    18
100
AcDbLine
 10
7369.357994510777
 20
4114.347029991653
 30
0.0
 11
7369.630736811076
 21
4115.364918113749
 31
0.0
  0
LINE
  5
6E26
330
1F
100
AcDbEntity
  8
0
370
    18
100
AcDbLine
 10
7371.59916419303
 20
4115.940431135695
 30
0.0
 11
7371.174873259325
 21
4114.356955813922
 31
0.0
  0
LINE
  5
6E27
330
1F
100
AcDbEntity
  8
0
370
    18
100
AcDbLine
 10
7369.872311417613
 20
4114.356955813922
 30
0.0
 11
7371.174873259325
 21
4114.356955813922
 31
0.0
  0
LINE
  5
6E28
330
1F
100
AcDbEntity
  8
0
370
    18
100
AcDbLine
 10
7369.755048434696
 20
4115.82885540907
 30
0.0
 11
7369.953442489607
 21
4116.569272101916
 31
0.0
  0
LINE
  5
6E29
330
1F
100
AcDbEntity
  8
0
370
    18
100
AcDbLine
 10
7370.077489564356
 20
4117.032222087411
 30
0.0
 11
7370.350576737705
 21
4118.051397293243
 31
0.0
  0
LINE
  5
6E2A
330
1F
100
AcDbEntity
  8
0
370
    18
100
AcDbLine
 10
7370.077489564356
 20
4117.032222087411
 30
0.0
 11
7367.574435496952
 21
4117.032222087411
 31
0.0
  0
LINE
  5
6E2B
330
1F
100
AcDbEntity
  8
0
370
    18
100
AcDbLine
 10
7369.795044224176
 20
4120.942513759263
 30
0.0
 11
7367.302266124136
 21
4120.942513759263
 31
0.0
  0
LINE
  5
6E2C
330
1F
100
AcDbEntity
  8
0
370
    18
100
AcDbLine
 10
7369.919091298924
 20
4121.405463744759
 30
0.0
 11
7367.416037231521
 21
4121.405463744759
 31
0.0
  0
LINE
  5
6E2D
330
1F
100
AcDbEntity
  8
0
370
    18
100
AcDbLine
 10
7367.426313198888
 20
4121.405463744759
 30
0.0
 11
7367.302266124136
 21
4120.942513759263
 31
0.0
  0
LINE
  5
6E2E
330
1F
100
AcDbEntity
  8
0
370
    18
100
AcDbLine
 10
7369.919091298924
 20
4121.405463744759
 30
0.0
 11
7370.192178472274
 21
4122.424638950591
 31
0.0
  0
LINE
  5
6E2F
330
1F
100
AcDbEntity
  8
0
370
    18
100
AcDbLine
 10
7369.596650169265
 20
4120.202097066417
 30
0.0
 11
7369.795044224176
 21
4120.942513759263
 31
0.0
  0
LINE
  5
6E30
330
1F
100
AcDbEntity
  8
0
370
    18
100
AcDbLine
 10
7371.553222358214
 20
4120.643962368101
 30
0.0
 11
7371.795474212692
 21
4121.548058597244
 31
0.0
  0
LINE
  5
6E31
330
1F
100
AcDbEntity
  8
0
370
    18
100
AcDbLine
 10
7369.735209141833
 20
4118.720271648999
 30
0.0
 11
7371.037770983544
 21
4118.720271648999
 31
0.0
  0
LINE
  5
6E32
330
1F
100
AcDbEntity
  8
0
370
    18
100
AcDbLine
 10
7369.199596245343
 20
4118.720271648999
 30
0.0
 11
7369.472338545644
 21
4119.738159771098
 31
0.0
  0
LINE
  5
6E33
330
1F
100
AcDbEntity
  8
0
370
    18
100
AcDbLine
 10
7370.727791368761
 20
4122.424638950591
 30
0.0
 11
7369.735209141833
 21
4118.720271648999
 31
0.0
  0
LINE
  5
6E34
330
1F
100
AcDbEntity
  8
0
370
    18
100
AcDbLine
 10
7371.462061917248
 20
4120.303746970773
 30
0.0
 11
7371.037770983544
 21
4118.720271648999
 31
0.0
  0
LINE
  5
6E35
330
1F
100
AcDbEntity
  8
0
370
    18
100
AcDbLine
 10
7372.856692408165
 20
4116.280646533023
 30
0.0
 11
7371.690324633997
 21
4116.280646533023
 31
0.0
  0
LINE
  5
6E36
330
1F
100
AcDbEntity
  8
0
370
    18
100
AcDbLine
 10
7374.204735560379
 20
4118.061323115512
 30
0.0
 11
7370.864893644541
 21
4118.061323115512
 31
0.0
  0
LINE
  5
6E37
330
1F
100
AcDbEntity
  8
0
370
    18
100
AcDbLine
 10
7374.067633284596
 20
4122.424638950591
 30
0.0
 11
7370.727791368761
 21
4122.424638950591
 31
0.0
  0
LINE
  5
6E38
330
1F
100
AcDbEntity
  8
0
370
    18
100
AcDbLine
 10
7373.047319354798
 20
4117.184742762165
 30
0.0
 11
7371.932576488473
 21
4117.184742762165
 31
0.0
  0
LINE
  5
6E39
330
1F
100
AcDbEntity
  8
0
370
    18
100
AcDbLine
 10
7372.910217079017
 20
4121.548058597244
 30
0.0
 11
7371.795474212692
 21
4121.548058597244
 31
0.0
  0
LINE
  5
6E3A
330
1F
100
AcDbEntity
  8
0
370
    18
100
AcDbLine
 10
7371.59916419303
 20
4115.940431135695
 30
0.0
 11
7372.602692488301
 21
4114.356955813922
 31
0.0
  0
LINE
  5
6E3B
330
1F
100
AcDbEntity
  8
0
370
    18
100
AcDbLine
 10
7371.462061917248
 20
4120.303746970773
 30
0.0
 11
7372.465590212519
 21
4118.720271648999
 31
0.0
  0
LINE
  5
6E3C
330
1F
100
AcDbEntity
  8
0
370
    18
100
AcDbLine
 10
7372.719590132383
 20
4120.643962368101
 30
0.0
 11
7371.553222358214
 21
4120.643962368101
 31
0.0
  0
LINE
  5
6E3D
330
1F
100
AcDbEntity
  8
0
370
    18
100
AcDbLine
 10
7384.450354842492
 20
4114.347029991653
 30
0.0
 11
7382.623473045204
 21
4114.347029991653
 31
0.0
  0
LINE
  5
6E3E
330
1F
100
AcDbEntity
  8
0
370
    18
100
AcDbLine
 10
7383.391219973475
 20
4116.233907520166
 30
0.0
 11
7384.955942152474
 21
4116.233907520166
 31
0.0
  0
ARC
  5
6E3F
330
1F
100
AcDbEntity
  8
0
370
    18
100
AcDbCircle
 10
7383.67790639733
 20
4108.242816587476
 30
0.0
 40
8.85764661435673
100
AcDbArc
 50
80.02650671627876
 51
93.02614479233071
  0
ARC
  5
6E40
330
1F
100
AcDbEntity
  8
0
370
    18
100
AcDbCircle
 10
7383.842458911776
 20
4103.584301208444
 30
0.0
 40
14.46807838019826
100
AcDbArc
 50
83.51735091136767
 51
95.92334440423565
  0
ARC
  5
6E41
330
1F
100
AcDbEntity
  8
0
370
    18
100
AcDbCircle
 10
7388.580010648448
 20
4114.479377781343
 30
0.0
 40
6.22149298766157
100
AcDbArc
 50
158.0969939507821
 51
170.4856136403549
  0
ARC
  5
6E42
330
1F
100
AcDbEntity
  8
0
370
    18
100
AcDbCircle
 10
7382.829411529633
 20
4121.463303856336
 30
0.0
 40
7.119253077153191
100
AcDbArc
 50
262.0635437036924
 51
268.3423749580199
  0
ARC
  5
6E43
330
1F
100
AcDbEntity
  8
0
370
    18
100
AcDbCircle
 10
7383.62506083963
 20
4115.4975429609
 30
0.0
 40
1.150512969248243
100
AcDbArc
 50
270.0
 51
270.0
  0
ARC
  5
6E44
330
1F
100
AcDbEntity
  8
0
370
    18
100
AcDbCircle
 10
7381.997974878148
 20
4115.945029560848
 30
0.0
 40
1.422878199650913
100
AcDbArc
 50
334.2263645027551
 51
11.71383119334301
  0
ARC
  5
6E45
330
1F
100
AcDbEntity
  8
0
370
    18
100
AcDbCircle
 10
7382.864880164722
 20
4115.526443187387
 30
0.0
 40
0.4602051876992975
100
AcDbArc
 50
270.0
 51
334.2263645027551
  0
LINE
  5
6E46
330
1F
100
AcDbEntity
  8
0
370
    18
100
AcDbLine
 10
7382.823189942886
 20
4115.066237999687
 30
0.0
 11
7382.864880164722
 21
4115.066237999687
 31
0.0
  0
ARC
  5
6E47
330
1F
100
AcDbEntity
  8
0
370
    18
100
AcDbCircle
 10
7382.823189942886
 20
4115.44974232277
 30
0.0
 40
0.3835043230827479
100
AcDbArc
 50
171.2985646492441
 51
270.0
  0
ARC
  5
6E48
330
1F
100
AcDbEntity
  8
0
370
    18
100
AcDbCircle
 10
7383.234591708347
 20
4116.628548195431
 30
0.0
 40
0.4602051876992975
100
AcDbArc
 50
93.02614479233071
 51
158.0969939507821
  0
ARC
  5
6E49
330
1F
100
AcDbEntity
  8
0
370
    18
100
AcDbCircle
 10
7382.448326968372
 20
4117.021490549924
 30
0.0
 40
0.9587608077068694
100
AcDbArc
 50
95.92334440423565
 51
157.387404400784
  0
LINE
  5
6E4A
330
1F
100
AcDbEntity
  8
0
370
    18
100
AcDbLine
 10
7384.450354842492
 20
4114.347029991653
 30
0.0
 11
7384.955942152474
 21
4116.233907520166
 31
0.0
  0
LINE
  5
6E4B
330
1F
100
AcDbEntity
  8
0
370
    18
100
AcDbLine
 10
7385.21198487241
 20
4116.966606290186
 30
0.0
 11
7385.475938594673
 21
4117.959872019411
 31
0.0
  0
LINE
  5
6E4F
330
1F
100
AcDbEntity
  8
AVERDECKTE
 48
50.0
100
AcDbLine
 10
7388.709154235859
 20
4122.529371191561
 30
0.0
 11
7401.730462030227
 21
4122.529371191561
 31
0.0
  0
LINE
  5
6E50
330
1F
100
AcDbEntity
  8
ACHSEN
 48
20.0
370
    18
100
AcDbLine
 10
7364.230462030228
 20
4109.035758776335
 30
0.0
 11
7364.230462030228
 21
4090.779371191561
 31
0.0
  0
LINE
  5
6E5B
330
1F
100
AcDbEntity
  8
AVERDECKTE
 48
50.0
370
    18
100
AcDbLine
 10
7470.730462030228
 20
3952.166156550051
 30
0.0
 11
7470.730462030228
 21
3728.916156550051
 31
0.0
  0
LINE
  5
6E5C
330
1F
100
AcDbEntity
  8
AVERDECKTE
 48
50.0
370
    18
100
AcDbLine
 10
7481.730462030228
 20
3954.916156550051
 30
0.0
 11
7481.730462030228
 21
3728.916156550051
 31
0.0
  0
LINE
  5
6E5D
330
1F
100
AcDbEntity
  8
AVERDECKTE
 48
50.0
100
AcDbLine
 10
7257.730462030226
 20
3954.91615655005
 30
0.0
 11
7257.730462030227
 21
3728.916156550051
 31
0.0
  0
LINE
  5
6E5E
330
1F
100
AcDbEntity
  8
AVERDECKTE
 48
50.0
100
AcDbLine
 10
7246.730462030225
 20
3954.91615655005
 30
0.0
 11
7246.730462030227
 21
3728.916156550051
 31
0.0
  0
LINE
  5
6E5F
330
1F
100
AcDbEntity
  8
AVERDECKTE
 48
50.0
100
AcDbLine
 10
7257.730462030227
 20
3731.666156550051
 30
0.0
 11
7260.730462030227
 21
3731.666156550051
 31
0.0
  0
LINE
  5
6E60
330
1F
100
AcDbEntity
  8
AVERDECKTE
 48
50.0
100
AcDbLine
 10
7246.730462030227
 20
3728.916156550051
 30
0.0
 11
7257.730462030227
 21
3728.916156550051
 31
0.0
  0
LINE
  5
6E61
330
1F
100
AcDbEntity
  8
AVERDECKTE
 48
50.0
370
    18
100
AcDbLine
 10
7470.730462030228
 20
3728.916156550051
 30
0.0
 11
7481.730462030228
 21
3728.916156550051
 31
0.0
  0
LINE
  5
6E62
330
1F
100
AcDbEntity
  8
AVERDECKTE
 48
50.0
370
    18
100
AcDbLine
 10
7467.730462030226
 20
3731.666156550051
 30
0.0
 11
7470.730462030228
 21
3731.666156550051
 31
0.0
  0
POINT
  5
6E63
330
1F
100
AcDbEntity
  8
AVERDECKTE
 48
50.0
370
    18
100
AcDbPoint
 10
7470.657917319254
 20
3731.682152032167
 30
0.0
  0
LINE
  5
6E64
330
1F
100
AcDbEntity
  8
AVERDECKTE
 48
50.0
100
AcDbLine
 10
7257.730462030227
 20
3952.166156550051
 30
0.0
 11
7260.730462030227
 21
3952.166156550051
 31
0.0
  0
LINE
  5
6E65
330
1F
100
AcDbEntity
  8
AVERDECKTE
 48
50.0
100
AcDbLine
 10
7246.730462030225
 20
3954.91615655005
 30
0.0
 11
7257.730462030226
 21
3954.91615655005
 31
0.0
  0
LINE
  5
6E66
330
1F
100
AcDbEntity
  8
AVERDECKTE
 48
50.0
100
AcDbLine
 10
7470.730462030228
 20
3954.916156550051
 30
0.0
 11
7472.730462030227
 21
3954.916156550051
 31
0.0
  0
LINE
  5
6E67
330
1F
100
AcDbEntity
  8
AVERDECKTE
 48
50.0
100
AcDbLine
 10
7470.730462030228
 20
3954.916156550051
 30
0.0
 11
7470.730462030228
 21
3952.166156550051
 31
0.0
  0
LINE
  5
6E68
330
1F
100
AcDbEntity
  8
AVERDECKTE
 48
50.0
100
AcDbLine
 10
7467.730462030228
 20
3952.166156550051
 30
0.0
 11
7470.730462030228
 21
3952.166156550051
 31
0.0
  0
POINT
  5
6E69
330
1F
100
AcDbEntity
  8
AVERDECKTE
 48
50.0
100
AcDbPoint
 10
7467.730462030228
 20
3952.166156550051
 30
0.0
  0
LINE
  5
6E6A
330
1F
100
AcDbEntity
  8
AVERDECKTE
 48
50.0
100
AcDbLine
 10
7478.730462030227
 20
3954.916156550051
 30
0.0
 11
7481.730462030228
 21
3954.916156550051
 31
0.0
  0
LINE
  5
6E6B
330
1F
100
AcDbEntity
  8
AVERDECKTE
 48
50.0
100
AcDbLine
 10
7472.730462030227
 20
3954.916156550051
 30
0.0
 11
7478.730462030227
 21
3954.916156550051
 31
0.0
  0
VIEWPORT
  5
647E
330
646F
100
AcDbEntity
 67
     1
  8
0
100
AcDbViewport
 10
203.511683309184
 20
126.3524765206869
 30
0.0
 40
550.3826381108192
 41
312.3479528519207
 68
     1
 69
     1
 12
203.511683309184
 22
126.3524765206869
 13
0.0
 23
0.0
 14
10.0
 24
10.0
 15
10.0
 25
10.0
 16
0.0
 26
0.0
 36
1.0
 17
0.0
 27
0.0
 37
0.0
 42
50.0
 43
0.0
 44
0.0
 45
312.3479528519207
 50
0.0
 51
0.0
 72
   100
 90
    32800
  1

281
     0
 71
     1
 74
     0
110
0.0
120
0.0
130
0.0
111
1.0
121
0.0
131
0.0
112
0.0
122
1.0
132
0.0
 79
     0
146
0.0
  0
VIEWPORT
  5
6480
330
646F
100
AcDbEntity
 67
     1
  8
Defpoints
100
AcDbViewport
 10
210.9158926382793
 20
133.0527362121161
 30
0.0
 40
389.8006918805132
 41
267.4570974559993
 68
     2
 69
     2
 12
7615.867097285231
 22
4013.882992553342
 13
0.0
 23
0.0
 14
10.0
 24
10.0
 15
10.0
 25
10.0
 16
0.0
 26
0.0
 36
1.0
 17
0.0
 27
0.0
 37
0.0
 42
50.0
 43
0.0
 44
0.0
 45
692.4565127901919
 50
0.0
 51
0.0
 72
   100
 90
    32864
  1

281
     0
 71
     1
 74
     0
110
0.0
120
0.0
130
0.0
111
1.0
121
0.0
131
0.0
112
0.0
122
1.0
132
0.0
 79
     0
146
0.0
  0
LINE
  5
659A
330
646F
100
AcDbEntity
 67
     1
  8
RAHMEN025
100
AcDbLine
 10
-6.476730268722008
 20
274.8489996323794
 30
0.0
 11
-6.476730268722008
 21
-22.15100036762052
 31
0.0
  0
LINE
  5
659B
330
646F
100
AcDbEntity
 67
     1
  8
RAHMEN07
100
AcDbLine
 10
11.32326973127828
 20
-17.15100036762052
 30
0.0
 11
11.32326973127828
 21
269.8489996323794
 31
0.0
  0
LINE
  5
659C
330
646F
100
AcDbEntity
 67
     1
  8
RAHMEN07
100
AcDbLine
 10
408.523269731278
 20
269.8489996323794
 30
0.0
 11
11.32326973127828
 21
269.8489996323794
 31
0.0
  0
LINE
  5
659D
330
646F
100
AcDbEntity
 67
     1
  8
RAHMEN025
100
AcDbLine
 10
413.523269731278
 20
274.8489996323794
 30
0.0
 11
-6.476730268722008
 21
274.8489996323794
 31
0.0
  0
LINE
  5
659E
330
646F
100
AcDbEntity
 67
     1
  8
RAHMEN025
100
AcDbLine
 10
413.523269731278
 20
-22.15100036762052
 30
0.0
 11
413.523269731278
 21
274.8489996323794
 31
0.0
  0
LINE
  5
659F
330
646F
100
AcDbEntity
 67
     1
  8
RAHMEN07
100
AcDbLine
 10
408.523269731278
 20
-17.15100036762052
 30
0.0
 11
408.523269731278
 21
269.8489996323794
 31
0.0
  0
TEXT
  5
65A0
330
646F
100
AcDbEntity
 67
     1
  8
RAHMEN025
 48
1.5
100
AcDbText
 10
278.1736991192796
 20
23.98121529678371
 30
0.0
 40
2.5
  1
DIN ISO 2768-m
 41
0.65
  7
Stil1
100
AcDbText
  0
TEXT
  5
65A1
330
646F
100
AcDbEntity
 67
     1
  8
RAHMEN025
 48
1.5
100
AcDbText
 10
272.2521906208418
 20
-20.98469365531605
 30
0.0
 40
2.5
  1
"Schutzvermerk DIN 34 beachten"
 41
0.8
  7
Stil1
100
AcDbText
  0
LINE
  5
65A2
330
646F
100
AcDbEntity
 67
     1
  8
RAHMEN025
370
     9
100
AcDbLine
 10
301.2619023024408
 20
-3.248781848854406
 30
0.0
 11
301.1478666461875
 21
-3.674368711866605
 31
0.0
  0
LWPOLYLINE
  5
65A3
330
646F
100
AcDbEntity
 67
     1
  8
RAHMEN025
100
AcDbPolyline
 90
        4
 70
     1
 43
0.0
 10
275.9232697312782
 20
-12.90100036762052
 10
320.1232697312781
 20
-12.90100036762052
 10
320.1232697312781
 20
-0.1510003676205258
 10
275.9232697312782
 20
-0.1510003676205258
  0
LWPOLYLINE
  5
65A4
102
{ACAD_REACTORS
330
65A5
102
}
330
646F
100
AcDbEntity
 67
     1
  8
RAHMEN025
 62
   154
370
     9
100
AcDbPolyline
 90
        4
 70
     1
 43
0.0
 10
278.5893878744253
 20
-2.448237584012574
 10
277.9938385382671
 20
-4.670857964967538
 10
281.4453774460119
 20
-4.670857964967538
 10
282.04092678217
 20
-2.448237584012574
  0
HATCH
  5
65A5
330
646F
100
AcDbEntity
 67
     1
  8
RAHMEN025
 62
   154
370
     9
100
AcDbHatch
 10
0.0
 20
0.0
 30
0.0
210
0.0
220
0.0
230
1.0
  2
SOLID
 70
     1
 71
     1
 91
        1
 92
        7
 72
     0
 73
     1
 93
        4
 10
281.4453774460119
 20
-4.670857964967538
 10
282.0409267821701
 20
-2.448237584012574
 10
278.5893878744253
 20
-2.448237584012574
 10
277.9938385382671
 20
-4.670857964967538
 97
        1
330
65A4
 75
     0
 76
     1
 47
0.0587514446152511
 98
        1
 10
279.7973306142577
 20
-3.864872440937205
  0
LWPOLYLINE
  5
65A6
102
{ACAD_REACTORS
330
65A7
102
}
330
646F
100
AcDbEntity
 67
     1
  8
RAHMEN025
370
     9
100
AcDbPolyline
 90
        4
 70
     1
 43
0.0
 10
295.361544746074
 20
-9.692332850708567
 10
294.765995409916
 20
-11.91495323166347
 10
317.8170013280187
 20
-11.91495323166347
 10
318.4125506641767
 20
-9.692332850708567
  0
HATCH
  5
65A7
330
646F
100
AcDbEntity
 67
     1
  8
RAHMEN025
 62
   154
370
     9
100
AcDbHatch
 10
0.0
 20
0.0
 30
0.0
210
0.0
220
0.0
230
1.0
  2
SOLID
 70
     1
 71
     1
 91
        1
 92
        7
 72
     0
 73
     1
 93
        4
 10
317.8170013280186
 20
-11.91495323166347
 10
318.4125506641767
 20
-9.692332850708567
 10
295.3615447460739
 20
-9.692332850708567
 10
294.765995409916
 20
-11.91495323166347
 97
        1
330
65A6
 75
     0
 76
     1
 47
0.0579061006172788
 98
        1
 10
304.5779896000644
 20
-10.86654451968215
  0
LINE
  5
65A8
102
{ACAD_REACTORS
330
65F1
102
}
330
646F
100
AcDbEntity
 67
     1
  8
RAHMEN025
370
     9
100
AcDbLine
 10
305.7112525914279
 20
-2.806916547171468
 30
0.0
 11
305.9535044459069
 21
-1.902820318029398
 31
0.0
  0
LINE
  5
65A9
102
{ACAD_REACTORS
330
65F1
102
}
330
646F
100
AcDbEntity
 67
     1
  8
RAHMEN025
370
     9
100
AcDbLine
 10
306.8776203655974
 20
-2.806916547171468
 30
0.0
 11
305.7112525914279
 21
-2.806916547171468
 31
0.0
  0
ARC
  5
65AA
102
{ACAD_REACTORS
330
65F1
102
}
330
646F
100
AcDbEntity
 67
     1
  8
RAHMEN025
370
     9
100
AcDbCircle
 10
306.8751369661115
 20
-2.038701181800945
 30
0.0
 40
0.7682193793950698
100
AcDbArc
 50
270.1852188608381
 51
291.3103783431897
  0
ARC
  5
65AB
102
{ACAD_REACTORS
330
65F1
102
}
330
646F
100
AcDbEntity
 67
     1
  8
RAHMEN025
370
     9
100
AcDbCircle
 10
306.9095805929742
 20
-2.263716816532109
 30
0.0
 40
0.5483274067590241
100
AcDbArc
 50
296.5093598874432
 51
350.9662004601523
  0
ARC
  5
65AC
102
{ACAD_REACTORS
330
65F1
102
}
330
646F
100
AcDbEntity
 67
     1
  8
RAHMEN025
370
     9
100
AcDbCircle
 10
307.0695642087446
 20
-2.289152484976909
 30
0.0
 40
0.386334411403646
100
AcDbArc
 50
350.9662004601523
 51
90.1953042656462
  0
LINE
  5
65AD
102
{ACAD_REACTORS
330
65F1
102
}
330
646F
100
AcDbEntity
 67
     1
  8
RAHMEN025
370
     9
100
AcDbLine
 10
307.0682473122293
 20
-1.902820318029398
 30
0.0
 11
305.9535044459069
 21
-1.902820318029398
 31
0.0
  0
LINE
  5
65AE
102
{ACAD_REACTORS
330
65F1
102
}
330
646F
100
AcDbEntity
 67
     1
  8
RAHMEN025
370
     9
100
AcDbLine
 10
308.9244755950554
 20
-2.521790523642437
 30
0.0
 11
309.0406243241601
 21
-2.088317565388052
 31
0.0
  0
ARC
  5
65AF
102
{ACAD_REACTORS
330
65F1
102
}
330
646F
100
AcDbEntity
 67
     1
  8
RAHMEN025
370
     9
100
AcDbCircle
 10
308.1095147887052
 20
-2.303422433717912
 30
0.0
 40
0.8437095107820451
100
AcDbArc
 50
270.0
 51
345.0438139040562
  0
LINE
  5
65B0
102
{ACAD_REACTORS
330
65F1
102
}
330
646F
100
AcDbEntity
 67
     1
  8
RAHMEN025
370
     9
100
AcDbLine
 10
308.1095147887052
 20
-3.147131944499875
 30
0.0
 11
307.3290966373665
 21
-3.147131944499875
 31
0.0
  0
LINE
  5
65B1
102
{ACAD_REACTORS
330
65F1
102
}
330
646F
100
AcDbEntity
 67
     1
  8
RAHMEN025
370
     9
100
AcDbLine
 10
307.3290966373665
 20
-3.147131944499875
 30
0.0
 11
308.3326249326393
 21
-4.730607266272869
 31
0.0
  0
LINE
  5
65B2
102
{ACAD_REACTORS
330
65F1
102
}
330
646F
100
AcDbEntity
 67
     1
  8
RAHMEN025
370
     9
100
AcDbLine
 10
306.6236204457337
 20
-4.730607266272869
 30
0.0
 11
308.3326249326393
 21
-4.730607266272869
 31
0.0
  0
LINE
  5
65B3
102
{ACAD_REACTORS
330
65F1
102
}
330
646F
100
AcDbEntity
 67
     1
  8
RAHMEN025
370
     9
100
AcDbLine
 10
305.6200921504611
 20
-3.147131944499875
 30
0.0
 11
306.6236204457337
 21
-4.730607266272869
 31
0.0
  0
LINE
  5
65B4
102
{ACAD_REACTORS
330
65F1
102
}
330
646F
100
AcDbEntity
 67
     1
  8
RAHMEN025
370
     9
100
AcDbLine
 10
305.6200921504611
 20
-3.147131944499875
 30
0.0
 11
305.1958012167576
 21
-4.730607266272869
 31
0.0
  0
LINE
  5
65B5
102
{ACAD_REACTORS
330
65F1
102
}
330
646F
100
AcDbEntity
 67
     1
  8
RAHMEN025
370
     9
100
AcDbLine
 10
303.8932393750451
 20
-4.730607266272869
 30
0.0
 11
305.1958012167576
 21
-4.730607266272869
 31
0.0
  0
LINE
  5
65B6
102
{ACAD_REACTORS
330
65F1
102
}
330
646F
100
AcDbEntity
 67
     1
  8
RAHMEN025
370
     9
100
AcDbLine
 10
304.8858216019746
 20
-1.026239964681451
 30
0.0
 11
303.8932393750451
 21
-4.730607266272869
 31
0.0
  0
LINE
  5
65B7
102
{ACAD_REACTORS
330
65F1
102
}
330
646F
100
AcDbEntity
 67
     1
  8
RAHMEN025
370
     9
100
AcDbLine
 10
308.2256635178104
 20
-1.026239964681451
 30
0.0
 11
304.8858216019746
 21
-1.026239964681451
 31
0.0
  0
ARC
  5
65B8
102
{ACAD_REACTORS
330
65F1
102
}
330
646F
100
AcDbEntity
 67
     1
  8
RAHMEN025
370
     9
100
AcDbCircle
 10
308.2256635178104
 20
-1.869949475463641
 30
0.0
 40
0.8437095107820451
100
AcDbArc
 50
344.9999529879285
 51
90.0
  0
LINE
  5
65B9
102
{ACAD_REACTORS
330
65F1
102
}
330
646F
100
AcDbEntity
 67
     1
  8
RAHMEN025
370
     9
100
AcDbLine
 10
303.7546804024788
 20
-3.248781848854406
 30
0.0
 11
303.9530744573892
 21
-2.508365156009375
 31
0.0
  0
LINE
  5
65BA
102
{ACAD_REACTORS
330
65F1
102
}
330
646F
100
AcDbEntity
 67
     1
  8
RAHMEN025
370
     9
100
AcDbLine
 10
301.2619023024408
 20
-3.248781848854406
 30
0.0
 11
303.7546804024788
 21
-3.248781848854406
 31
0.0
  0
LINE
  5
65BB
102
{ACAD_REACTORS
330
65F1
102
}
330
646F
100
AcDbEntity
 67
     1
  8
RAHMEN025
370
     9
100
AcDbLine
 10
301.2619023024408
 20
-3.248781848854406
 30
0.0
 11
301.137590678821
 21
-3.712719144174855
 31
0.0
  0
LINE
  5
65BC
102
{ACAD_REACTORS
330
65F1
102
}
330
646F
100
AcDbEntity
 67
     1
  8
RAHMEN025
370
     9
100
AcDbLine
 10
301.137590678821
 20
-3.712719144174855
 30
0.0
 11
303.6406447462253
 21
-3.712719144174855
 31
0.0
  0
LINE
  5
65BD
102
{ACAD_REACTORS
330
65F1
102
}
330
646F
100
AcDbEntity
 67
     1
  8
RAHMEN025
370
     9
100
AcDbLine
 10
303.3576264785573
 20
-4.730607266272869
 30
0.0
 11
303.6303687788589
 21
-3.712719144174855
 31
0.0
  0
LINE
  5
65BE
102
{ACAD_REACTORS
330
65F1
102
}
330
646F
100
AcDbEntity
 67
     1
  8
RAHMEN025
370
     9
100
AcDbLine
 10
299.5622865368073
 20
-4.730607266272869
 30
0.0
 11
303.3576264785573
 21
-4.730607266272869
 31
0.0
  0
LINE
  5
65BF
102
{ACAD_REACTORS
330
65F1
102
}
330
646F
100
AcDbEntity
 67
     1
  8
RAHMEN025
370
     9
100
AcDbLine
 10
300.5548687637369
 20
-1.026239964681451
 30
0.0
 11
299.5622865368073
 21
-4.730607266272869
 31
0.0
  0
LINE
  5
65C0
102
{ACAD_REACTORS
330
65F1
102
}
330
646F
100
AcDbEntity
 67
     1
  8
RAHMEN025
370
     9
100
AcDbLine
 10
304.3502087054873
 20
-1.026239964681451
 30
0.0
 11
300.5548687637369
 21
-1.026239964681451
 31
0.0
  0
LINE
  5
65C1
102
{ACAD_REACTORS
330
65F1
102
}
330
646F
100
AcDbEntity
 67
     1
  8
RAHMEN025
370
     9
100
AcDbLine
 10
304.0771215321384
 20
-2.045415170513678
 30
0.0
 11
304.3502087054873
 21
-1.026239964681451
 31
0.0
  0
LINE
  5
65C2
102
{ACAD_REACTORS
330
65F1
102
}
330
646F
100
AcDbEntity
 67
     1
  8
RAHMEN025
370
     9
100
AcDbLine
 10
304.0771215321384
 20
-2.045415170513678
 30
0.0
 11
301.5740674647344
 21
-2.045415170513678
 31
0.0
  0
LINE
  5
65C3
102
{ACAD_REACTORS
330
65F1
102
}
330
646F
100
AcDbEntity
 67
     1
  8
RAHMEN025
370
     9
100
AcDbLine
 10
301.5843434321005
 20
-2.045415170513678
 30
0.0
 11
301.4602963573514
 21
-2.508365156009375
 31
0.0
  0
LINE
  5
65C4
102
{ACAD_REACTORS
330
65F1
102
}
330
646F
100
AcDbEntity
 67
     1
  8
RAHMEN025
370
     9
100
AcDbLine
 10
303.9530744573892
 20
-2.508365156009375
 30
0.0
 11
301.4602963573514
 21
-2.508365156009375
 31
0.0
  0
LINE
  5
65C5
102
{ACAD_REACTORS
330
65F1
102
}
330
646F
100
AcDbEntity
 67
     1
  8
RAHMEN025
370
     9
100
AcDbLine
 10
297.5713028994646
 20
-1.026239964681451
 30
0.0
 11
296.8878521283269
 21
-3.576912967039447
 31
0.0
  0
ARC
  5
65C6
102
{ACAD_REACTORS
330
65F1
102
}
330
646F
100
AcDbEntity
 67
     1
  8
RAHMEN025
370
     9
100
AcDbCircle
 10
297.2212451854704
 20
-3.666245367463147
 30
0.0
 40
0.3451538907744731
100
AcDbArc
 50
164.9999999999992
 51
270.0
  0
LINE
  5
65C7
102
{ACAD_REACTORS
330
65F1
102
}
330
646F
100
AcDbEntity
 67
     1
  8
RAHMEN025
370
     9
100
AcDbLine
 10
297.442417079381
 20
-4.011399258237503
 30
0.0
 11
297.2212451854704
 21
-4.011399258237503
 31
0.0
  0
ARC
  5
65C8
102
{ACAD_REACTORS
330
65F1
102
}
330
646F
100
AcDbEntity
 67
     1
  8
RAHMEN025
370
     9
100
AcDbCircle
 10
297.442417079381
 20
-3.666245367463147
 30
0.0
 40
0.3451538907744731
100
AcDbArc
 50
270.0
 51
344.9999999999992
  0
LINE
  5
65C9
102
{ACAD_REACTORS
330
65F1
102
}
330
646F
100
AcDbEntity
 67
     1
  8
RAHMEN025
370
     9
100
AcDbLine
 10
297.7758101365244
 20
-3.755577767886919
 30
0.0
 11
298.507133996765
 21
-1.026239964681451
 31
0.0
  0
LINE
  5
65CA
102
{ACAD_REACTORS
330
65F1
102
}
330
646F
100
AcDbEntity
 67
     1
  8
RAHMEN025
370
     9
100
AcDbLine
 10
299.9721503959206
 20
-1.026239964681451
 30
0.0
 11
298.507133996765
 21
-1.026239964681451
 31
0.0
  0
LINE
  5
65CB
102
{ACAD_REACTORS
330
65F1
102
}
330
646F
100
AcDbEntity
 67
     1
  8
RAHMEN025
370
     9
100
AcDbLine
 10
299.2023921857978
 20
-3.899016714404169
 30
0.0
 11
299.9721503959206
 21
-1.026239964681451
 31
0.0
  0
ARC
  5
65CC
102
{ACAD_REACTORS
330
65F1
102
}
330
646F
100
AcDbEntity
 67
     1
  8
RAHMEN025
370
     9
100
AcDbCircle
 10
298.2022130143679
 20
-3.631019513133281
 30
0.0
 40
1.035461672323419
100
AcDbArc
 50
278.5178280220953
 51
344.9999999999992
  0
ARC
  5
65CD
102
{ACAD_REACTORS
330
65F1
102
}
330
646F
100
AcDbEntity
 67
     1
  8
RAHMEN025
370
     9
100
AcDbCircle
 10
297.301099207671
 20
2.385666598411916
 30
0.0
 40
7.119253077153191
100
AcDbArc
 50
261.6882763531173
 51
278.5178280220953
  0
ARC
  5
65CE
102
{ACAD_REACTORS
330
65F1
102
}
330
646F
100
AcDbEntity
 67
     1
  8
RAHMEN025
370
     9
100
AcDbCircle
 10
296.4105466323551
 20
-3.710117281656835
 30
0.0
 40
0.9587608077068694
100
AcDbArc
 50
164.9999999999992
 51
261.6882763531173
  0
LINE
  5
65CF
102
{ACAD_REACTORS
330
65F1
102
}
330
646F
100
AcDbEntity
 67
     1
  8
RAHMEN025
370
     9
100
AcDbLine
 10
296.1371071650931
 20
-1.026239964681451
 30
0.0
 11
295.4844548069575
 21
-3.461971724924438
 31
0.0
  0
LINE
  5
65D0
102
{ACAD_REACTORS
330
65F1
102
}
330
646F
100
AcDbEntity
 67
     1
  8
RAHMEN025
370
     9
100
AcDbLine
 10
297.5713028994646
 20
-1.026239964681451
 30
0.0
 11
296.1371071650931
 21
-1.026239964681451
 31
0.0
  0
LINE
  5
65D1
102
{ACAD_REACTORS
330
65F1
102
}
330
646F
100
AcDbEntity
 67
     1
  8
RAHMEN025
370
     9
100
AcDbLine
 10
292.810030032113
 20
-3.398159533984454
 30
0.0
 11
293.7469864143651
 21
-1.68232283974315
 31
0.0
  0
LINE
  5
65D2
102
{ACAD_REACTORS
330
65F1
102
}
330
646F
100
AcDbEntity
 67
     1
  8
RAHMEN025
370
     9
100
AcDbLine
 10
292.810030032113
 20
-3.398159533984454
 30
0.0
 11
293.8337096528537
 21
-3.398159533984454
 31
0.0
  0
LINE
  5
65D3
102
{ACAD_REACTORS
330
65F1
102
}
330
646F
100
AcDbEntity
 67
     1
  8
RAHMEN025
370
     9
100
AcDbLine
 10
293.8337096528537
 20
-3.398159533984454
 30
0.0
 11
293.7469864143651
 21
-1.68232283974315
 31
0.0
  0
LINE
  5
65D4
102
{ACAD_REACTORS
330
65F1
102
}
330
646F
100
AcDbEntity
 67
     1
  8
RAHMEN025
370
     9
100
AcDbLine
 10
295.2050189184802
 20
-4.732543134481645
 30
0.0
 11
295.0176918757697
 21
-1.026239964681451
 31
0.0
  0
LINE
  5
65D5
102
{ACAD_REACTORS
330
65F1
102
}
330
646F
100
AcDbEntity
 67
     1
  8
RAHMEN025
370
     9
100
AcDbLine
 10
293.901055329076
 20
-4.730607266272869
 30
0.0
 11
295.2049210742267
 21
-4.730607266272869
 31
0.0
  0
LINE
  5
65D6
102
{ACAD_REACTORS
330
65F1
102
}
330
646F
100
AcDbEntity
 67
     1
  8
RAHMEN025
370
     9
100
AcDbLine
 10
293.901055329076
 20
-4.730607266272869
 30
0.0
 11
293.874349239709
 21
-4.202221923495585
 31
0.0
  0
LINE
  5
65D7
102
{ACAD_REACTORS
330
65F1
102
}
330
646F
100
AcDbEntity
 67
     1
  8
RAHMEN025
370
     9
100
AcDbLine
 10
292.3709606322629
 20
-4.202221923495585
 30
0.0
 11
293.874349239709
 21
-4.202221923495585
 31
0.0
  0
LINE
  5
65D8
102
{ACAD_REACTORS
330
65F1
102
}
330
646F
100
AcDbEntity
 67
     1
  8
RAHMEN025
370
     9
100
AcDbLine
 10
292.0824285004669
 20
-4.730607266272869
 30
0.0
 11
292.3709606322629
 21
-4.202221923495585
 31
0.0
  0
LINE
  5
65D9
102
{ACAD_REACTORS
330
65F1
102
}
330
646F
100
AcDbEntity
 67
     1
  8
RAHMEN025
370
     9
100
AcDbLine
 10
290.4844319850262
 20
-4.730607266272869
 30
0.0
 11
292.0824285004669
 21
-4.730607266272869
 31
0.0
  0
LINE
  5
65DA
102
{ACAD_REACTORS
330
65F1
102
}
330
646F
100
AcDbEntity
 67
     1
  8
RAHMEN025
370
     9
100
AcDbLine
 10
290.4844319850262
 20
-4.730607266272869
 30
0.0
 11
292.5072530361674
 21
-1.026239964681451
 31
0.0
  0
LINE
  5
65DB
102
{ACAD_REACTORS
330
65F1
102
}
330
646F
100
AcDbEntity
 67
     1
  8
RAHMEN025
370
     9
100
AcDbLine
 10
295.0176918757697
 20
-1.026239964681451
 30
0.0
 11
292.5072530361674
 21
-1.026239964681451
 31
0.0
  0
LINE
  5
65DC
102
{ACAD_REACTORS
330
65F1
102
}
330
646F
100
AcDbEntity
 67
     1
  8
RAHMEN025
370
     9
100
AcDbLine
 10
288.6758082198067
 20
-1.026239964681451
 30
0.0
 11
289.3853982345555
 21
-2.778399196212603
 31
0.0
  0
LINE
  5
65DD
102
{ACAD_REACTORS
330
65F1
102
}
330
646F
100
AcDbEntity
 67
     1
  8
RAHMEN025
370
     9
100
AcDbLine
 10
289.3853982345555
 20
-2.778399196212603
 30
0.0
 11
289.854887885655
 21
-1.026239964681451
 31
0.0
  0
LINE
  5
65DE
102
{ACAD_REACTORS
330
65F1
102
}
330
646F
100
AcDbEntity
 67
     1
  8
RAHMEN025
370
     9
100
AcDbLine
 10
291.1702590252129
 20
-1.026239964681451
 30
0.0
 11
289.854887885655
 21
-1.026239964681451
 31
0.0
  0
LINE
  5
65DF
102
{ACAD_REACTORS
330
65F1
102
}
330
646F
100
AcDbEntity
 67
     1
  8
RAHMEN025
370
     9
100
AcDbLine
 10
290.1776767982833
 20
-4.730607266272869
 30
0.0
 11
291.1702590252129
 21
-1.026239964681451
 31
0.0
  0
LINE
  5
65E0
102
{ACAD_REACTORS
330
65F1
102
}
330
646F
100
AcDbEntity
 67
     1
  8
RAHMEN025
370
     9
100
AcDbLine
 10
288.903632057978
 20
-4.730607266272869
 30
0.0
 11
290.1776767982833
 21
-4.730607266272869
 31
0.0
  0
LINE
  5
65E1
102
{ACAD_REACTORS
330
65F1
102
}
330
646F
100
AcDbEntity
 67
     1
  8
RAHMEN025
370
     9
100
AcDbLine
 10
288.903632057978
 20
-4.730607266272869
 30
0.0
 11
288.1964967515281
 21
-2.969472030431631
 31
0.0
  0
LINE
  5
65E2
102
{ACAD_REACTORS
330
65F1
102
}
330
646F
100
AcDbEntity
 67
     1
  8
RAHMEN025
370
     9
100
AcDbLine
 10
288.1964967515281
 20
-2.969472030431631
 30
0.0
 11
287.7246019873228
 21
-4.730607266272869
 31
0.0
  0
LINE
  5
65E3
102
{ACAD_REACTORS
330
65F1
102
}
330
646F
100
AcDbEntity
 67
     1
  8
RAHMEN025
370
     9
100
AcDbLine
 10
286.4220401456103
 20
-4.730607266272869
 30
0.0
 11
287.7246019873228
 21
-4.730607266272869
 31
0.0
  0
LINE
  5
65E4
102
{ACAD_REACTORS
330
65F1
102
}
330
646F
100
AcDbEntity
 67
     1
  8
RAHMEN025
370
     9
100
AcDbLine
 10
287.41462237254
 20
-1.026239964681451
 30
0.0
 11
286.4220401456103
 21
-4.730607266272869
 31
0.0
  0
LINE
  5
65E5
102
{ACAD_REACTORS
330
65F1
102
}
330
646F
100
AcDbEntity
 67
     1
  8
RAHMEN025
370
     9
100
AcDbLine
 10
288.6758082198067
 20
-1.026239964681451
 30
0.0
 11
287.41462237254
 21
-1.026239964681451
 31
0.0
  0
LINE
  5
65E6
102
{ACAD_REACTORS
330
65F1
102
}
330
646F
100
AcDbEntity
 67
     1
  8
RAHMEN025
370
     9
100
AcDbLine
 10
285.3694785262475
 20
-2.926539144862786
 30
0.0
 11
286.0358943181978
 21
-4.730607266272869
 31
0.0
  0
LINE
  5
65E7
102
{ACAD_REACTORS
330
65F1
102
}
330
646F
100
AcDbEntity
 67
     1
  8
RAHMEN025
370
     9
100
AcDbLine
 10
284.595293934904
 20
-4.730607266272869
 30
0.0
 11
286.0358943181978
 21
-4.730607266272869
 31
0.0
  0
LINE
  5
65E8
102
{ACAD_REACTORS
330
65F1
102
}
330
646F
100
AcDbEntity
 67
     1
  8
RAHMEN025
370
     9
100
AcDbLine
 10
284.0026548825136
 20
-3.015585622863937
 30
0.0
 11
284.6312684068443
 21
-4.717318435366877
 31
0.0
  0
LINE
  5
65E9
102
{ACAD_REACTORS
330
65F1
102
}
330
646F
100
AcDbEntity
 67
     1
  8
RAHMEN025
370
     9
100
AcDbLine
 10
284.0026548825136
 20
-3.015585622863937
 30
0.0
 11
283.5431162181599
 21
-4.730607266272869
 31
0.0
  0
LINE
  5
65EA
102
{ACAD_REACTORS
330
65F1
102
}
330
646F
100
AcDbEntity
 67
     1
  8
RAHMEN025
370
     9
100
AcDbLine
 10
282.2008510873704
 20
-4.730607266272869
 30
0.0
 11
283.5431162181599
 21
-4.730607266272869
 31
0.0
  0
LINE
  5
65EB
102
{ACAD_REACTORS
330
65F1
102
}
330
646F
100
AcDbEntity
 67
     1
  8
RAHMEN025
370
     9
100
AcDbLine
 10
283.1934333143003
 20
-1.026239964681451
 30
0.0
 11
282.2008510873704
 21
-4.730607266272869
 31
0.0
  0
LINE
  5
65EC
102
{ACAD_REACTORS
330
65F1
102
}
330
646F
100
AcDbEntity
 67
     1
  8
RAHMEN025
370
     9
100
AcDbLine
 10
284.5356984450899
 20
-1.026239964681451
 30
0.0
 11
283.1934333143003
 21
-1.026239964681451
 31
0.0
  0
LINE
  5
65ED
102
{ACAD_REACTORS
330
65F1
102
}
330
646F
100
AcDbEntity
 67
     1
  8
RAHMEN025
370
     9
100
AcDbLine
 10
284.5356984450899
 20
-1.026239964681451
 30
0.0
 11
284.1378990438389
 21
-2.510847541370651
 31
0.0
  0
LINE
  5
65EE
102
{ACAD_REACTORS
330
65F1
102
}
330
646F
100
AcDbEntity
 67
     1
  8
RAHMEN025
370
     9
100
AcDbLine
 10
285.4339902352829
 20
-1.026239964681451
 30
0.0
 11
284.1378990438389
 21
-2.510847541370651
 31
0.0
  0
LINE
  5
65EF
102
{ACAD_REACTORS
330
65F1
102
}
330
646F
100
AcDbEntity
 67
     1
  8
RAHMEN025
370
     9
100
AcDbLine
 10
287.0284765451277
 20
-1.026239964681451
 30
0.0
 11
285.4339902352829
 21
-1.026239964681451
 31
0.0
  0
LINE
  5
65F0
102
{ACAD_REACTORS
330
65F1
102
}
330
646F
100
AcDbEntity
 67
     1
  8
RAHMEN025
370
     9
100
AcDbLine
 10
287.0284765451277
 20
-1.026239964681451
 30
0.0
 11
285.3694785262475
 21
-2.926539144862786
 31
0.0
  0
HATCH
  5
65F1
330
646F
100
AcDbEntity
 67
     1
  8
RAHMEN025
370
     9
100
AcDbHatch
 10
0.0
 20
0.0
 30
0.0
210
0.0
220
0.0
230
1.0
  2
SOLID
 70
     1
 71
     1
 91
        8
 92
        7
 72
     0
 73
     1
 93
       11
 10
284.6361772496242
 20
-4.730607266272869
 10
286.0358943181978
 20
-4.730607266272869
 10
285.3694785262475
 20
-2.926539144862815
 10
287.0284765451277
 20
-1.026239964681451
 10
285.4339902352829
 20
-1.026239964681451
 10
284.1378990438388
 20
-2.510847541370594
 10
284.5356984450899
 20
-1.026239964681451
 10
283.1934333143003
 20
-1.026239964681451
 10
282.2008510873704
 20
-4.730607266272869
 10
283.5431162181599
 20
-4.730607266272869
 10
284.0026548825136
 20
-3.01558562286387
 97
       11
330
65F0
330
65EF
330
65EE
330
65ED
330
65EC
330
65EB
330
65EA
330
65E9
330
65E8
330
65E7
330
65E6
 92
        7
 72
     0
 73
     1
 93
       10
 10
288.6758082198066
 20
-1.026239964681451
 10
287.41462237254
 20
-1.026239964681451
 10
286.4220401456104
 20
-4.730607266272869
 10
287.7246019873228
 20
-4.730607266272869
 10
288.1964967515281
 20
-2.969472030431631
 10
288.903632057978
 20
-4.730607266272869
 10
290.1776767982834
 20
-4.730607266272869
 10
291.1702590252129
 20
-1.026239964681451
 10
289.854887885655
 20
-1.026239964681451
 10
289.3853982345555
 20
-2.778399196212664
 97
       10
330
65E5
330
65E4
330
65E3
330
65E2
330
65E1
330
65E0
330
65DF
330
65DE
330
65DD
330
65DC
 92
        7
 72
     0
 73
     1
 93
        8
 10
290.4844319850262
 20
-4.730607266272869
 10
292.0824285004669
 20
-4.730607266272869
 10
292.3709606322629
 20
-4.202221923495585
 10
293.874349239709
 20
-4.202221923495585
 10
293.901055329076
 20
-4.730607266272869
 10
295.2049210742267
 20
-4.730607266272869
 10
295.0176918757697
 20
-1.026239964681451
 10
292.5072530361674
 20
-1.026239964681451
 97
        8
330
65DB
330
65DA
330
65D9
330
65D8
330
65D7
330
65D6
330
65D5
330
65D4
 92
       22
 72
     0
 73
     1
 93
        3
 10
293.746986414365
 20
-1.682322839743211
 10
293.8337096528538
 20
-3.398159533984454
 10
292.8100300321131
 20
-3.398159533984454
 97
        3
330
65D3
330
65D2
330
65D1
 92
        7
 72
     1
 73
     1
 93
       12
 10
297.5713028994646
 20
-1.026239964681451
 42
0.0
 10
296.137107165093
 20
-1.026239964681451
 42
0.0
 10
295.4844548069574
 20
-3.461971724924609
 42
0.4488320008137725
 10
296.2719494441647
 20
-4.658807487056087
 42
0.0735650496629369
 10
298.3555826398445
 20
-4.655059860400907
 42
0.2985033964043282
 10
299.2023921857978
 20
-3.89901671440425
 42
0.0
 10
299.9721503959206
 20
-1.026239964681451
 42
0.0
 10
298.507133996765
 20
-1.026239964681451
 42
0.0
 10
297.7758101365244
 20
-3.755577767886869
 42
-0.3394542588632696
 10
297.4424170793812
 20
-4.011399258237503
 42
0.0
 10
297.2212451854704
 20
-4.011399258237503
 42
-0.4931454260315976
 10
296.887852128327
 20
-3.576912967039284
 42
0.0
 97
       12
330
65D0
330
65CF
330
65CE
330
65CD
330
65CC
330
65CB
330
65CA
330
65C9
330
65C8
330
65C7
330
65C6
330
65C5
 92
        7
 72
     0
 73
     1
 93
       12
 10
299.5622865368074
 20
-4.730607266272869
 10
303.3576264785573
 20
-4.730607266272869
 10
303.6303687788589
 20
-3.712719144174855
 10
301.1375906788211
 20
-3.712719144174855
 10
301.2619023024408
 20
-3.248781848854406
 10
303.7546804024788
 20
-3.248781848854406
 10
303.9530744573892
 20
-2.508365156009375
 10
301.4602963573514
 20
-2.508365156009375
 10
301.5843434321005
 20
-2.045415170513678
 10
304.0771215321384
 20
-2.045415170513678
 10
304.3502087054873
 20
-1.026239964681451
 10
300.5548687637369
 20
-1.026239964681451
 97
       12
330
65C4
330
65C3
330
65C2
330
65C1
330
65C0
330
65BF
330
65BE
330
65BD
330
65BC
330
65BB
330
65BA
330
65B9
 92
        7
 72
     1
 73
     1
 93
       11
 10
303.8932393750452
 20
-4.730607266272869
 42
0.0
 10
305.1958012167576
 20
-4.730607266272869
 42
0.0
 10
305.6200921504611
 20
-3.14713194449984
 42
0.0
 10
306.6236204457337
 20
-4.730607266272869
 42
0.0
 10
308.3326249326393
 20
-4.730607266272869
 42
0.0
 10
307.3290966373665
 20
-3.147131944499875
 42
0.0
 10
308.1095147887052
 20
-3.147131944499875
 42
0.3394542588635565
 10
308.9244755950555
 20
-2.521790523641946
 42
0.0
 10
309.0406243241602
 20
-2.088317565387637
 42
0.4931454260311626
 10
308.22566351781
 20
-1.026239964681451
 42
0.0
 10
304.8858216019746
 20
-1.026239964681451
 42
0.0
 97
       11
330
65B8
330
65B7
330
65B6
330
65B5
330
65B4
330
65B3
330
65B2
330
65B1
330
65B0
330
65AF
330
65AE
 92
       22
 72
     1
 73
     1
 93
        6
 10
305.953504445907
 20
-1.902820318029398
 42
0.0
 10
307.0682473123014
 20
-1.902820318029398
 42
-0.4622189808356573
 10
307.4511064840592
 20
-2.349813589339763
 42
-0.2421880062385626
 10
307.154323243429
 20
-2.754393879427311
 42
-0.0940682372810069
 10
306.8726535638522
 20
-2.806916547171468
 42
0.0
 10
305.7112525914279
 20
-2.806916547171468
 42
0.0
 97
        6
330
65AD
330
65AC
330
65AB
330
65AA
330
65A9
330
65A8
 75
     0
 76
     1
 47
0.0617673955459683
 98
        8
 10
284.6169736983926
 20
-3.20181085123599
 10
288.6968956414258
 20
-2.58413672158403
 10
292.5295497258943
 20
-2.522369394756054
 10
292.5295497258943
 20
-2.522369394756054
 10
296.5476543248339
 20
-2.58413672158403
 10
300.7512109560543
 20
-2.645904048411892
 10
305.2020339280299
 20
-2.275299226071609
 10
305.2020339280299
 20
-2.275299226071609
  0
LINE
  5
65F2
330
646F
100
AcDbEntity
 67
     1
  8
Defpoints
100
AcDbLine
 10
278.4437646307024
 20
-7.622023506202339
 30
0.0
 11
278.3297289744487
 21
-8.04761036921434
 31
0.0
  0
LINE
  5
65F3
330
646F
100
AcDbEntity
 67
     1
  8
Defpoints
100
AcDbLine
 10
297.1845651943183
 20
-7.622023506202339
 30
0.0
 11
297.0705295380648
 21
-8.04761036921434
 31
0.0
  0
ARC
  5
65F4
330
646F
100
AcDbEntity
 67
     1
  8
Defpoints
100
AcDbCircle
 10
288.1624910580258
 20
-7.953335954372249
 30
0.0
 40
1.150512969248243
100
AcDbArc
 50
270.0
 51
270.0
  0
LINE
  5
65F5
330
646F
100
AcDbEntity
 67
     1
  8
Defpoints
100
AcDbLine
 10
301.4203005678723
 20
-7.622023506202339
 30
0.0
 11
301.3062649116193
 21
-8.04761036921434
 31
0.0
  0
ARC
  5
65F6
330
646F
100
AcDbEntity
 67
     1
  8
Defpoints
100
AcDbCircle
 10
317.7830910728443
 20
-7.953335954372249
 30
0.0
 40
1.150512969248243
100
AcDbArc
 50
270.0
 51
270.0
  0
ARC
  5
65F7
102
{ACAD_REACTORS
330
6672
102
}
330
646F
100
AcDbEntity
 67
     1
  8
Defpoints
370
    13
100
AcDbCircle
 10
322.7380408816633
 20
-8.971501133929564
 30
0.0
 40
6.22149298766157
100
AcDbArc
 50
158.0969939507942
 51
170.4856136403678
  0
ARC
  5
65F8
102
{ACAD_REACTORS
330
6672
102
}
330
646F
100
AcDbEntity
 67
     1
  8
Defpoints
370
    13
100
AcDbCircle
 10
316.9812201761
 20
-8.00113659250266
 30
0.0
 40
0.3835043230827479
100
AcDbArc
 50
171.2985646492635
 51
270.0
  0
LINE
  5
65F9
102
{ACAD_REACTORS
330
6672
102
}
330
646F
100
AcDbEntity
 67
     1
  8
Defpoints
370
    13
100
AcDbLine
 10
316.9812201761
 20
-8.384640915585422
 30
0.0
 11
317.0229103979357
 21
-8.384640915585422
 31
0.0
  0
ARC
  5
65FA
102
{ACAD_REACTORS
330
6672
102
}
330
646F
100
AcDbEntity
 67
     1
  8
Defpoints
370
    13
100
AcDbCircle
 10
317.0229103979357
 20
-7.924435727885935
 30
0.0
 40
0.4602051876992975
100
AcDbArc
 50
270.0
 51
334.2263645027491
  0
ARC
  5
65FB
102
{ACAD_REACTORS
330
6672
102
}
330
646F
100
AcDbEntity
 67
     1
  8
Defpoints
370
    13
100
AcDbCircle
 10
316.1560051113605
 20
-7.5058493544241
 30
0.0
 40
1.422878199650913
100
AcDbArc
 50
334.2263645027383
 51
11.71383119333059
  0
LINE
  5
65FC
102
{ACAD_REACTORS
330
6672
102
}
330
646F
100
AcDbEntity
 67
     1
  8
Defpoints
370
    13
100
AcDbLine
 10
317.5492502066907
 20
-7.216971395106213
 30
0.0
 11
319.1139723856876
 21
-7.216971395106213
 31
0.0
  0
LINE
  5
65FD
102
{ACAD_REACTORS
330
6672
102
}
330
646F
100
AcDbEntity
 67
     1
  8
Defpoints
370
    13
100
AcDbLine
 10
318.6083850757059
 20
-9.103848923620461
 30
0.0
 11
319.1139723856876
 21
-7.216971395106213
 31
0.0
  0
LINE
  5
65FE
102
{ACAD_REACTORS
330
6672
102
}
330
646F
100
AcDbEntity
 67
     1
  8
Defpoints
370
    13
100
AcDbLine
 10
318.6083850757059
 20
-9.103848923620461
 30
0.0
 11
316.7815032784175
 21
-9.103848923620461
 31
0.0
  0
ARC
  5
65FF
102
{ACAD_REACTORS
330
6672
102
}
330
646F
100
AcDbEntity
 67
     1
  8
Defpoints
370
    13
100
AcDbCircle
 10
316.9874417628481
 20
-1.987575058935789
 30
0.0
 40
7.119253077153191
100
AcDbArc
 50
262.0635437036931
 51
268.3423749580197
  0
ARC
  5
6600
102
{ACAD_REACTORS
330
6672
102
}
330
646F
100
AcDbEntity
 67
     1
  8
Defpoints
370
    13
100
AcDbCircle
 10
316.1368332594725
 20
-8.089060957951816
 30
0.0
 40
0.9587608077068694
100
AcDbArc
 50
171.0200151799534
 51
262.0635437036931
  0
ARC
  5
6601
102
{ACAD_REACTORS
330
6672
102
}
330
646F
100
AcDbEntity
 67
     1
  8
Defpoints
370
    13
100
AcDbCircle
 10
323.3140066793917
 20
-9.223243592714908
 30
0.0
 40
8.224997010073714
100
AcDbArc
 50
157.3874044007955
 51
171.0200151799534
  0
ARC
  5
6602
102
{ACAD_REACTORS
330
6672
102
}
330
646F
100
AcDbEntity
 67
     1
  8
Defpoints
370
    13
100
AcDbCircle
 10
316.6063572015862
 20
-6.429388365348216
 30
0.0
 40
0.9587608077068694
100
AcDbArc
 50
95.92334440423654
 51
157.3874044007997
  0
ARC
  5
6603
102
{ACAD_REACTORS
330
6672
102
}
330
646F
100
AcDbEntity
 67
     1
  8
Defpoints
370
    13
100
AcDbCircle
 10
318.0004891449896
 20
-19.86657770682892
 30
0.0
 40
14.46807838019826
100
AcDbArc
 50
83.51735091136804
 51
95.92334440423654
  0
LINE
  5
6604
102
{ACAD_REACTORS
330
6672
102
}
330
646F
100
AcDbEntity
 67
     1
  8
Defpoints
370
    13
100
AcDbLine
 10
319.3700151056236
 20
-6.484272625085864
 30
0.0
 11
319.6339688278873
 21
-5.49100689586217
 31
0.0
  0
ARC
  5
6605
102
{ACAD_REACTORS
330
6672
102
}
330
646F
100
AcDbEntity
 67
     1
  8
Defpoints
370
    13
100
AcDbCircle
 10
317.8359366305441
 20
-15.20806232779655
 30
0.0
 40
8.85764661435673
100
AcDbArc
 50
80.0265067162775
 51
93.02614479233048
  0
ARC
  5
6606
102
{ACAD_REACTORS
330
6672
102
}
330
646F
100
AcDbEntity
 67
     1
  8
Defpoints
370
    13
100
AcDbCircle
 10
317.3926219415617
 20
-6.822330719840437
 30
0.0
 40
0.4602051876992975
100
AcDbArc
 50
93.02614479233048
 51
158.0969939507942
  0
LINE
  5
6607
102
{ACAD_REACTORS
330
6672
102
}
330
646F
100
AcDbEntity
 67
     1
  8
Defpoints
370
    13
100
AcDbLine
 10
312.9974457935796
 20
-5.399481622029099
 30
0.0
 11
313.7070358083284
 21
-7.15164085356028
 31
0.0
  0
LINE
  5
6608
102
{ACAD_REACTORS
330
6672
102
}
330
646F
100
AcDbEntity
 67
     1
  8
Defpoints
370
    13
100
AcDbLine
 10
313.7070358083284
 20
-7.15164085356028
 30
0.0
 11
314.1765254594279
 21
-5.399481622029099
 31
0.0
  0
LINE
  5
6609
102
{ACAD_REACTORS
330
6672
102
}
330
646F
100
AcDbEntity
 67
     1
  8
Defpoints
370
    13
100
AcDbLine
 10
315.4918965989862
 20
-5.399481622029099
 30
0.0
 11
314.1765254594279
 21
-5.399481622029099
 31
0.0
  0
LINE
  5
660A
102
{ACAD_REACTORS
330
6672
102
}
330
646F
100
AcDbEntity
 67
     1
  8
Defpoints
370
    13
100
AcDbLine
 10
314.4993143720566
 20
-9.103848923620461
 30
0.0
 11
315.4918965989862
 21
-5.399481622029099
 31
0.0
  0
LINE
  5
660B
102
{ACAD_REACTORS
330
6672
102
}
330
646F
100
AcDbEntity
 67
     1
  8
Defpoints
370
    13
100
AcDbLine
 10
313.2252696317508
 20
-9.103848923620461
 30
0.0
 11
314.4993143720566
 21
-9.103848923620461
 31
0.0
  0
LINE
  5
660C
102
{ACAD_REACTORS
330
6672
102
}
330
646F
100
AcDbEntity
 67
     1
  8
Defpoints
370
    13
100
AcDbLine
 10
313.2252696317508
 20
-9.103848923620461
 30
0.0
 11
312.5181343253015
 21
-7.34271368777928
 31
0.0
  0
LINE
  5
660D
102
{ACAD_REACTORS
330
6672
102
}
330
646F
100
AcDbEntity
 67
     1
  8
Defpoints
370
    13
100
AcDbLine
 10
312.5181343253015
 20
-7.34271368777928
 30
0.0
 11
312.0462395610959
 21
-9.103848923620461
 31
0.0
  0
LINE
  5
660E
102
{ACAD_REACTORS
330
6672
102
}
330
646F
100
AcDbEntity
 67
     1
  8
Defpoints
370
    13
100
AcDbLine
 10
310.7436777193833
 20
-9.103848923620461
 30
0.0
 11
312.0462395610959
 21
-9.103848923620461
 31
0.0
  0
LINE
  5
660F
102
{ACAD_REACTORS
330
6672
102
}
330
646F
100
AcDbEntity
 67
     1
  8
Defpoints
370
    13
100
AcDbLine
 10
311.7362599463134
 20
-5.399481622029099
 30
0.0
 11
310.7436777193833
 21
-9.103848923620461
 31
0.0
  0
LINE
  5
6610
102
{ACAD_REACTORS
330
6672
102
}
330
646F
100
AcDbEntity
 67
     1
  8
Defpoints
370
    13
100
AcDbLine
 10
312.9974457935796
 20
-5.399481622029099
 30
0.0
 11
311.7362599463134
 21
-5.399481622029099
 31
0.0
  0
LINE
  5
6611
102
{ACAD_REACTORS
330
6672
102
}
330
646F
100
AcDbEntity
 67
     1
  8
Defpoints
370
    13
100
AcDbLine
 10
311.2743833792162
 20
-5.399481622029099
 30
0.0
 11
310.2818011522867
 21
-9.103848923620461
 31
0.0
  0
LINE
  5
6612
102
{ACAD_REACTORS
330
6672
102
}
330
646F
100
AcDbEntity
 67
     1
  8
Defpoints
370
    13
100
AcDbLine
 10
308.9395360214972
 20
-9.103848923620461
 30
0.0
 11
310.2818011522867
 21
-9.103848923620461
 31
0.0
  0
LINE
  5
6613
102
{ACAD_REACTORS
330
6672
102
}
330
646F
100
AcDbEntity
 67
     1
  8
Defpoints
370
    13
100
AcDbLine
 10
309.9321182484267
 20
-5.399481622029099
 30
0.0
 11
308.9395360214972
 21
-9.103848923620461
 31
0.0
  0
LINE
  5
6614
102
{ACAD_REACTORS
330
6672
102
}
330
646F
100
AcDbEntity
 67
     1
  8
Defpoints
370
    13
100
AcDbLine
 10
311.2743833792162
 20
-5.399481622029099
 30
0.0
 11
309.9321182484267
 21
-5.399481622029099
 31
0.0
  0
LINE
  5
6615
102
{ACAD_REACTORS
330
6672
102
}
330
646F
100
AcDbEntity
 67
     1
  8
Defpoints
370
    13
100
AcDbLine
 10
305.8483548672096
 20
-7.170232382249793
 30
0.0
 11
306.0906067216882
 21
-6.266136153107936
 31
0.0
  0
LINE
  5
6616
102
{ACAD_REACTORS
330
6672
102
}
330
646F
100
AcDbEntity
 67
     1
  8
Defpoints
370
    13
100
AcDbLine
 10
307.014722641379
 20
-7.170232382249793
 30
0.0
 11
305.8483548672096
 21
-7.170232382249793
 31
0.0
  0
ARC
  5
6617
102
{ACAD_REACTORS
330
6672
102
}
330
646F
100
AcDbEntity
 67
     1
  8
Defpoints
370
    13
100
AcDbCircle
 10
307.0122392418934
 20
-6.402017016879455
 30
0.0
 40
0.7682193793950698
100
AcDbArc
 50
270.1852188608381
 51
291.3103783431897
  0
ARC
  5
6618
102
{ACAD_REACTORS
330
6672
102
}
330
646F
100
AcDbEntity
 67
     1
  8
Defpoints
370
    13
100
AcDbCircle
 10
307.0466828687559
 20
-6.627032651610448
 30
0.0
 40
0.5483274067590241
100
AcDbArc
 50
296.5093598874432
 51
350.9662004601523
  0
ARC
  5
6619
102
{ACAD_REACTORS
330
6672
102
}
330
646F
100
AcDbEntity
 67
     1
  8
Defpoints
370
    13
100
AcDbCircle
 10
307.2066664845265
 20
-6.652468320055163
 30
0.0
 40
0.386334411403646
100
AcDbArc
 50
350.9662004601523
 51
90.1953042656462
  0
LINE
  5
661A
102
{ACAD_REACTORS
330
6672
102
}
330
646F
100
AcDbEntity
 67
     1
  8
Defpoints
370
    13
100
AcDbLine
 10
307.205349588011
 20
-6.266136153107936
 30
0.0
 11
306.0906067216882
 21
-6.266136153107936
 31
0.0
  0
ARC
  5
661B
102
{ACAD_REACTORS
330
6672
102
}
330
646F
100
AcDbEntity
 67
     1
  8
Defpoints
370
    13
100
AcDbCircle
 10
308.2466170644869
 20
-6.666738268796322
 30
0.0
 40
0.8437095107820451
100
AcDbArc
 50
270.0
 51
345.0438139040562
  0
LINE
  5
661C
102
{ACAD_REACTORS
330
6672
102
}
330
646F
100
AcDbEntity
 67
     1
  8
Defpoints
370
    13
100
AcDbLine
 10
308.2466170644869
 20
-7.510447779578399
 30
0.0
 11
307.4661989131483
 21
-7.510447779578399
 31
0.0
  0
LINE
  5
661D
102
{ACAD_REACTORS
330
6672
102
}
330
646F
100
AcDbEntity
 67
     1
  8
Defpoints
370
    13
100
AcDbLine
 10
307.4661989131483
 20
-7.510447779578399
 30
0.0
 11
308.4697272084209
 21
-9.093923101351137
 31
0.0
  0
LINE
  5
661E
102
{ACAD_REACTORS
330
6672
102
}
330
646F
100
AcDbEntity
 67
     1
  8
Defpoints
370
    13
100
AcDbLine
 10
306.7607227215156
 20
-9.093923101351137
 30
0.0
 11
308.4697272084209
 21
-9.093923101351137
 31
0.0
  0
LINE
  5
661F
102
{ACAD_REACTORS
330
6672
102
}
330
646F
100
AcDbEntity
 67
     1
  8
Defpoints
370
    13
100
AcDbLine
 10
305.757194426243
 20
-7.510447779578399
 30
0.0
 11
306.7607227215156
 21
-9.093923101351137
 31
0.0
  0
LINE
  5
6620
102
{ACAD_REACTORS
330
6672
102
}
330
646F
100
AcDbEntity
 67
     1
  8
Defpoints
370
    13
100
AcDbLine
 10
305.757194426243
 20
-7.510447779578399
 30
0.0
 11
305.3329034925392
 21
-9.093923101351137
 31
0.0
  0
LINE
  5
6621
102
{ACAD_REACTORS
330
6672
102
}
330
646F
100
AcDbEntity
 67
     1
  8
Defpoints
370
    13
100
AcDbLine
 10
304.0303416508268
 20
-9.093923101351137
 30
0.0
 11
305.3329034925392
 21
-9.093923101351137
 31
0.0
  0
LINE
  5
6622
102
{ACAD_REACTORS
330
6672
102
}
330
646F
100
AcDbEntity
 67
     1
  8
Defpoints
370
    13
100
AcDbLine
 10
305.0229238777564
 20
-5.389555799759946
 30
0.0
 11
304.0276820347656
 21
-9.103848923620461
 31
0.0
  0
LINE
  5
6623
102
{ACAD_REACTORS
330
6672
102
}
330
646F
100
AcDbEntity
 67
     1
  8
Defpoints
370
    13
100
AcDbLine
 10
308.3627657935921
 20
-5.389555799759946
 30
0.0
 11
305.0229238777564
 21
-5.389555799759946
 31
0.0
  0
ARC
  5
6624
102
{ACAD_REACTORS
330
6672
102
}
330
646F
100
AcDbEntity
 67
     1
  8
Defpoints
370
    13
100
AcDbCircle
 10
308.3627657935921
 20
-6.233265310541909
 30
0.0
 40
0.8437095107820451
100
AcDbArc
 50
344.9999529879285
 51
90.0
  0
LINE
  5
6625
102
{ACAD_REACTORS
330
6672
102
}
330
646F
100
AcDbEntity
 67
     1
  8
Defpoints
370
    13
100
AcDbLine
 10
309.061577870837
 20
-6.885106358720975
 30
0.0
 11
309.1777265999419
 21
-6.451633400466363
 31
0.0
  0
LINE
  5
6626
102
{ACAD_REACTORS
330
6672
102
}
330
646F
100
AcDbEntity
 67
     1
  8
Defpoints
370
    13
100
AcDbLine
 10
303.9130786679101
 20
-7.622023506202339
 30
0.0
 11
304.1114727228208
 21
-6.881606813357038
 31
0.0
  0
LINE
  5
6627
102
{ACAD_REACTORS
330
6672
102
}
330
646F
100
AcDbEntity
 67
     1
  8
Defpoints
370
    13
100
AcDbLine
 10
301.4203005678723
 20
-7.622023506202339
 30
0.0
 11
303.9130786679101
 21
-7.622023506202339
 31
0.0
  0
LINE
  5
6628
102
{ACAD_REACTORS
330
6672
102
}
330
646F
100
AcDbEntity
 67
     1
  8
Defpoints
370
    13
100
AcDbLine
 10
301.4203005678723
 20
-7.622023506202339
 30
0.0
 11
301.2959889442527
 21
-8.08596080152256
 31
0.0
  0
LINE
  5
6629
102
{ACAD_REACTORS
330
6672
102
}
330
646F
100
AcDbEntity
 67
     1
  8
Defpoints
370
    13
100
AcDbLine
 10
301.2959889442527
 20
-8.08596080152256
 30
0.0
 11
303.7990430116571
 21
-8.08596080152256
 31
0.0
  0
LINE
  5
662A
102
{ACAD_REACTORS
330
6672
102
}
330
646F
100
AcDbEntity
 67
     1
  8
Defpoints
370
    13
100
AcDbLine
 10
303.5160247439892
 20
-9.103848923620461
 30
0.0
 11
303.7887670442905
 21
-8.08596080152256
 31
0.0
  0
LINE
  5
662B
102
{ACAD_REACTORS
330
6672
102
}
330
646F
100
AcDbEntity
 67
     1
  8
Defpoints
370
    13
100
AcDbLine
 10
299.7206848022387
 20
-9.103848923620461
 30
0.0
 11
303.5160247439892
 21
-9.103848923620461
 31
0.0
  0
LINE
  5
662C
102
{ACAD_REACTORS
330
6672
102
}
330
646F
100
AcDbEntity
 67
     1
  8
Defpoints
370
    13
100
AcDbLine
 10
300.7132670291688
 20
-5.399481622029099
 30
0.0
 11
299.7206848022387
 21
-9.103848923620461
 31
0.0
  0
LINE
  5
662D
102
{ACAD_REACTORS
330
6672
102
}
330
646F
100
AcDbEntity
 67
     1
  8
Defpoints
370
    13
100
AcDbLine
 10
304.5086069709188
 20
-5.399481622029099
 30
0.0
 11
300.7132670291688
 21
-5.399481622029099
 31
0.0
  0
LINE
  5
662E
102
{ACAD_REACTORS
330
6672
102
}
330
646F
100
AcDbEntity
 67
     1
  8
Defpoints
370
    13
100
AcDbLine
 10
304.2355197975703
 20
-6.418656827861383
 30
0.0
 11
304.5086069709188
 21
-5.399481622029099
 31
0.0
  0
LINE
  5
662F
102
{ACAD_REACTORS
330
6672
102
}
330
646F
100
AcDbEntity
 67
     1
  8
Defpoints
370
    13
100
AcDbLine
 10
304.2355197975703
 20
-6.418656827861383
 30
0.0
 11
301.7324657301661
 21
-6.418656827861383
 31
0.0
  0
LINE
  5
6630
102
{ACAD_REACTORS
330
6672
102
}
330
646F
100
AcDbEntity
 67
     1
  8
Defpoints
370
    13
100
AcDbLine
 10
301.7427416975325
 20
-6.418656827861383
 30
0.0
 11
301.6186946227828
 21
-6.881606813357038
 31
0.0
  0
LINE
  5
6631
102
{ACAD_REACTORS
330
6672
102
}
330
646F
100
AcDbEntity
 67
     1
  8
Defpoints
370
    13
100
AcDbLine
 10
304.1114727228208
 20
-6.881606813357038
 30
0.0
 11
301.6186946227828
 21
-6.881606813357038
 31
0.0
  0
LINE
  5
6632
102
{ACAD_REACTORS
330
6672
102
}
330
646F
100
AcDbEntity
 67
     1
  8
Defpoints
370
    13
100
AcDbLine
 10
297.5070063239781
 20
-6.418656827861383
 30
0.0
 11
297.3829592492289
 21
-6.881606813357038
 31
0.0
  0
LINE
  5
6633
102
{ACAD_REACTORS
330
6672
102
}
330
646F
100
AcDbEntity
 67
     1
  8
Defpoints
370
    13
100
AcDbLine
 10
299.8757373492667
 20
-6.881606813357038
 30
0.0
 11
297.3829592492289
 21
-6.881606813357038
 31
0.0
  0
LINE
  5
6634
102
{ACAD_REACTORS
330
6672
102
}
330
646F
100
AcDbEntity
 67
     1
  8
Defpoints
370
    13
100
AcDbLine
 10
299.6773432943561
 20
-7.622023506202339
 30
0.0
 11
299.8757373492667
 21
-6.881606813357038
 31
0.0
  0
LINE
  5
6635
102
{ACAD_REACTORS
330
6672
102
}
330
646F
100
AcDbEntity
 67
     1
  8
Defpoints
370
    13
100
AcDbLine
 10
297.1845651943183
 20
-7.622023506202339
 30
0.0
 11
299.6773432943561
 21
-7.622023506202339
 31
0.0
  0
LINE
  5
6636
102
{ACAD_REACTORS
330
6672
102
}
330
646F
100
AcDbEntity
 67
     1
  8
Defpoints
370
    13
100
AcDbLine
 10
297.1845651943183
 20
-7.622023506202339
 30
0.0
 11
297.0602535706985
 21
-8.08596080152256
 31
0.0
  0
LINE
  5
6637
102
{ACAD_REACTORS
330
6672
102
}
330
646F
100
AcDbEntity
 67
     1
  8
Defpoints
370
    13
100
AcDbLine
 10
297.0602535706985
 20
-8.08596080152256
 30
0.0
 11
299.5633076381026
 21
-8.08596080152256
 31
0.0
  0
LINE
  5
6638
102
{ACAD_REACTORS
330
6672
102
}
330
646F
100
AcDbEntity
 67
     1
  8
Defpoints
370
    13
100
AcDbLine
 10
299.2802893704348
 20
-9.103848923620461
 30
0.0
 11
299.5530316707364
 21
-8.08596080152256
 31
0.0
  0
LINE
  5
6639
102
{ACAD_REACTORS
330
6672
102
}
330
646F
100
AcDbEntity
 67
     1
  8
Defpoints
370
    13
100
AcDbLine
 10
295.4849494286847
 20
-9.103848923620461
 30
0.0
 11
299.2802893704348
 21
-9.103848923620461
 31
0.0
  0
LINE
  5
663A
102
{ACAD_REACTORS
330
6672
102
}
330
646F
100
AcDbEntity
 67
     1
  8
Defpoints
370
    13
100
AcDbLine
 10
296.4775316556144
 20
-5.399481622029099
 30
0.0
 11
295.4849494286847
 21
-9.103848923620461
 31
0.0
  0
LINE
  5
663B
102
{ACAD_REACTORS
330
6672
102
}
330
646F
100
AcDbEntity
 67
     1
  8
Defpoints
370
    13
100
AcDbLine
 10
300.2728715973647
 20
-5.399481622029099
 30
0.0
 11
296.4775316556144
 21
-5.399481622029099
 31
0.0
  0
LINE
  5
663C
102
{ACAD_REACTORS
330
6672
102
}
330
646F
100
AcDbEntity
 67
     1
  8
Defpoints
370
    13
100
AcDbLine
 10
299.999784424016
 20
-6.418656827861383
 30
0.0
 11
300.2728715973647
 21
-5.399481622029099
 31
0.0
  0
LINE
  5
663D
102
{ACAD_REACTORS
330
6672
102
}
330
646F
100
AcDbEntity
 67
     1
  8
Defpoints
370
    13
100
AcDbLine
 10
299.999784424016
 20
-6.418656827861383
 30
0.0
 11
297.4967303566117
 21
-6.418656827861383
 31
0.0
  0
LINE
  5
663E
102
{ACAD_REACTORS
330
6672
102
}
330
646F
100
AcDbEntity
 67
     1
  8
Defpoints
370
    13
100
AcDbLine
 10
293.5047202234481
 20
-5.399481622029099
 30
0.0
 11
294.2143102381968
 21
-7.15164085356028
 31
0.0
  0
LINE
  5
663F
102
{ACAD_REACTORS
330
6672
102
}
330
646F
100
AcDbEntity
 67
     1
  8
Defpoints
370
    13
100
AcDbLine
 10
294.2143102381968
 20
-7.15164085356028
 30
0.0
 11
294.6837998892965
 21
-5.399481622029099
 31
0.0
  0
LINE
  5
6640
102
{ACAD_REACTORS
330
6672
102
}
330
646F
100
AcDbEntity
 67
     1
  8
Defpoints
370
    13
100
AcDbLine
 10
295.9991710288544
 20
-5.399481622029099
 30
0.0
 11
294.6837998892965
 21
-5.399481622029099
 31
0.0
  0
LINE
  5
6641
102
{ACAD_REACTORS
330
6672
102
}
330
646F
100
AcDbEntity
 67
     1
  8
Defpoints
370
    13
100
AcDbLine
 10
295.0065888019245
 20
-9.103848923620461
 30
0.0
 11
295.9991710288544
 21
-5.399481622029099
 31
0.0
  0
LINE
  5
6642
102
{ACAD_REACTORS
330
6672
102
}
330
646F
100
AcDbEntity
 67
     1
  8
Defpoints
370
    13
100
AcDbLine
 10
293.7325440616193
 20
-9.103848923620461
 30
0.0
 11
295.0065888019245
 21
-9.103848923620461
 31
0.0
  0
LINE
  5
6643
102
{ACAD_REACTORS
330
6672
102
}
330
646F
100
AcDbEntity
 67
     1
  8
Defpoints
370
    13
100
AcDbLine
 10
293.7325440616193
 20
-9.103848923620461
 30
0.0
 11
293.0254087551696
 21
-7.34271368777928
 31
0.0
  0
LINE
  5
6644
102
{ACAD_REACTORS
330
6672
102
}
330
646F
100
AcDbEntity
 67
     1
  8
Defpoints
370
    13
100
AcDbLine
 10
293.0254087551696
 20
-7.34271368777928
 30
0.0
 11
292.5535139909639
 21
-9.103848923620461
 31
0.0
  0
LINE
  5
6645
102
{ACAD_REACTORS
330
6672
102
}
330
646F
100
AcDbEntity
 67
     1
  8
Defpoints
370
    13
100
AcDbLine
 10
291.2509521492515
 20
-9.103848923620461
 30
0.0
 11
292.5535139909639
 21
-9.103848923620461
 31
0.0
  0
LINE
  5
6646
102
{ACAD_REACTORS
330
6672
102
}
330
646F
100
AcDbEntity
 67
     1
  8
Defpoints
370
    13
100
AcDbLine
 10
292.2435343761814
 20
-5.399481622029099
 30
0.0
 11
291.2509521492515
 21
-9.103848923620461
 31
0.0
  0
LINE
  5
6647
102
{ACAD_REACTORS
330
6672
102
}
330
646F
100
AcDbEntity
 67
     1
  8
Defpoints
370
    13
100
AcDbLine
 10
293.5047202234481
 20
-5.399481622029099
 30
0.0
 11
292.2435343761814
 21
-5.399481622029099
 31
0.0
  0
LINE
  5
6648
102
{ACAD_REACTORS
330
6672
102
}
330
646F
100
AcDbEntity
 67
     1
  8
Defpoints
370
    13
100
AcDbLine
 10
291.7816578090843
 20
-5.399481622029099
 30
0.0
 11
290.7890755821547
 21
-9.103848923620461
 31
0.0
  0
LINE
  5
6649
102
{ACAD_REACTORS
330
6672
102
}
330
646F
100
AcDbEntity
 67
     1
  8
Defpoints
370
    13
100
AcDbLine
 10
289.4468104513651
 20
-9.103848923620461
 30
0.0
 11
290.7890755821547
 21
-9.103848923620461
 31
0.0
  0
LINE
  5
664A
102
{ACAD_REACTORS
330
6672
102
}
330
646F
100
AcDbEntity
 67
     1
  8
Defpoints
370
    13
100
AcDbLine
 10
290.4393926782947
 20
-5.399481622029099
 30
0.0
 11
289.4468104513651
 21
-9.103848923620461
 31
0.0
  0
LINE
  5
664B
102
{ACAD_REACTORS
330
6672
102
}
330
646F
100
AcDbEntity
 67
     1
  8
Defpoints
370
    13
100
AcDbLine
 10
291.7816578090843
 20
-5.399481622029099
 30
0.0
 11
290.4393926782947
 21
-5.399481622029099
 31
0.0
  0
ARC
  5
664C
102
{ACAD_REACTORS
330
6672
102
}
330
646F
100
AcDbEntity
 67
     1
  8
Defpoints
370
    13
100
AcDbCircle
 10
293.1174408668452
 20
-8.971501133929564
 30
0.0
 40
6.22149298766157
100
AcDbArc
 50
158.0969939507942
 51
170.4856136403678
  0
ARC
  5
664D
102
{ACAD_REACTORS
330
6672
102
}
330
646F
100
AcDbEntity
 67
     1
  8
Defpoints
370
    13
100
AcDbCircle
 10
287.3606201612819
 20
-8.00113659250266
 30
0.0
 40
0.3835043230827479
100
AcDbArc
 50
171.2985646492635
 51
270.0
  0
LINE
  5
664E
102
{ACAD_REACTORS
330
6672
102
}
330
646F
100
AcDbEntity
 67
     1
  8
Defpoints
370
    13
100
AcDbLine
 10
287.3606201612819
 20
-8.384640915585422
 30
0.0
 11
287.4023103831175
 21
-8.384640915585422
 31
0.0
  0
ARC
  5
664F
102
{ACAD_REACTORS
330
6672
102
}
330
646F
100
AcDbEntity
 67
     1
  8
Defpoints
370
    13
100
AcDbCircle
 10
287.4023103831175
 20
-7.924435727885935
 30
0.0
 40
0.4602051876992975
100
AcDbArc
 50
270.0
 51
334.2263645027491
  0
ARC
  5
6650
102
{ACAD_REACTORS
330
6672
102
}
330
646F
100
AcDbEntity
 67
     1
  8
Defpoints
370
    13
100
AcDbCircle
 10
286.5354050965421
 20
-7.5058493544241
 30
0.0
 40
1.422878199650913
100
AcDbArc
 50
334.2263645027383
 51
11.71383119333059
  0
LINE
  5
6651
102
{ACAD_REACTORS
330
6672
102
}
330
646F
100
AcDbEntity
 67
     1
  8
Defpoints
370
    13
100
AcDbLine
 10
287.9286501918727
 20
-7.216971395106213
 30
0.0
 11
289.4933723708696
 21
-7.216971395106213
 31
0.0
  0
LINE
  5
6652
102
{ACAD_REACTORS
330
6672
102
}
330
646F
100
AcDbEntity
 67
     1
  8
Defpoints
370
    13
100
AcDbLine
 10
288.9877850608878
 20
-9.103848923620461
 30
0.0
 11
289.4933723708696
 21
-7.216971395106213
 31
0.0
  0
LINE
  5
6653
102
{ACAD_REACTORS
330
6672
102
}
330
646F
100
AcDbEntity
 67
     1
  8
Defpoints
370
    13
100
AcDbLine
 10
288.9877850608878
 20
-9.103848923620461
 30
0.0
 11
287.2587407297483
 21
-9.103848923620461
 31
0.0
  0
ARC
  5
6654
102
{ACAD_REACTORS
330
6672
102
}
330
646F
100
AcDbEntity
 67
     1
  8
Defpoints
370
    13
100
AcDbCircle
 10
287.3668417480299
 20
-1.987575058935789
 30
0.0
 40
7.119253077153191
100
AcDbArc
 50
262.0635437036931
 51
271.6576250419802
  0
ARC
  5
6655
102
{ACAD_REACTORS
330
6672
102
}
330
646F
100
AcDbEntity
 67
     1
  8
Defpoints
370
    13
100
AcDbCircle
 10
286.5162332446543
 20
-8.089060957951816
 30
0.0
 40
0.9587608077068694
100
AcDbArc
 50
171.0200151799534
 51
262.0635437036931
  0
ARC
  5
6656
102
{ACAD_REACTORS
330
6672
102
}
330
646F
100
AcDbEntity
 67
     1
  8
Defpoints
370
    13
100
AcDbCircle
 10
293.693406664573
 20
-9.223243592714908
 30
0.0
 40
8.224997010073714
100
AcDbArc
 50
157.3874044007955
 51
171.0200151799534
  0
ARC
  5
6657
102
{ACAD_REACTORS
330
6672
102
}
330
646F
100
AcDbEntity
 67
     1
  8
Defpoints
370
    13
100
AcDbCircle
 10
286.9857571867681
 20
-6.429388365348216
 30
0.0
 40
0.9587608077068694
100
AcDbArc
 50
95.92334440423654
 51
157.3874044007997
  0
ARC
  5
6658
102
{ACAD_REACTORS
330
6672
102
}
330
646F
100
AcDbEntity
 67
     1
  8
Defpoints
370
    13
100
AcDbCircle
 10
288.3798891301711
 20
-19.86657770682892
 30
0.0
 40
14.46807838019826
100
AcDbArc
 50
83.51735091136804
 51
95.92334440423654
  0
LINE
  5
6659
102
{ACAD_REACTORS
330
6672
102
}
330
646F
100
AcDbEntity
 67
     1
  8
Defpoints
370
    13
100
AcDbLine
 10
289.7494150908055
 20
-6.484272625085864
 30
0.0
 11
290.0133688130691
 21
-5.49100689586217
 31
0.0
  0
ARC
  5
665A
102
{ACAD_REACTORS
330
6672
102
}
330
646F
100
AcDbEntity
 67
     1
  8
Defpoints
370
    13
100
AcDbCircle
 10
288.2153366157258
 20
-15.20806232779655
 30
0.0
 40
8.85764661435673
100
AcDbArc
 50
80.0265067162775
 51
93.02614479233048
  0
ARC
  5
665B
102
{ACAD_REACTORS
330
6672
102
}
330
646F
100
AcDbEntity
 67
     1
  8
Defpoints
370
    13
100
AcDbCircle
 10
287.7720219267434
 20
-6.822330719840437
 30
0.0
 40
0.4602051876992975
100
AcDbArc
 50
93.02614479233048
 51
158.0969939507942
  0
LINE
  5
665C
102
{ACAD_REACTORS
330
6672
102
}
330
646F
100
AcDbEntity
 67
     1
  8
Defpoints
370
    13
100
AcDbLine
 10
283.3242627512644
 20
-5.399481622029099
 30
0.0
 11
284.0338527660131
 21
-7.15164085356028
 31
0.0
  0
LINE
  5
665D
102
{ACAD_REACTORS
330
6672
102
}
330
646F
100
AcDbEntity
 67
     1
  8
Defpoints
370
    13
100
AcDbLine
 10
284.0338527660131
 20
-7.15164085356028
 30
0.0
 11
284.5033424171126
 21
-5.399481622029099
 31
0.0
  0
LINE
  5
665E
102
{ACAD_REACTORS
330
6672
102
}
330
646F
100
AcDbEntity
 67
     1
  8
Defpoints
370
    13
100
AcDbLine
 10
285.818713556671
 20
-5.399481622029099
 30
0.0
 11
284.5033424171126
 21
-5.399481622029099
 31
0.0
  0
LINE
  5
665F
102
{ACAD_REACTORS
330
6672
102
}
330
646F
100
AcDbEntity
 67
     1
  8
Defpoints
370
    13
100
AcDbLine
 10
284.8261313297409
 20
-9.103848923620461
 30
0.0
 11
285.8187135566706
 21
-5.399481622029099
 31
0.0
  0
LINE
  5
6660
102
{ACAD_REACTORS
330
6672
102
}
330
646F
100
AcDbEntity
 67
     1
  8
Defpoints
370
    13
100
AcDbLine
 10
283.5520865894356
 20
-9.103848923620461
 30
0.0
 11
284.8261313297409
 21
-9.103848923620461
 31
0.0
  0
LINE
  5
6661
102
{ACAD_REACTORS
330
6672
102
}
330
646F
100
AcDbEntity
 67
     1
  8
Defpoints
370
    13
100
AcDbLine
 10
283.5520865894356
 20
-9.103848923620461
 30
0.0
 11
282.8449512829864
 21
-7.34271368777928
 31
0.0
  0
LINE
  5
6662
102
{ACAD_REACTORS
330
6672
102
}
330
646F
100
AcDbEntity
 67
     1
  8
Defpoints
370
    13
100
AcDbLine
 10
282.8449512829864
 20
-7.34271368777928
 30
0.0
 11
282.3730565187805
 21
-9.103848923620461
 31
0.0
  0
LINE
  5
6663
102
{ACAD_REACTORS
330
6672
102
}
330
646F
100
AcDbEntity
 67
     1
  8
Defpoints
370
    13
100
AcDbLine
 10
281.0704946770679
 20
-9.103848923620461
 30
0.0
 11
282.3730565187805
 21
-9.103848923620461
 31
0.0
  0
LINE
  5
6664
102
{ACAD_REACTORS
330
6672
102
}
330
646F
100
AcDbEntity
 67
     1
  8
Defpoints
370
    13
100
AcDbLine
 10
282.0630769039977
 20
-5.399481622029099
 30
0.0
 11
281.0704946770679
 21
-9.103848923620461
 31
0.0
  0
LINE
  5
6665
102
{ACAD_REACTORS
330
6672
102
}
330
646F
100
AcDbEntity
 67
     1
  8
Defpoints
370
    13
100
AcDbLine
 10
283.3242627512644
 20
-5.399481622029099
 30
0.0
 11
282.0630769039977
 21
-5.399481622029099
 31
0.0
  0
LINE
  5
6666
102
{ACAD_REACTORS
330
6672
102
}
330
646F
100
AcDbEntity
 67
     1
  8
Defpoints
370
    13
100
AcDbLine
 10
280.9365427307402
 20
-7.622023506202339
 30
0.0
 11
281.1349367856503
 21
-6.881606813357038
 31
0.0
  0
LINE
  5
6667
102
{ACAD_REACTORS
330
6672
102
}
330
646F
100
AcDbEntity
 67
     1
  8
Defpoints
370
    13
100
AcDbLine
 10
278.4437646307024
 20
-7.622023506202339
 30
0.0
 11
280.9365427307402
 21
-7.622023506202339
 31
0.0
  0
LINE
  5
6668
102
{ACAD_REACTORS
330
6672
102
}
330
646F
100
AcDbEntity
 67
     1
  8
Defpoints
370
    13
100
AcDbLine
 10
278.4437646307024
 20
-7.622023506202339
 30
0.0
 11
278.3194530070825
 21
-8.08596080152256
 31
0.0
  0
LINE
  5
6669
102
{ACAD_REACTORS
330
6672
102
}
330
646F
100
AcDbEntity
 67
     1
  8
Defpoints
370
    13
100
AcDbLine
 10
278.3194530070825
 20
-8.08596080152256
 30
0.0
 11
280.8225070744867
 21
-8.08596080152256
 31
0.0
  0
LINE
  5
666A
102
{ACAD_REACTORS
330
6672
102
}
330
646F
100
AcDbEntity
 67
     1
  8
Defpoints
370
    13
100
AcDbLine
 10
280.5394888068187
 20
-9.103848923620461
 30
0.0
 11
280.8122311071204
 21
-8.08596080152256
 31
0.0
  0
LINE
  5
666B
102
{ACAD_REACTORS
330
6672
102
}
330
646F
100
AcDbEntity
 67
     1
  8
Defpoints
370
    13
100
AcDbLine
 10
276.7441488650687
 20
-9.103848923620461
 30
0.0
 11
280.5394888068187
 21
-9.103848923620461
 31
0.0
  0
LINE
  5
666C
102
{ACAD_REACTORS
330
6672
102
}
330
646F
100
AcDbEntity
 67
     1
  8
Defpoints
370
    13
100
AcDbLine
 10
277.7367310919983
 20
-5.399481622029099
 30
0.0
 11
276.7441488650682
 21
-9.103848923620461
 31
0.0
  0
LINE
  5
666D
102
{ACAD_REACTORS
330
6672
102
}
330
646F
100
AcDbEntity
 67
     1
  8
Defpoints
370
    13
100
AcDbLine
 10
281.5320710337483
 20
-5.399481622029099
 30
0.0
 11
277.7367310919983
 21
-5.399481622029099
 31
0.0
  0
LINE
  5
666E
102
{ACAD_REACTORS
330
6672
102
}
330
646F
100
AcDbEntity
 67
     1
  8
Defpoints
370
    13
100
AcDbLine
 10
281.2589838603999
 20
-6.418656827861383
 30
0.0
 11
281.5320710337483
 21
-5.399481622029099
 31
0.0
  0
LINE
  5
666F
102
{ACAD_REACTORS
330
6672
102
}
330
646F
100
AcDbEntity
 67
     1
  8
Defpoints
370
    13
100
AcDbLine
 10
281.2589838603999
 20
-6.418656827861383
 30
0.0
 11
278.7559297929958
 21
-6.418656827861383
 31
0.0
  0
LINE
  5
6670
102
{ACAD_REACTORS
330
6672
102
}
330
646F
100
AcDbEntity
 67
     1
  8
Defpoints
370
    13
100
AcDbLine
 10
278.7662057603621
 20
-6.418656827861383
 30
0.0
 11
278.6421586856124
 21
-6.881606813357038
 31
0.0
  0
LINE
  5
6671
102
{ACAD_REACTORS
330
6672
102
}
330
646F
100
AcDbEntity
 67
     1
  8
Defpoints
370
    13
100
AcDbLine
 10
281.1349367856503
 20
-6.881606813357038
 30
0.0
 11
278.6421586856124
 21
-6.881606813357038
 31
0.0
  0
HATCH
  5
6672
330
646F
100
AcDbEntity
 67
     1
  8
RAHMEN025
370
    13
100
AcDbHatch
 10
0.0
 20
0.0
 30
0.0
210
0.0
220
0.0
230
1.0
  2
ANSI31
 70
     0
 71
     1
 91
       12
 92
        7
 72
     0
 73
     1
 93
       12
 10
278.4437646307024
 20
-7.622023506202339
 10
280.9365427307403
 20
-7.622023506202339
 10
281.1349367856502
 20
-6.881606813357038
 10
278.6421586856124
 20
-6.881606813357038
 10
278.7662057603621
 20
-6.418656827861383
 10
281.2589838603999
 20
-6.418656827861381
 10
281.5320710337484
 20
-5.399481622029099
 10
277.7367310919983
 20
-5.399481622029099
 10
276.7441488650681
 20
-9.10384892362046
 10
280.5394888068187
 20
-9.103848923620461
 10
280.8122311071205
 20
-8.08596080152256
 10
278.3194530070825
 20
-8.08596080152256
 97
       12
330
6671
330
6670
330
666F
330
666E
330
666D
330
666C
330
666B
330
666A
330
6669
330
6668
330
6667
330
6666
 92
        7
 72
     0
 73
     1
 93
       10
 10
283.3242627512644
 20
-5.399481622029099
 10
282.0630769039977
 20
-5.399481622029099
 10
281.0704946770679
 20
-9.103848923620461
 10
282.3730565187805
 20
-9.103848923620461
 10
282.8449512829864
 20
-7.342713687779303
 10
283.5520865894356
 20
-9.103848923620461
 10
284.826131329741
 20
-9.103848923620461
 10
285.8187135566706
 20
-5.399481622029099
 10
284.5033424171126
 20
-5.399481622029099
 10
284.0338527660131
 20
-7.151640853560239
 97
       10
330
6665
330
6664
330
6663
330
6662
330
6661
330
6660
330
665F
330
665E
330
665D
330
665C
 92
        7
 72
     1
 73
     1
 93
       16
 10
287.3450358756947
 20
-6.65065740509646
 42
-0.2918088509345686
 10
287.7477269410106
 20
-6.362767265621524
 42
-0.0567825308446797
 10
289.7494150908055
 20
-6.484272625085777
 42
0.0
 10
290.0133688130691
 20
-5.491006895862149
 42
0.0541842923752296
 10
286.8868151742693
 20
-5.475746522433464
 42
0.2748078422990356
 10
286.1007004322047
 20
-6.060746496324298
 42
0.0595537418813009
 10
285.5692240374814
 20
-7.939408534233708
 42
0.4195581459998819
 10
286.3838525743978
 20
-9.038638571703032
 42
0.0274034260658982
 10
287.1609032636197
 20
-9.103848923620461
 42
0.0
 10
288.9877850608879
 20
-9.103848923620461
 42
0.0
 10
289.4933723708696
 20
-7.216971395106213
 42
0.0
 10
287.9286501918724
 20
-7.216971395106213
 42
-0.1650444911529426
 10
287.8167338739316
 20
-8.124540662973518
 42
-0.2878146020947726
 10
287.4023103831171
 20
-8.384640915585422
 42
0.0
 10
287.3606201612819
 20
-8.384640915585422
 42
-0.4686158958349675
 10
286.9834575686733
 20
-7.931681970194839
 42
-0.0536408936041017
 97
       16
330
665B
330
665A
330
6659
330
6658
330
6657
330
6656
330
6655
330
6654
330
6653
330
6652
330
6651
330
6650
330
664F
330
664E
330
664D
330
664C
 92
        7
 72
     0
 73
     1
 93
        4
 10
289.4468104513651
 20
-9.103848923620461
 10
290.7890755821547
 20
-9.103848923620461
 10
291.7816578090842
 20
-5.399481622029099
 10
290.4393926782947
 20
-5.399481622029099
 97
        4
330
664B
330
664A
330
6649
330
6648
 92
        7
 72
     0
 73
     1
 93
       10
 10
293.0254087551696
 20
-7.342713687779257
 10
293.7325440616193
 20
-9.103848923620461
 10
295.0065888019245
 20
-9.103848923620461
 10
295.9991710288544
 20
-5.399481622029099
 10
294.6837998892964
 20
-5.399481622029099
 10
294.2143102381969
 20
-7.151640853560291
 10
293.5047202234481
 20
-5.399481622029099
 10
292.2435343761814
 20
-5.399481622029099
 10
291.2509521492515
 20
-9.103848923620461
 10
292.5535139909639
 20
-9.103848923620461
 97
       10
330
6647
330
6646
330
6645
330
6644
330
6643
330
6642
330
6641
330
6640
330
663F
330
663E
 92
        7
 72
     0
 73
     1
 93
       12
 10
297.3829592492289
 20
-6.881606813357038
 10
297.5070063239781
 20
-6.418656827861383
 10
299.999784424016
 20
-6.418656827861381
 10
300.2728715973647
 20
-5.399481622029099
 10
296.4775316556144
 20
-5.399481622029099
 10
295.4849494286847
 20
-9.103848923620461
 10
299.2802893704348
 20
-9.103848923620461
 10
299.5530316707364
 20
-8.08596080152256
 10
297.0602535706985
 20
-8.08596080152256
 10
297.1845651943183
 20
-7.622023506202339
 10
299.6773432943561
 20
-7.622023506202339
 10
299.8757373492667
 20
-6.881606813357038
 97
       12
330
663D
330
663C
330
663B
330
663A
330
6639
330
6638
330
6637
330
6636
330
6635
330
6634
330
6633
330
6632
 92
        7
 72
     0
 73
     1
 93
       12
 10
301.6186946227828
 20
-6.881606813357038
 10
301.7427416975325
 20
-6.418656827861383
 10
304.2355197975703
 20
-6.418656827861383
 10
304.5086069709189
 20
-5.399481622029099
 10
300.7132670291688
 20
-5.399481622029099
 10
299.7206848022387
 20
-9.10384892362046
 10
303.5160247439892
 20
-9.103848923620461
 10
303.7887670442905
 20
-8.08596080152256
 10
301.2959889442527
 20
-8.08596080152256
 10
301.4203005678723
 20
-7.622023506202339
 10
303.91307866791
 20
-7.622023506202339
 10
304.1114727228208
 20
-6.881606813357038
 97
       12
330
6631
330
6630
330
662F
330
662E
330
662D
330
662C
330
662B
330
662A
330
6629
330
6628
330
6627
330
6626
 92
        7
 72
     1
 73
     1
 93
       11
 10
305.757194426243
 20
-7.51044777957834
 42
0.0
 10
306.7607227215156
 20
-9.093923101351137
 42
0.0
 10
308.4697272084209
 20
-9.093923101351136
 42
0.0
 10
307.4661989131483
 20
-7.510447779578399
 42
0.0
 10
308.2466170644869
 20
-7.510447779578399
 42
0.3394542588634887
 10
309.0615778708371
 20
-6.885106358720662
 42
0.0
 10
309.177726599942
 20
-6.45163340046616
 42
0.4931454260311745
 10
308.3627657935918
 20
-5.389555799759946
 42
0.0
 10
305.0229238777564
 20
-5.389555799759946
 42
0.0
 10
304.0303416508268
 20
-9.093923101351137
 42
0.0
 10
305.3329034925393
 20
-9.093923101351137
 42
0.0
 97
       11
330
6625
330
6624
330
6623
330
6622
330
6621
330
6620
330
661F
330
661E
330
661D
330
661C
330
661B
 92
       22
 72
     1
 73
     1
 93
        6
 10
305.8483548672096
 20
-7.170232382249782
 42
0.0
 10
306.0906067216882
 20
-6.266136153107936
 42
0.0
 10
307.2053495879999
 20
-6.266136153107936
 42
-0.462218980900382
 10
307.5882087598405
 20
-6.713129424417671
 42
-0.2421880062400708
 10
307.291425519208
 20
-7.117709714506958
 42
-0.0940682372986285
 10
307.0097558395774
 20
-7.170232382249793
 42
0.0
 97
        6
330
661A
330
6619
330
6618
330
6617
330
6616
330
6615
 92
        7
 72
     0
 73
     1
 93
        4
 10
311.2743833792163
 20
-5.399481622029099
 10
309.9321182484266
 20
-5.399481622029099
 10
308.9395360214972
 20
-9.103848923620461
 10
310.2818011522866
 20
-9.103848923620461
 97
        4
330
6614
330
6613
330
6612
330
6611
 92
        7
 72
     0
 73
     1
 93
       10
 10
312.518134325301
 20
-7.342713687778847
 10
313.2252696317509
 20
-9.103848923620461
 10
314.4993143720566
 20
-9.103848923620461
 10
315.4918965989862
 20
-5.399481622029099
 10
314.1765254594279
 20
-5.399481622029099
 10
313.7070358083284
 20
-7.151640853560291
 10
312.9974457935796
 20
-5.399481622029099
 10
311.7362599463134
 20
-5.399481622029099
 10
310.7436777193833
 20
-9.103848923620461
 10
312.0462395610958
 20
-9.103848923620461
 97
       10
330
6610
330
660F
330
660E
330
660D
330
660C
330
660B
330
660A
330
6609
330
6608
330
6607
 92
        7
 72
     1
 73
     1
 93
       16
 10
316.965635890513
 20
-6.650657405096403
 42
-0.2918088509345139
 10
317.3683269558289
 20
-6.362767265621524
 42
-0.0567825308446765
 10
319.3700151056237
 20
-6.484272625085747
 42
0.0
 10
319.6339688278873
 20
-5.491006895862113
 42
0.0541842923752316
 10
316.5074151890874
 20
-5.475746522433514
 42
0.2748078422989353
 10
315.7213004470234
 20
-6.060746496324597
 42
0.0595537418812928
 10
315.1898240523001
 20
-7.939408534233734
 42
0.4195581459999278
 10
316.0044525892166
 20
-9.038638571703107
 42
0.0274034260658874
 10
316.7815032784382
 20
-9.103848923620461
 42
0.0
 10
318.6083850757059
 20
-9.103848923620461
 42
0.0
 10
319.1139723856876
 20
-7.216971395106213
 42
0.0
 10
317.5492502066909
 20
-7.216971395106213
 42
-0.1650444911529743
 10
317.4373338887502
 20
-8.124540662973692
 42
-0.287814602094675
 10
317.0229103979357
 20
-8.384640915585422
 42
0.0
 10
316.9812201761
 20
-8.384640915585422
 42
-0.4686158958349675
 10
316.6040575834914
 20
-7.931681970194839
 42
-0.0536408936041064
 97
       16
330
6606
330
6605
330
6604
330
6603
330
6602
330
6601
330
6600
330
65FF
330
65FE
330
65FD
330
65FC
330
65FB
330
65FA
330
65F9
330
65F8
330
65F7
 75
     0
 76
     1
 52
0.0
 41
0.1
 77
     0
 78
     1
 53
45.0
 43
-0.8284934652175479
 44
-91.64942702548672
 45
-0.2245064030267288
 46
0.2245064030267288
 79
     0
 47
0.0661482101908399
 98
       12
 10
278.245406858625
 20
-7.197431965581785
 10
283.342909251192
 20
-6.998987157620803
 10
286.8515793152448
 20
-7.26358023490215
 10
290.6250555262881
 20
-6.866690618980072
 10
293.4717132584834
 20
-6.998987157620803
 10
296.7817794711981
 20
-6.866690618980072
 10
301.0848649406034
 20
-6.932838888300437
 10
305.5865557791562
 20
-6.932838888300437
 10
305.5865557791562
 20
-6.932838888300437
 10
310.286850469047
 20
-6.932838888300437
 10
312.3390912780805
 20
-6.932838888300437
 10
316.7083805609476
 20
-6.66824581101909
  0
TEXT
  5
6673
330
646F
100
AcDbEntity
 67
     1
  8
RAHMEN05
 48
1.5
100
AcDbText
 10
337.8097049625301
 20
6.689424760424032
 30
0.0
 40
5.0
  1
Rüttler VZ 200
 41
0.7
  7
Stil1
100
AcDbText
  0
LINE
  5
6674
330
646F
100
AcDbEntity
 67
     1
  8
RAHMEN025
100
AcDbLine
 10
320.1232697312783
 20
31.72399963237947
 30
0.0
 11
408.5232697312783
 21
31.72399963237947
 31
0.0
  0
LINE
  5
6675
330
646F
100
AcDbEntity
 67
     1
  8
RAHMEN025
100
AcDbLine
 10
221.3232697312782
 20
-12.90100036762052
 30
0.0
 11
408.523269731278
 21
-12.90100036762052
 31
0.0
  0
LINE
  5
6676
330
646F
100
AcDbEntity
 67
     1
  8
RAHMEN07
100
AcDbLine
 10
221.3232697312782
 20
38.09899963237947
 30
0.0
 11
408.5232697312783
 21
38.09899963237947
 31
0.0
  0
LINE
  5
6677
330
646F
100
AcDbEntity
 67
     1
  8
RAHMEN07
100
AcDbLine
 10
221.3232697312782
 20
-0.1510003676205258
 30
0.0
 11
408.523269731278
 21
-0.1510003676205258
 31
0.0
  0
LINE
  5
6678
330
646F
100
AcDbEntity
 67
     1
  8
RAHMEN07
100
AcDbLine
 10
221.3232697312782
 20
21.09899963237944
 30
0.0
 11
408.5232697312783
 21
21.09899963237944
 31
0.0
  0
LINE
  5
6679
330
646F
100
AcDbEntity
 67
     1
  8
RAHMEN07
100
AcDbLine
 10
221.3232697312782
 20
-17.15100036762052
 30
0.0
 11
408.523269731278
 21
-17.15100036762052
 31
0.0
  0
TEXT
  5
667A
330
646F
100
AcDbEntity
 67
     1
  8
RAHMEN025
100
AcDbText
 10
321.2495296337698
 20
33.66149963237947
 30
0.0
 40
2.5
  1
Maßstab:
  7
ISO Proportional
100
AcDbText
  0
TEXT
  5
667B
330
646F
100
AcDbEntity
 67
     1
  8
RAHMEN025
100
AcDbText
 10
303.3693678844344
 20
33.66149963237947
 30
0.0
 40
2.5
  1
Oberfl.
  7
ISO Proportional
100
AcDbText
  0
TEXT
  5
667C
330
646F
100
AcDbEntity
 67
     1
  8
RAHMEN025
100
AcDbText
 10
277.5269356863851
 20
33.66149963237947
 30
0.0
 40
2.5
  1
Zul. Abw.
  7
ISO Proportional
100
AcDbText
  0
LINE
  5
667D
330
646F
100
AcDbEntity
 67
     1
  8
RAHMEN025
100
AcDbLine
 10
301.9232697312783
 20
38.09899963237947
 30
0.0
 11
301.9232697312782
 21
-0.1510003676205258
 31
0.0
  0
LINE
  5
667E
330
646F
100
AcDbEntity
 67
     1
  8
RAHMEN025
100
AcDbLine
 10
320.1232697312783
 20
38.09899963237947
 30
0.0
 11
320.1232697312781
 21
-17.15100036762052
 31
0.0
  0
LINE
  5
667F
330
646F
100
AcDbEntity
 67
     1
  8
RAHMEN025
100
AcDbLine
 10
275.9232697312782
 20
38.09899963237947
 30
0.0
 11
275.9232697312782
 21
-17.15100036762052
 31
0.0
  0
LINE
  5
6680
330
646F
100
AcDbEntity
 67
     1
  8
RAHMEN07
100
AcDbLine
 10
221.3232697312782
 20
38.09899963237947
 30
0.0
 11
221.3232697312782
 21
-17.15100036762052
 31
0.0
  0
TEXT
  5
6681
330
646F
100
AcDbEntity
 67
     1
  8
RAHMEN025
100
AcDbText
 10
222.9269356863851
 20
33.66149963237947
 30
0.0
 40
2.5
  1
Verwendungsbereich
  7
ISO Proportional
100
AcDbText
  0
TEXT
  5
6682
330
646F
100
AcDbEntity
 67
     1
  8
RAHMEN025
100
AcDbText
 10
268.1983015797604
 20
-16.27600036762052
 30
0.0
 40
2.5
  1
Name
  7
ISO Proportional
100
AcDbText
  0
LINE
  5
6683
330
646F
100
AcDbEntity
 67
     1
  8
RAHMEN025
100
AcDbLine
 10
221.3232697312782
 20
16.84899963237947
 30
0.0
 11
320.1232697312781
 21
16.84899963237947
 31
0.0
  0
LINE
  5
6684
330
646F
100
AcDbEntity
 67
     1
  8
RAHMEN025
100
AcDbLine
 10
221.3232697312782
 20
12.59899963237947
 30
0.0
 11
320.1232697312781
 21
12.59899963237947
 31
0.0
  0
LINE
  5
6685
330
646F
100
AcDbEntity
 67
     1
  8
RAHMEN025
100
AcDbLine
 10
221.3232697312782
 20
8.348999632379474
 30
0.0
 11
320.1232697312781
 21
8.348999632379474
 31
0.0
  0
LINE
  5
6686
330
646F
100
AcDbEntity
 67
     1
  8
RAHMEN025
100
AcDbLine
 10
221.3232697312782
 20
4.098999632379474
 30
0.0
 11
320.1232697312781
 21
4.098999632379474
 31
0.0
  0
LINE
  5
6687
330
646F
100
AcDbEntity
 67
     1
  8
RAHMEN025
100
AcDbLine
 10
221.3232697312782
 20
-8.651000367620526
 30
0.0
 11
275.9232697312782
 21
-8.651000367620526
 31
0.0
  0
LINE
  5
6688
330
646F
100
AcDbEntity
 67
     1
  8
RAHMEN025
100
AcDbLine
 10
221.3232697312782
 20
-4.401000367620525
 30
0.0
 11
275.9232697312782
 21
-4.401000367620525
 31
0.0
  0
LINE
  5
6689
330
646F
100
AcDbEntity
 67
     1
  8
RAHMEN025
100
AcDbLine
 10
268.1232697312783
 20
21.09899963237947
 30
0.0
 11
268.1232697312783
 21
-17.15100036762052
 31
0.0
  0
LINE
  5
668A
330
646F
100
AcDbEntity
 67
     1
  8
RAHMEN025
100
AcDbLine
 10
255.1232697312783
 20
21.09899963237947
 30
0.0
 11
255.1232697312783
 21
-17.15100036762052
 31
0.0
  0
LINE
  5
668B
330
646F
100
AcDbEntity
 67
     1
  8
RAHMEN025
100
AcDbLine
 10
229.1232697312782
 20
21.09899963237947
 30
0.0
 11
229.1232697312782
 21
-17.15100036762052
 31
0.0
  0
TEXT
  5
668C
330
646F
100
AcDbEntity
 67
     1
  8
RAHMEN025
100
AcDbText
 10
234.708708771694
 20
-16.27600036762052
 30
0.0
 40
2.5
  1
Änderung
  7
ISO Proportional
100
AcDbText
  0
TEXT
  5
668D
330
646F
100
AcDbEntity
 67
     1
  8
RAHMEN025
100
AcDbText
 10
221.6379997087042
 20
-16.27600036762052
 30
0.0
 40
2.5
  1
Zust.
  7
ISO Proportional
100
AcDbText
  0
TEXT
  5
668E
330
646F
100
AcDbEntity
 67
     1
  8
RAHMEN025
100
AcDbText
 10
256.9348983120026
 20
-16.27600036762052
 30
0.0
 40
2.5
  1
Datum
  7
ISO Proportional
100
AcDbText
  0
TEXT
  5
668F
330
646F
100
AcDbEntity
 67
     1
  8
RAHMEN025
100
AcDbText
 10
277.1755822586718
 20
-16.27600036762052
 30
0.0
 40
2.5
  1
Ursprung
  7
ISO Proportional
100
AcDbText
  0
TEXT
  5
6690
330
646F
100
AcDbEntity
 67
     1
  8
RAHMEN025
100
AcDbText
 10
321.7999697752708
 20
-16.27600036762052
 30
0.0
 40
2.5
  1
Ersatz für:
  7
ISO Proportional
100
AcDbText
  0
TEXT
  5
6691
330
646F
100
AcDbEntity
 67
     1
  8
RAHMEN025
 48
1.5
100
AcDbText
 10
303.8095461289559
 20
13.38587712764413
 30
0.0
 40
2.5
  1
Hornung
 41
0.8
  7
Stil1
100
AcDbText
  0
TEXT
  5
6692
330
646F
100
AcDbEntity
 67
     1
  8
RAHMEN025
100
AcDbText
 10
276.4222032951624
 20
9.223999632379474
 30
0.0
 40
2.5
  1
Gepr.
  7
ISO Proportional
100
AcDbText
  0
LINE
  5
6693
330
646F
100
AcDbEntity
 67
     1
  8
RAHMEN025
100
AcDbLine
 10
286.3232697312783
 20
21.09899963237944
 30
0.0
 11
286.3232697312782
 21
-0.1510003676204974
 31
0.0
  0
TEXT
  5
6694
330
646F
100
AcDbEntity
 67
     1
  8
RAHMEN025
100
AcDbText
 10
276.4222032951624
 20
4.973999632379474
 30
0.0
 40
2.5
  1
Norm
  7
ISO Proportional
100
AcDbText
  0
TEXT
  5
6695
330
646F
100
AcDbEntity
 67
     1
  8
RAHMEN025
 48
1.5
100
AcDbText
 10
287.2836491841681
 20
13.38587712764413
 30
0.0
 40
2.5
  1
12.10.2006
 41
0.65
  7
Stil1
100
AcDbText
  0
TEXT
  5
6696
330
646F
100
AcDbEntity
 67
     1
  8
RAHMEN025
100
AcDbText
 10
276.4222032951624
 20
13.47399963237947
 30
0.0
 40
2.5
  1
Bearb.
  7
ISO Proportional
100
AcDbText
  0
TEXT
  5
6697
330
646F
100
AcDbEntity
 67
     1
  8
RAHMEN025
100
AcDbText
 10
290.1511805861957
 20
17.72399963237947
 30
0.0
 40
2.5
  1
Datum
  7
ISO Proportional
100
AcDbText
  0
TEXT
  5
6698
330
646F
100
AcDbEntity
 67
     1
  8
RAHMEN025
100
AcDbText
 10
320.8887742432593
 20
25.53446997250765
 30
0.0
 40
2.5
  1
Werkstoff:
  7
ISO Proportional
100
AcDbText
  0
TEXT
  5
6699
330
646F
100
AcDbEntity
 67
     1
  8
RAHMEN025
100
AcDbText
 10
320.9393512895243
 20
16.5248175666517
 30
0.0
 40
2.5
  1
Benennung:
  7
ISO Proportional
100
AcDbText
  0
TEXT
  5
669A
330
646F
100
AcDbEntity
 67
     1
  8
RAHMEN025
100
AcDbText
 10
306.6965918826667
 20
17.72399963237947
 30
0.0
 40
2.5
  1
Name
  7
ISO Proportional
100
AcDbText
  0
TEXT
  5
669B
330
646F
100
AcDbEntity
 67
     1
  8
RAHMEN025
 62
     6
 48
1.5
370
    35
100
AcDbText
 10
388.9457175583625
 20
33.64476127499315
 30
0.0
 40
2.5
  1
ca. 71,5 kg
 41
0.8
  7
Stil1
100
AcDbText
  0
LINE
  5
669C
330
646F
100
AcDbEntity
 67
     1
  8
RAHMEN025
100
AcDbLine
 10
372.1232697312783
 20
38.09899963237942
 30
0.0
 11
372.1232697312783
 21
31.72399963237947
 31
0.0
  0
TEXT
  5
669D
330
646F
100
AcDbEntity
 67
     1
  8
RAHMEN025
 62
     6
 48
1.5
370
    35
100
AcDbText
 10
342.9756914808204
 20
33.64476127499315
 30
0.0
 40
2.5
  1
%
 41
0.8
  7
Stil1
100
AcDbText
  0
TEXT
  5
669E
330
646F
100
AcDbEntity
 67
     1
  8
RAHMEN025
100
AcDbText
 10
373.2495296337698
 20
33.66149963237947
 30
0.0
 40
2.5
  1
Gewicht:
  7
ISO Proportional
100
AcDbText
  0
LINE
  5
669F
330
646F
100
AcDbEntity
 67
     1
  8
RAHMEN025
100
AcDbLine
 10
395.523269731278
 20
-8.651000367620526
 30
0.0
 11
408.523269731278
 21
-8.651000367620526
 31
0.0
  0
TEXT
  5
66A0
330
646F
100
AcDbEntity
 67
     1
  8
RAHMEN025
100
AcDbText
 10
396.4355292146001
 20
-11.89520953206658
 30
0.0
 40
2.5
  1
Blätter
  7
ISO Proportional
100
AcDbText
  0
LINE
  5
66A1
330
646F
100
AcDbEntity
 67
     1
  8
RAHMEN025
100
AcDbLine
 10
395.5232697312781
 20
-0.1510003676205542
 30
0.0
 11
395.5232697312781
 21
-12.90100036762052
 31
0.0
  0
TEXT
  5
66A2
330
646F
100
AcDbEntity
 67
     1
  8
RAHMEN025
100
AcDbText
 10
365.9999697752708
 20
-16.27600036762052
 30
0.0
 40
2.5
  1
Ersatz durch:
  7
ISO Proportional
100
AcDbText
  0
LINE
  5
66A3
330
646F
100
AcDbEntity
 67
     1
  8
RAHMEN025
100
AcDbLine
 10
364.3232697312781
 20
-12.90100036762052
 30
0.0
 11
364.3232697312781
 21
-17.15100036762061
 31
0.0
  0
TEXT
  5
66A4
330
646F
100
AcDbEntity
 67
     1
  8
RAHMEN05
 48
1.5
100
AcDbText
 10
346.1940474573253
 20
-9.110133717767638
 30
0.0
 40
5.0
  1
514021
 41
0.8
  7
Stil1
100
AcDbText
  0
TEXT
  5
66A5
330
646F
100
AcDbEntity
 67
     1
  8
RAHMEN025
 62
     6
 48
1.5
370
    35
100
AcDbText
 10
342.9756914808204
 20
24.90809812305397
 30
0.0
 40
3.5
  1
%
 41
0.8
  7
Stil1
100
AcDbText
  0
TEXT
  5
66A6
330
646F
100
AcDbEntity
 67
     1
  8
RAHMEN025
100
AcDbText
 10
396.4317292224006
 20
-3.518805917526805
 30
0.0
 40
2.5
  1
Blatt
  7
ISO Proportional
100
AcDbText
  0
LINE
  5
66A7
330
646F
100
AcDbEntity
 67
     1
  8
RAHMEN07
100
AcDbLine
 10
11.32326973127828
 20
-17.15100036762052
 30
0.0
 11
408.523269731278
 21
-17.15100036762052
 31
0.0
  0
LINE
  5
66A8
330
646F
100
AcDbEntity
 67
     1
  8
RAHMEN025
100
AcDbLine
 10
-6.476730268722008
 20
-22.15100036762052
 30
0.0
 11
413.523269731278
 21
-22.15100036762052
 31
0.0
  0
ENDSEC
  0
SECTION
  2
OBJECTS
  0
DICTIONARY
  5
C
330
0
100
AcDbDictionary
281
     1
  3
ACAD_GROUP
350
D
  3
ACAD_IMAGE_VARS
350
6FCD
  3
ACAD_LAYOUT
350
1A
  3
ACAD_MLINESTYLE
350
17
  3
ACAD_PLOTSETTINGS
350
19
  3
ACAD_PLOTSTYLENAME
350
E
  3
ACAD_SCALELIST
350
6F8B
  3
AcadDim
350
5BEC
  3
AcDbVariableDictionary
350
21B8
  3
APPDATA
350
6FCB
  3
DWGPROPS
350
6FD2
  0
DICTIONARY
  5
2B
330
2
100
AcDbDictionary
280
     1
281
     1
  3
ACAD_LAYERFILTERS
360
5CFC
  3
ACAD_LAYERSTATES
360
3474
  3
ACLYDICTIONARY
360
5CFB
  0
DICTIONARY
  5
4ADE
330
1F
100
AcDbDictionary
280
     1
281
     1
  3
ACAD_SORTENTS
360
4ADF
  0
DICTIONARY
  5
D
102
{ACAD_REACTORS
330
C
102
}
330
C
100
AcDbDictionary
281
     1
  0
RASTERVARIABLES
  5
6FCD
102
{ACAD_REACTORS
330
C
102
}
330
C
100
AcDbRasterVariables
 90
        0
 70
     1
 71
     1
 72
     1
  0
DICTIONARY
  5
1A
102
{ACAD_REACTORS
330
C
102
}
330
C
100
AcDbDictionary
281
     1
  3
Layout1
350
6470
  3
Model
350
22
  0
DICTIONARY
  5
17
102
{ACAD_REACTORS
330
C
102
}
330
C
100
AcDbDictionary
281
     1
  3
Standard
350
18
  0
DICTIONARY
  5
19
102
{ACAD_REACTORS
330
C
102
}
330
C
100
AcDbDictionary
281
     1
  0
ACDBDICTIONARYWDFLT
  5
E
102
{ACAD_REACTORS
330
C
102
}
330
C
100
AcDbDictionary
281
     1
  3
Normal
350
F
100
AcDbDictionaryWithDefault
340
F
  0
DICTIONARY
  5
6F8B
102
{ACAD_REACTORS
330
C
102
}
330
C
100
AcDbDictionary
281
     1
  3
A0
350
6F8C
  3
A1
350
6F8D
  3
A2
350
6F8E
  3
A3
350
6F8F
  3
A4
350
6F90
  3
A5
350
6F91
  3
A6
350
6F92
  3
A7
350
6F93
  3
A8
350
6F94
  3
A9
350
6F95
  3
B0
350
6F96
  3
B1
350
6F97
  3
B2
350
6F98
  3
B3
350
6F99
  3
B4
350
6F9A
  3
B5
350
6F9B
  3
B6
350
6F9C
  3
B7
350
6F9D
  3
B8
350
6F9E
  3
B9
350
6F9F
  3
C0
350
6FA0
  3
C1
350
6FA1
  3
C2
350
6FA2
  3
C3
350
6FA3
  3
C4
350
6FA4
  3
C5
350
6FA5
  3
C6
350
6FA6
  3
C7
350
6FA7
  3
C8
350
6FA8
  3
C9
350
6FA9
  3
D0
350
6FAA
  3
D1
350
6FAB
  3
D2
350
6FAC
  0
XRECORD
  5
5BEC
102
{ACAD_REACTORS
330
C
102
}
330
C
100
AcDbXrecord
280
     1
 90
   990106
  3

 60
     0
 61
     0
 62
     1
 63
     3
 64
     0
 65
     0
 66
     0
 67
     3
 68
     1
 69
     0
 70
     0
 71
     0
 72
     0
 40
0.0
170
     0
  0
DICTIONARY
  5
21B8
102
{ACAD_REACTORS
330
C
102
}
330
C
100
AcDbDictionary
281
     1
  3
DIMASSOC
350
21BA
  3
HIDETEXT
350
21B9
  3
PROJECTNAME
350
3468
  0
DICTIONARY
  5
6FCB
102
{ACAD_REACTORS
330
C
102
}
330
C
100
AcDbDictionary
281
     1
  0
XRECORD
  5
6FD2
102
{ACAD_REACTORS
330
C
102
}
330
C
100
AcDbXrecord
280
     1
  1
DWGPROPS COOKIE
  2

  3

  4

  6

  7

  8
theodor.kuschma
  9

300
=
301
=
302
=
303
=
304
=
305
=
306
=
307
=
308
=
309
=
 40
0.0
 41
2453808.471610937
 42
2456967.316444155
  1

 90
        0
  0
DICTIONARY
  5
5CFC
102
{ACAD_REACTORS
330
2B
102
}
330
2B
100
AcDbDictionary
281
     1
  0
DICTIONARY
  5
3474
102
{ACAD_REACTORS
330
2B
102
}
330
2B
100
AcDbDictionary
281
     1
  0
DICTIONARY
  5
5CFB
102
{ACAD_REACTORS
330
2B
102
}
330
2B
100
AcDbDictionary
281
     1
  3
*A1
350
5CFD
  3
*A2
350
5CFF
  3
*A3
350
5D01
  3
*A4
350
5D03
  3
*A5
350
5D05
  3
*A6
350
5D07
  3
*A7
350
5D09
  3
*A8
350
5D0B
  3
*A9
350
5D0D
1001
ACAD
1000
<All
  0
SORTENTSTABLE
  5
4ADF
102
{ACAD_REACTORS
330
4ADE
102
}
330
4ADE
100
AcDbSortentsTable
330
1F
331
40A3
  5
40A4
331
40A4
  5
40A5
331
40A5
  5
40A6
331
40A6
  5
40A7
331
40A7
  5
40A8
331
40A8
  5
40A9
331
40A9
  5
40AA
331
40AA
  5
40AB
331
40AB
  5
40AC
331
40AC
  5
40AD
331
40AD
  5
40AE
331
40AE
  5
40AF
331
40AF
  5
40B0
331
40B0
  5
40B1
331
40B1
  5
40B2
331
40B2
  5
40B3
331
40B3
  5
40B4
331
40B4
  5
40B5
331
40B5
  5
40B6
331
40B6
  5
40B7
331
40B7
  5
40B8
331
40B8
  5
40B9
331
40B9
  5
40BA
331
40BA
  5
40BB
331
40BB
  5
40BC
331
40BC
  5
40BD
331
40BD
  5
40BE
331
40BE
  5
40BF
331
40BF
  5
40C0
331
40C0
  5
40C1
331
40C1
  5
40C2
331
40C2
  5
40C3
331
40C3
  5
40C4
331
40C4
  5
40C5
331
40C5
  5
40C6
331
40C6
  5
40C7
331
40C7
  5
40C8
331
40C8
  5
40C9
331
40C9
  5
40CA
331
40CA
  5
40CB
331
40CB
  5
40CC
331
40CC
  5
40CD
331
40E2
  5
40E3
331
40E3
  5
40E4
331
40E7
  5
40E8
331
40E8
  5
40E9
331
40E9
  5
40EA
331
40EA
  5
40EB
331
40EB
  5
40EC
331
40EC
  5
40ED
331
40ED
  5
40EE
331
40EE
  5
40EF
331
40EF
  5
40F0
331
40F0
  5
40F1
331
40F1
  5
40F2
331
40F2
  5
40F3
331
40F3
  5
40F4
331
40F4
  5
40F5
331
40F5
  5
40F6
331
40F6
  5
40F7
331
40F7
  5
40F8
331
40F8
  5
40F9
331
40F9
  5
40FA
331
40FA
  5
40FB
331
40FB
  5
40FC
331
40FC
  5
40FD
331
40FD
  5
40FE
331
40FE
  5
40FF
331
40FF
  5
4100
331
4100
  5
4101
331
4101
  5
4102
331
4102
  5
4103
331
4103
  5
4104
331
4104
  5
4105
331
4105
  5
4106
331
4106
  5
4107
331
4107
  5
4108
331
4108
  5
4109
331
4109
  5
410A
331
410B
  5
410D
331
410C
  5
410E
331
410D
  5
410F
331
410E
  5
4110
331
410F
  5
4111
331
4110
  5
4112
331
4111
  5
4113
331
4112
  5
4114
331
4113
  5
4115
331
4114
  5
4116
331
4115
  5
4117
331
4116
  5
4118
331
4117
  5
4119
331
4118
  5
411A
331
4119
  5
411B
331
411A
  5
411C
331
411B
  5
411D
331
411C
  5
411E
331
411D
  5
411F
331
411E
  5
4120
331
411F
  5
4121
331
4120
  5
4122
331
4121
  5
4123
331
4122
  5
4124
331
4123
  5
4125
331
4124
  5
4126
331
4125
  5
4127
331
4126
  5
4128
331
4127
  5
4129
331
4128
  5
412A
331
4129
  5
412B
331
412A
  5
412C
331
412B
  5
412D
331
412C
  5
412E
331
412D
  5
412F
331
412E
  5
4130
331
412F
  5
4131
331
4130
  5
4132
331
4131
  5
4133
331
4132
  5
4134
331
4133
  5
4135
331
4134
  5
4136
331
4135
  5
4137
331
4136
  5
4138
331
4137
  5
4139
331
4138
  5
413A
331
4139
  5
413B
331
413A
  5
413C
331
413B
  5
413D
331
413E
  5
4140
331
413F
  5
4141
331
4140
  5
4142
331
4141
  5
4143
331
4142
  5
4144
331
4143
  5
4145
331
4144
  5
4146
331
4145
  5
4147
331
4146
  5
4148
331
4147
  5
4149
331
4148
  5
414A
331
414A
  5
414C
331
414C
  5
414E
331
414D
  5
414F
331
414E
  5
4150
331
414F
  5
4151
331
4150
  5
4152
331
4151
  5
4153
331
4152
  5
4154
331
4153
  5
4155
331
4154
  5
4156
331
4155
  5
4157
331
4156
  5
4158
331
4157
  5
4159
331
4158
  5
415A
331
4159
  5
415B
331
416E
  5
4170
331
416F
  5
4171
331
4170
  5
4172
331
417A
  5
417C
331
417B
  5
417D
331
417C
  5
417E
331
417D
  5
417F
331
417E
  5
4180
331
417F
  5
4181
331
4180
  5
4182
331
4181
  5
4183
331
4182
  5
4184
331
4183
  5
4185
331
4184
  5
4186
331
4185
  5
4187
331
4186
  5
4188
331
4187
  5
4189
331
4189
  5
418B
331
418A
  5
418C
331
418B
  5
418D
331
418C
  5
418E
331
418D
  5
418F
331
418E
  5
4190
331
418F
  5
4191
331
4190
  5
4192
331
4191
  5
4193
331
4192
  5
4194
331
4193
  5
4195
331
4194
  5
4196
331
4195
  5
4197
331
4196
  5
4198
331
4197
  5
4199
331
4198
  5
419A
331
4199
  5
419B
331
419A
  5
419C
331
419B
  5
419D
331
419C
  5
419E
331
419D
  5
419F
331
419E
  5
41A0
331
419F
  5
41A1
331
41A0
  5
41A2
331
41A1
  5
41A3
331
41A2
  5
41A4
331
41A3
  5
41A5
331
41A4
  5
41A6
331
41A7
  5
41A9
331
41A8
  5
41AA
331
41A9
  5
41AB
331
41AA
  5
41AC
331
41AB
  5
41AD
331
41AC
  5
41AE
331
41AD
  5
41AF
331
41AE
  5
41B0
331
41AF
  5
41B1
331
41B0
  5
41B2
331
41B1
  5
41B3
331
41B2
  5
41B4
331
41B3
  5
41B5
331
41B4
  5
41B6
331
41B5
  5
41B7
331
41B6
  5
41B8
331
41B7
  5
41B9
331
41BA
  5
41BC
331
41BB
  5
41BD
331
41BC
  5
41BE
331
41BD
  5
41BF
331
41BE
  5
41C0
331
41BF
  5
41C1
331
41C0
  5
41C2
331
41C1
  5
41C3
331
41C2
  5
41C4
331
41C3
  5
41C5
331
41C4
  5
41C6
331
41C5
  5
41C7
331
41C6
  5
41C8
331
41C7
  5
41C9
331
41C8
  5
41CA
331
41C9
  5
41CB
331
41CA
  5
41CC
331
41CD
  5
41CF
331
41CE
  5
41D0
331
41CF
  5
41D1
331
41D0
  5
41D2
331
41D1
  5
41D3
331
41D2
  5
41D4
331
41D3
  5
41D5
331
41D4
  5
41D6
331
41D5
  5
41D7
331
41D6
  5
41D8
331
41D7
  5
41D9
331
41D8
  5
41DA
331
41D9
  5
41DB
331
41DA
  5
41DC
331
41DB
  5
41DD
331
41DC
  5
41DE
331
41DD
  5
41DF
331
41DE
  5
41E0
331
41DF
  5
41E1
331
41E0
  5
41E2
331
41E1
  5
41E3
331
41E2
  5
41E4
331
41E3
  5
41E5
331
41E4
  5
41E6
331
41E5
  5
41E7
331
41E6
  5
41E8
331
41E7
  5
41E9
331
41E8
  5
41EA
331
41E9
  5
41EB
331
41EA
  5
41EC
331
41EB
  5
41ED
331
41EC
  5
41EE
331
41ED
  5
41EF
331
41EE
  5
41F0
331
41EF
  5
41F1
331
41F0
  5
41F2
331
41F1
  5
41F3
331
41F2
  5
41F4
331
41F3
  5
41F5
331
41F4
  5
41F6
331
41F5
  5
41F7
331
41F6
  5
41F8
331
41F7
  5
41F9
331
41F8
  5
41FA
331
41F9
  5
41FB
331
41FA
  5
41FC
331
41FB
  5
41FD
331
41FE
  5
4200
331
4200
  5
4202
331
4201
  5
4203
331
4202
  5
4204
331
4203
  5
4205
331
4204
  5
4206
331
4205
  5
4207
331
4206
  5
4208
331
4207
  5
4209
331
4208
  5
420A
331
4209
  5
420B
331
420A
  5
420C
331
420B
  5
420D
331
420C
  5
420E
331
420D
  5
420F
331
420E
  5
4210
331
420F
  5
4211
331
4210
  5
4212
331
4211
  5
4213
331
4212
  5
4214
331
4213
  5
4215
331
4214
  5
4216
331
4215
  5
4217
331
4216
  5
4218
331
4217
  5
4219
331
4218
  5
421A
331
4219
  5
421B
331
421A
  5
421C
331
421B
  5
421D
331
421C
  5
421E
331
421D
  5
421F
331
421E
  5
4220
331
421F
  5
4221
331
4220
  5
4222
331
4221
  5
4223
331
4222
  5
4224
331
4223
  5
4225
331
4224
  5
4226
331
4225
  5
4227
331
4226
  5
4228
331
4227
  5
4229
331
4228
  5
422A
331
4229
  5
422B
331
422A
  5
422C
331
422B
  5
422D
331
422C
  5
422E
331
422D
  5
422F
331
422E
  5
4230
331
422F
  5
4231
331
4230
  5
4232
331
4231
  5
4233
331
4232
  5
4234
331
4233
  5
4235
331
4234
  5
4236
331
4235
  5
4237
331
4236
  5
4238
331
4237
  5
4239
331
4238
  5
423A
331
4239
  5
423B
331
423A
  5
423C
331
423B
  5
423D
331
423C
  5
423E
331
423D
  5
423F
331
423E
  5
4240
331
423F
  5
4241
331
4240
  5
4242
331
4241
  5
4243
331
4242
  5
4244
331
4243
  5
4245
331
4244
  5
4246
331
4245
  5
4247
331
4246
  5
4248
331
4247
  5
4249
331
4248
  5
424A
331
4249
  5
424B
331
424A
  5
424C
331
424B
  5
424D
331
424C
  5
424E
331
424D
  5
424F
331
424E
  5
4250
331
424F
  5
4251
331
4250
  5
4252
331
4251
  5
4253
331
4252
  5
4254
331
4253
  5
4255
331
4254
  5
4256
331
4255
  5
4257
331
4256
  5
4258
331
4257
  5
4259
331
4258
  5
425A
331
4259
  5
425B
331
425A
  5
425C
331
425B
  5
425D
331
425C
  5
425E
331
425D
  5
425F
331
425E
  5
4260
331
425F
  5
4261
331
4260
  5
4262
331
4264
  5
4266
331
4265
  5
4267
331
4266
  5
4268
331
4267
  5
4269
331
4268
  5
426A
331
4269
  5
426B
331
426A
  5
426C
331
426B
  5
426D
331
426C
  5
426E
331
426D
  5
426F
331
426E
  5
4270
331
426F
  5
4271
331
4270
  5
4272
331
4271
  5
4273
331
4272
  5
4274
331
4273
  5
4275
331
4274
  5
4276
331
4275
  5
4277
331
4276
  5
4278
331
4277
  5
4279
331
4278
  5
427A
331
4279
  5
427B
331
427A
  5
427C
331
427B
  5
427D
331
427C
  5
427E
331
427D
  5
427F
331
427E
  5
4280
331
427F
  5
4281
331
428C
  5
428E
331
428D
  5
428F
331
428E
  5
4290
331
428F
  5
4291
331
4290
  5
4292
331
4291
  5
4293
331
4292
  5
4294
331
4293
  5
4295
331
4294
  5
4296
331
4295
  5
4297
331
4296
  5
4298
331
4297
  5
429A
331
4298
  5
429D
331
44C0
  5
44C5
331
44C1
  5
44C6
331
44C2
  5
44C7
331
44C3
  5
44C8
331
44C4
  5
44C9
331
44C5
  5
44CA
331
44C6
  5
44CB
331
44C7
  5
44CC
331
44C8
  5
44CD
331
44C9
  5
44CE
331
44CA
  5
44CF
331
44CB
  5
44D0
331
44CC
  5
44D1
331
44CD
  5
44D2
331
44CE
  5
44D3
331
44CF
  5
44D4
331
44D0
  5
44D5
331
44D1
  5
44D6
331
44D2
  5
44D7
331
44D3
  5
44D8
331
44D4
  5
44D9
331
44D5
  5
44DA
331
44D6
  5
44DB
331
44D7
  5
44DC
331
44D8
  5
44DD
331
44D9
  5
44DE
331
44DA
  5
44DF
331
44DB
  5
44E0
331
44DC
  5
44E1
331
44DD
  5
44E2
331
44DE
  5
44E3
331
44DF
  5
44E4
331
44E0
  5
44E5
331
44E1
  5
44E6
331
44E2
  5
44E7
331
44E3
  5
44E8
331
44E4
  5
44E9
331
44E5
  5
44EA
331
44E6
  5
44EB
331
44E7
  5
44EC
331
44E8
  5
44ED
331
44E9
  5
44EE
331
44EA
  5
44EF
331
44EB
  5
44F0
331
44EC
  5
44F1
331
4550
  5
4555
331
4551
  5
4556
331
4552
  5
4557
331
4553
  5
4558
331
4554
  5
4559
331
4555
  5
455A
331
4556
  5
455B
331
4557
  5
455C
331
4558
  5
455D
331
4559
  5
455E
331
455A
  5
455F
331
455B
  5
4560
331
455C
  5
4561
331
455D
  5
4562
331
455E
  5
4563
331
455F
  5
4564
331
4560
  5
4565
331
4561
  5
4566
331
4562
  5
4567
331
4563
  5
4568
331
4564
  5
4569
331
4565
  5
456A
331
4566
  5
456B
331
4567
  5
456C
331
4568
  5
456D
331
4569
  5
456E
331
456A
  5
456F
331
456B
  5
4570
331
456C
  5
4571
331
456D
  5
4572
331
456E
  5
4573
331
456F
  5
4574
331
4570
  5
4575
331
4571
  5
4576
331
4572
  5
4577
331
4573
  5
4578
331
4574
  5
4579
331
4575
  5
457A
331
4576
  5
457B
331
4577
  5
457C
331
4578
  5
457D
331
4579
  5
457E
331
457A
  5
457F
331
457B
  5
4580
331
457C
  5
4581
331
457D
  5
4582
331
457E
  5
4583
331
457F
  5
4584
331
4580
  5
4585
331
4581
  5
4586
331
4582
  5
4587
331
4583
  5
4588
331
4584
  5
4589
331
4585
  5
458A
331
4586
  5
458B
331
4587
  5
458C
331
4588
  5
458D
331
4589
  5
458E
331
458A
  5
458F
331
458B
  5
4590
331
458C
  5
4591
331
458D
  5
4592
331
458E
  5
4593
331
458F
  5
4594
331
4590
  5
4595
331
4591
  5
4596
331
4592
  5
4597
331
4593
  5
4598
331
4594
  5
4599
331
4595
  5
459A
331
4596
  5
459B
331
4597
  5
459C
331
4598
  5
459D
331
4599
  5
459E
331
459A
  5
459F
331
459B
  5
45A0
331
459C
  5
45A1
331
459D
  5
45A2
331
459E
  5
45A3
331
459F
  5
45A4
331
45A0
  5
45A5
331
45A1
  5
45A6
331
45A2
  5
45A7
331
45A3
  5
45A8
331
45A4
  5
45A9
331
45A5
  5
45AA
331
45A6
  5
45AB
331
45A7
  5
45AC
331
45A8
  5
45AD
331
45A9
  5
45AE
331
45AA
  5
45AF
331
45AB
  5
45B0
331
45AC
  5
45B1
331
45AD
  5
45B2
331
45AE
  5
45B3
331
45AF
  5
45B4
331
45B0
  5
45B5
331
45B1
  5
45B6
331
45B2
  5
45B7
331
45B3
  5
45B8
331
45B4
  5
45B9
331
45B5
  5
45BA
331
45B6
  5
45BB
331
45B7
  5
45BC
331
45B8
  5
45BD
331
45B9
  5
45BE
331
45BA
  5
45BF
331
45BB
  5
45C0
331
45BC
  5
45C1
331
45BD
  5
45C2
331
45BE
  5
45C3
331
45BF
  5
45C4
331
45C0
  5
45C5
331
45C1
  5
45C6
331
45C2
  5
45C7
331
45C3
  5
45C8
331
45C4
  5
45C9
331
45C5
  5
45CA
331
45C6
  5
45CB
331
45C7
  5
45CC
331
45C8
  5
45CD
331
45C9
  5
45CE
331
45CA
  5
45CF
331
45CB
  5
45D0
331
45CC
  5
45D1
331
45CD
  5
45D2
331
45CE
  5
45D3
331
45CF
  5
45D4
331
45D0
  5
45D5
331
48C9
  5
48D0
331
61BA
  5
410C
  0
LAYOUT
  5
6470
102
{ACAD_REACTORS
330
1A
102
}
330
1A
100
AcDbPlotSettings
  1

  2
PDFCreator
  4
A4
  6

 40
3.174999952316284
 41
3.174999952316284
 42
3.175003051757812
 43
3.17498779296875
 44
209.9098358154297
 45
297.0318298339843
 46
0.0
 47
0.0
 48
-6.476730268722008
 49
-22.15100036762052
140
413.523269731278
141
274.8489996323794
142
1.0
143
1.459030477172959
 70
   688
 72
     1
 73
     1
 74
     4
  7

 75
     0
147
0.6853866424624768
148
6.476730268722008
149
22.15100036762052
100
AcDbLayout
  1
Layout1
 70
     0
 71
     1
 10
-11.10913422331553
 20
-26.78342206307267
 11
422.2693581949198
 21
279.4814258500112
 12
0.0
 22
0.0
 32
0.0
 14
-6.476730268722008
 24
-22.15100036762052
 34
0.0
 15
413.523269731278
 25
274.8489996323794
 35
0.0
146
0.0
 13
0.0
 23
0.0
 33
0.0
 16
1.0
 26
0.0
 36
0.0
 17
0.0
 27
1.0
 37
0.0
 76
     0
330
646F
331
647E
  0
LAYOUT
  5
22
102
{ACAD_REACTORS
330
1A
102
}
330
1A
100
AcDbPlotSettings
  1

  2
hp color LaserJet 3550N
  4
A4
  6

 40
5.027083396911621
 41
5.069413185119628
 42
5.027084350585937
 43
5.027069091796875
 44
209.9733276367187
 45
296.9683227539062
 46
18.54070981246752
 47
0.0
 48
6956.551751296149
 49
3995.150417808603
140
7834.760322151494
141
4493.650022792604
142
1.0
143
3.061327209373789
 70
 11956
 72
     1
 73
     1
 74
     4
  7
monochrome.ctb
 75
     0
147
0.3266557057141746
148
-6956.551751296149
149
-3995.150417808603
100
AcDbLayout
  1
Model
 70
     1
 71
     0
 10
0.0
 20
0.0
 11
12.0
 21
9.0
 12
0.0
 22
0.0
 32
0.0
 14
0.0
 24
0.0
 34
0.0
 15
0.0
 25
0.0
 35
0.0
146
0.0
 13
0.0
 23
0.0
 33
0.0
 16
1.0
 26
0.0
 36
0.0
 17
0.0
 27
1.0
 37
0.0
 76
     0
330
1F
331
6F63
1001
ACAD_PSEXT
1000
hp color LaserJet 3550N
1000
HP Color LaserJet 3550
1000
hpcolorLaserJet3550
1000

1070
     0
  0
MLINESTYLE
  5
18
102
{ACAD_REACTORS
330
17
102
}
330
17
100
AcDbMlineStyle
  2
STANDARD
 70
     0
  3

 62
   256
 51
90.0
 52
90.0
 71
     2
 49
0.5
 62
   256
  6
BYLAYER
 49
-0.5
 62
   256
  6
BYLAYER
  0
ACDBPLACEHOLDER
  5
F
102
{ACAD_REACTORS
330
E
102
}
330
E
  0
SCALE
  5
6F8C
102
{ACAD_REACTORS
330
6F8B
102
}
330
6F8B
100
AcDbScale
 70
     0
300
1:1
140
1.0
141
1.0
290
     1
  0
SCALE
  5
6F8D
102
{ACAD_REACTORS
330
6F8B
102
}
330
6F8B
100
AcDbScale
 70
     0
300
1:2
140
1.0
141
2.0
290
     0
  0
SCALE
  5
6F8E
102
{ACAD_REACTORS
330
6F8B
102
}
330
6F8B
100
AcDbScale
 70
     0
300
1:4
140
1.0
141
4.0
290
     0
  0
SCALE
  5
6F8F
102
{ACAD_REACTORS
330
6F8B
102
}
330
6F8B
100
AcDbScale
 70
     0
300
1:5
140
1.0
141
5.0
290
     0
  0
SCALE
  5
6F90
102
{ACAD_REACTORS
330
6F8B
102
}
330
6F8B
100
AcDbScale
 70
     0
300
1:8
140
1.0
141
8.0
290
     0
  0
SCALE
  5
6F91
102
{ACAD_REACTORS
330
6F8B
102
}
330
6F8B
100
AcDbScale
 70
     0
300
1:10
140
1.0
141
10.0
290
     0
  0
SCALE
  5
6F92
102
{ACAD_REACTORS
330
6F8B
102
}
330
6F8B
100
AcDbScale
 70
     0
300
1:16
140
1.0
141
16.0
290
     0
  0
SCALE
  5
6F93
102
{ACAD_REACTORS
330
6F8B
102
}
330
6F8B
100
AcDbScale
 70
     0
300
1:20
140
1.0
141
20.0
290
     0
  0
SCALE
  5
6F94
102
{ACAD_REACTORS
330
6F8B
102
}
330
6F8B
100
AcDbScale
 70
     0
300
1:30
140
1.0
141
30.0
290
     0
  0
SCALE
  5
6F95
102
{ACAD_REACTORS
330
6F8B
102
}
330
6F8B
100
AcDbScale
 70
     0
300
1:40
140
1.0
141
40.0
290
     0
  0
SCALE
  5
6F96
102
{ACAD_REACTORS
330
6F8B
102
}
330
6F8B
100
AcDbScale
 70
     0
300
1:50
140
1.0
141
50.0
290
     0
  0
SCALE
  5
6F97
102
{ACAD_REACTORS
330
6F8B
102
}
330
6F8B
100
AcDbScale
 70
     0
300
1:100
140
1.0
141
100.0
290
     0
  0
SCALE
  5
6F98
102
{ACAD_REACTORS
330
6F8B
102
}
330
6F8B
100
AcDbScale
 70
     0
300
2:1
140
2.0
141
1.0
290
     0
  0
SCALE
  5
6F99
102
{ACAD_REACTORS
330
6F8B
102
}
330
6F8B
100
AcDbScale
 70
     0
300
4:1
140
4.0
141
1.0
290
     0
  0
SCALE
  5
6F9A
102
{ACAD_REACTORS
330
6F8B
102
}
330
6F8B
100
AcDbScale
 70
     0
300
8:1
140
8.0
141
1.0
290
     0
  0
SCALE
  5
6F9B
102
{ACAD_REACTORS
330
6F8B
102
}
330
6F8B
100
AcDbScale
 70
     0
300
10:1
140
10.0
141
1.0
290
     0
  0
SCALE
  5
6F9C
102
{ACAD_REACTORS
330
6F8B
102
}
330
6F8B
100
AcDbScale
 70
     0
300
100:1
140
100.0
141
1.0
290
     0
  0
SCALE
  5
6F9D
102
{ACAD_REACTORS
330
6F8B
102
}
330
6F8B
100
AcDbScale
 70
     0
300
1/128" = 1'-0"
140
0.0078125
141
12.0
290
     0
  0
SCALE
  5
6F9E
102
{ACAD_REACTORS
330
6F8B
102
}
330
6F8B
100
AcDbScale
 70
     0
300
1/64" = 1'-0"
140
0.015625
141
12.0
290
     0
  0
SCALE
  5
6F9F
102
{ACAD_REACTORS
330
6F8B
102
}
330
6F8B
100
AcDbScale
 70
     0
300
1/32" = 1'-0"
140
0.03125
141
12.0
290
     0
  0
SCALE
  5
6FA0
102
{ACAD_REACTORS
330
6F8B
102
}
330
6F8B
100
AcDbScale
 70
     0
300
1/16" = 1'-0"
140
0.0625
141
12.0
290
     0
  0
SCALE
  5
6FA1
102
{ACAD_REACTORS
330
6F8B
102
}
330
6F8B
100
AcDbScale
 70
     0
300
3/32" = 1'-0"
140
0.09375
141
12.0
290
     0
  0
SCALE
  5
6FA2
102
{ACAD_REACTORS
330
6F8B
102
}
330
6F8B
100
AcDbScale
 70
     0
300
1/8" = 1'-0"
140
0.125
141
12.0
290
     0
  0
SCALE
  5
6FA3
102
{ACAD_REACTORS
330
6F8B
102
}
330
6F8B
100
AcDbScale
 70
     0
300
3/16" = 1'-0"
140
0.1875
141
12.0
290
     0
  0
SCALE
  5
6FA4
102
{ACAD_REACTORS
330
6F8B
102
}
330
6F8B
100
AcDbScale
 70
     0
300
1/4" = 1'-0"
140
0.25
141
12.0
290
     0
  0
SCALE
  5
6FA5
102
{ACAD_REACTORS
330
6F8B
102
}
330
6F8B
100
AcDbScale
 70
     0
300
3/8" = 1'-0"
140
0.375
141
12.0
290
     0
  0
SCALE
  5
6FA6
102
{ACAD_REACTORS
330
6F8B
102
}
330
6F8B
100
AcDbScale
 70
     0
300
1/2" = 1'-0"
140
0.5
141
12.0
290
     0
  0
SCALE
  5
6FA7
102
{ACAD_REACTORS
330
6F8B
102
}
330
6F8B
100
AcDbScale
 70
     0
300
3/4" = 1'-0"
140
0.75
141
12.0
290
     0
  0
SCALE
  5
6FA8
102
{ACAD_REACTORS
330
6F8B
102
}
330
6F8B
100
AcDbScale
 70
     0
300
1" = 1'-0"
140
1.0
141
12.0
290
     0
  0
SCALE
  5
6FA9
102
{ACAD_REACTORS
330
6F8B
102
}
330
6F8B
100
AcDbScale
 70
     0
300
1-1/2" = 1'-0"
140
1.5
141
12.0
290
     0
  0
SCALE
  5
6FAA
102
{ACAD_REACTORS
330
6F8B
102
}
330
6F8B
100
AcDbScale
 70
     0
300
3" = 1'-0"
140
3.0
141
12.0
290
     0
  0
SCALE
  5
6FAB
102
{ACAD_REACTORS
330
6F8B
102
}
330
6F8B
100
AcDbScale
 70
     0
300
6" = 1'-0"
140
6.0
141
12.0
290
     0
  0
SCALE
  5
6FAC
102
{ACAD_REACTORS
330
6F8B
102
}
330
6F8B
100
AcDbScale
 70
     0
300
1'-0" = 1'-0"
140
12.0
141
12.0
290
     0
  0
DICTIONARYVAR
  5
21BA
102
{ACAD_REACTORS
330
21B8
102
}
330
21B8
100
DictionaryVariables
280
     0
  1
2
  0
DICTIONARYVAR
  5
21B9
102
{ACAD_REACTORS
330
21B8
102
}
330
21B8
100
DictionaryVariables
280
     0
  1
1
  0
DICTIONARYVAR
  5
3468
102
{ACAD_REACTORS
330
21B8
102
}
330
21B8
100
DictionaryVariables
280
     0
  1

  0
XRECORD
  5
5CFD
102
{ACAD_REACTORS
330
5CFB
102
}
330
5CFB
100
AcDbXrecord
280
     1
  1
AcLyLayerFilter
 90
        1
300
025
301
( NAME== "*_025" )
  0
XRECORD
  5
5CFF
102
{ACAD_REACTORS
330
5CFB
102
}
330
5CFB
100
AcDbXrecord
280
     1
  1
AcLyLayerFilter
 90
        1
300
035
301
( NAME== "*_035" )
  0
XRECORD
  5
5D01
102
{ACAD_REACTORS
330
5CFB
102
}
330
5CFB
100
AcDbXrecord
280
     1
  1
AcLyLayerFilter
 90
        1
300
050
301
( NAME== "*_050" )
  0
XRECORD
  5
5D03
102
{ACAD_REACTORS
330
5CFB
102
}
330
5CFB
100
AcDbXrecord
280
     1
  1
AcLyLayerFilter
 90
        1
300
070
301
( NAME== "*_070" )
  0
XRECORD
  5
5D05
102
{ACAD_REACTORS
330
5CFB
102
}
330
5CFB
100
AcDbXrecord
280
     1
  1
AcLyLayerFilter
 90
        1
300
mmMC
301
( NAME== "MC_*" )
  0
XRECORD
  5
5D07
102
{ACAD_REACTORS
330
5CFB
102
}
330
5CFB
100
AcDbXrecord
280
     1
  1
AcLyLayerFilter
 90
        1
300
mmRS
301
( NAME== "MM_4*" )
  0
XRECORD
  5
5D09
102
{ACAD_REACTORS
330
5CFB
102
}
330
5CFB
100
AcDbXrecord
280
     1
  1
AcLyLayerFilter
 90
        1
300
mmTxt
301
( NAME== "MM_8*" )
  0
XRECORD
  5
5D0B
102
{ACAD_REACTORS
330
5CFB
102
}
330
5CFB
100
AcDbXrecord
280
     1
  1
AcLyLayerFilter
 90
        1
300
XREF UIT
301
( NAME== "~*|*" )
  0
XRECORD
  5
5D0D
102
{ACAD_REACTORS
330
5CFB
102
}
330
5CFB
100
AcDbXrecord
280
     1
  1
AcLyLayerFilter
 90
        1
300
XREFOUT
301
( NAME== "~*|*" )
  0
ENDSEC
  0
EOF
