  0
SECTION
  2
HEADER
  9
$ACADVER
  1
AC1015
  9
$ACADMAINTVER
 70
     6
  9
$DWGCODEPAGE
  3
ANSI_1252
  9
$INSBASE
 10
0.0
 20
0.0
 30
0.0
  9
$EXTMIN
 10
5.974470000000007
 20
9.182964999999996
 30
0.0
  9
$EXTMAX
 10
490.9188108294004
 20
413.682811
 30
0.0
  9
$LIMMIN
 10
0.0
 20
0.0
  9
$LIMMAX
 10
594.0
 20
420.0
  9
$ORTHOMODE
 70
     1
  9
$REGENMODE
 70
     1
  9
$FILLMODE
 70
     1
  9
$QTEXTMODE
 70
     0
  9
$MIRRTEXT
 70
     1
  9
$LTSCALE
 40
1.1
  9
$ATTMODE
 70
     1
  9
$TEXTSIZE
 40
10.0
  9
$TRACEWID
 40
0.05
  9
$TEXTSTYLE
  7
STANDARD
  9
$CLAYER
  8
Defpoints
  9
$CELTYPE
  6
Continuous
  9
$CECOLOR
 62
   256
  9
$CELTSCALE
 40
1.0
  9
$DISPSILH
 70
     0
  9
$DIMSCALE
 40
1.0
  9
$DIMASZ
 40
20.0
  9
$DIMEXO
 40
0.0
  9
$DIMDLI
 40
0.0
  9
$DIMRND
 40
0.0
  9
$DIMDLE
 40
0.0
  9
$DIMEXE
 40
10.0
  9
$DIMTP
 40
0.0
  9
$DIMTM
 40
0.0
  9
$DIMTXT
 40
20.0
  9
$DIMCEN
 40
2.5
  9
$DIMTSZ
 40
0.0
  9
$DIMTOL
 70
     0
  9
$DIMLIM
 70
     0
  9
$DIMTIH
 70
     0
  9
$DIMTOH
 70
     0
  9
$DIMSE1
 70
     0
  9
$DIMSE2
 70
     0
  9
$DIMTAD
 70
     1
  9
$DIMZIN
 70
     8
  9
$DIMBLK
  1

  9
$DIMASO
 70
     1
  9
$DIMSHO
 70
     1
  9
$DIMPOST
  1

  9
$DIMAPOST
  1

  9
$DIMALT
 70
     0
  9
$DIMALTD
 70
     3
  9
$DIMALTF
 40
0.03937007874016
  9
$DIMLFAC
 40
1.0
  9
$DIMTOFL
 70
     1
  9
$DIMTVP
 40
0.0
  9
$DIMTIX
 70
     0
  9
$DIMSOXD
 70
     0
  9
$DIMSAH
 70
     0
  9
$DIMBLK1
  1

  9
$DIMBLK2
  1

  9
$DIMSTYLE
  2
Stil 3
  9
$DIMCLRD
 70
     7
  9
$DIMCLRE
 70
     7
  9
$DIMCLRT
 70
   256
  9
$DIMTFAC
 40
1.0
  9
$DIMGAP
 40
10.0
  9
$DIMJUST
 70
     0
  9
$DIMSD1
 70
     0
  9
$DIMSD2
 70
     0
  9
$DIMTOLJ
 70
     0
  9
$DIMTZIN
 70
     8
  9
$DIMALTZ
 70
     0
  9
$DIMALTTZ
 70
     0
  9
$DIMUPT
 70
     1
  9
$DIMDEC
 70
     2
  9
$DIMTDEC
 70
     2
  9
$DIMALTU
 70
     2
  9
$DIMALTTD
 70
     3
  9
$DIMTXSTY
  7
Stil1
  9
$DIMAUNIT
 70
     0
  9
$DIMADEC
 70
     1
  9
$DIMALTRND
 40
0.0
  9
$DIMAZIN
 70
     2
  9
$DIMDSEP
 70
    44
  9
$DIMATFIT
 70
     3
  9
$DIMFRAC
 70
     0
  9
$DIMLDRBLK
  1

  9
$DIMLUNIT
 70
     2
  9
$DIMLWD
 70
    25
  9
$DIMLWE
 70
    25
  9
$DIMTMOVE
 70
     0
  9
$LUNITS
 70
     2
  9
$LUPREC
 70
     4
  9
$SKETCHINC
 40
0.1
  9
$FILLETRAD
 40
0.0
  9
$AUNITS
 70
     0
  9
$AUPREC
 70
     0
  9
$MENU
  1
.
  9
$ELEVATION
 40
0.0
  9
$PELEVATION
 40
0.0
  9
$THICKNESS
 40
0.0
  9
$LIMCHECK
 70
     0
  9
$CHAMFERA
 40
0.0
  9
$CHAMFERB
 40
0.0
  9
$CHAMFERC
 40
0.0
  9
$CHAMFERD
 40
0.0
  9
$SKPOLY
 70
     0
  9
$TDCREATE
 40
2453936.303851458
  9
$TDUCREATE
 40
2453936.262184792
  9
$TDUPDATE
 40
2456966.639655949
  9
$TDUUPDATE
 40
2456966.597989283
  9
$TDINDWG
 40
0.2915353472
  9
$TDUSRTIMER
 40
2456966.591619282
  9
$USRTIMER
 70
     1
  9
$ANGBASE
 50
0.0
  9
$ANGDIR
 70
     0
  9
$PDMODE
 70
     0
  9
$PDSIZE
 40
0.0
  9
$PLINEWID
 40
0.0
  9
$SPLFRAME
 70
     0
  9
$SPLINETYPE
 70
     6
  9
$SPLINESEGS
 70
     8
  9
$HANDSEED
  5
ADF
  9
$SURFTAB1
 70
     6
  9
$SURFTAB2
 70
     6
  9
$SURFTYPE
 70
     6
  9
$SURFU
 70
     6
  9
$SURFV
 70
     6
  9
$UCSBASE
  2

  9
$UCSNAME
  2

  9
$UCSORG
 10
0.0
 20
0.0
 30
0.0
  9
$UCSXDIR
 10
1.0
 20
0.0
 30
0.0
  9
$UCSYDIR
 10
0.0
 20
1.0
 30
0.0
  9
$UCSORTHOREF
  2

  9
$UCSORTHOVIEW
 70
     0
  9
$UCSORGTOP
 10
0.0
 20
0.0
 30
0.0
  9
$UCSORGBOTTOM
 10
0.0
 20
0.0
 30
0.0
  9
$UCSORGLEFT
 10
0.0
 20
0.0
 30
0.0
  9
$UCSORGRIGHT
 10
0.0
 20
0.0
 30
0.0
  9
$UCSORGFRONT
 10
0.0
 20
0.0
 30
0.0
  9
$UCSORGBACK
 10
0.0
 20
0.0
 30
0.0
  9
$PUCSBASE
  2

  9
$PUCSNAME
  2

  9
$PUCSORG
 10
0.0
 20
0.0
 30
0.0
  9
$PUCSXDIR
 10
1.0
 20
0.0
 30
0.0
  9
$PUCSYDIR
 10
0.0
 20
1.0
 30
0.0
  9
$PUCSORTHOREF
  2

  9
$PUCSORTHOVIEW
 70
     0
  9
$PUCSORGTOP
 10
0.0
 20
0.0
 30
0.0
  9
$PUCSORGBOTTOM
 10
0.0
 20
0.0
 30
0.0
  9
$PUCSORGLEFT
 10
0.0
 20
0.0
 30
0.0
  9
$PUCSORGRIGHT
 10
0.0
 20
0.0
 30
0.0
  9
$PUCSORGFRONT
 10
0.0
 20
0.0
 30
0.0
  9
$PUCSORGBACK
 10
0.0
 20
0.0
 30
0.0
  9
$USERI1
 70
     0
  9
$USERI2
 70
     0
  9
$USERI3
 70
     0
  9
$USERI4
 70
     0
  9
$USERI5
 70
     0
  9
$USERR1
 40
0.0
  9
$USERR2
 40
0.0
  9
$USERR3
 40
0.0
  9
$USERR4
 40
0.0
  9
$USERR5
 40
0.0
  9
$WORLDVIEW
 70
     1
  9
$SHADEDGE
 70
     3
  9
$SHADEDIF
 70
    70
  9
$TILEMODE
 70
     0
  9
$MAXACTVP
 70
    64
  9
$PINSBASE
 10
0.0
 20
0.0
 30
0.0
  9
$PLIMCHECK
 70
     0
  9
$PEXTMIN
 10
-6.95515951681989
 20
-22.12768125522913
 30
0.0
  9
$PEXTMAX
 10
413.0448404831801
 20
274.8723187447708
 30
0.0
  9
$PLIMMIN
 10
-5.793749809265136
 20
-17.79375076293945
  9
$PLIMMAX
 10
414.2062501907349
 20
279.2062492370605
  9
$UNITMODE
 70
     0
  9
$VISRETAIN
 70
     1
  9
$PLINEGEN
 70
     0
  9
$PSLTSCALE
 70
     0
  9
$TREEDEPTH
 70
  3020
  9
$CMLSTYLE
  2
Standard
  9
$CMLJUST
 70
     0
  9
$CMLSCALE
 40
1.0
  9
$PROXYGRAPHICS
 70
     1
  9
$MEASUREMENT
 70
     0
  9
$CELWEIGHT
370
    -1
  9
$ENDCAPS
280
     0
  9
$JOINSTYLE
280
     0
  9
$LWDISPLAY
290
     0
  9
$INSUNITS
 70
     0
  9
$HYPERLINKBASE
  1

  9
$STYLESHEET
  1

  9
$XEDIT
290
     1
  9
$CEPSNTYPE
380
     0
  9
$PSTYLEMODE
290
     1
  9
$FINGERPRINTGUID
  2
{1C71893A-4596-4A4F-A74E-6608D5988F8C}
  9
$VERSIONGUID
  2
{650527F5-B8DF-4C92-BE0A-A35294F57660}
  9
$EXTNAMES
290
     1
  9
$PSVPSCALE
 40
0.0
  9
$OLESTARTUP
290
     0
  0
ENDSEC
  0
SECTION
  2
CLASSES
  0
CLASS
  1
ACDBDICTIONARYWDFLT
  2
AcDbDictionaryWithDefault
  3
ObjectDBX Classes
 90
        0
280
     0
281
     0
  0
CLASS
  1
ACDBPLACEHOLDER
  2
AcDbPlaceHolder
  3
ObjectDBX Classes
 90
        0
280
     0
281
     0
  0
CLASS
  1
LAYOUT
  2
AcDbLayout
  3
ObjectDBX Classes
 90
        0
280
     0
281
     0
  0
CLASS
  1
DICTIONARYVAR
  2
AcDbDictionaryVar
  3
ObjectDBX Classes
 90
        0
280
     0
281
     0
  0
CLASS
  1
SCALE
  2
AcDbScale
  3
ObjectDBX Classes
 90
     1153
280
     0
281
     0
  0
CLASS
  1
VISUALSTYLE
  2
AcDbVisualStyle
  3
ObjectDBX Classes
 90
     4095
280
     0
281
     0
  0
CLASS
  1
MATERIAL
  2
AcDbMaterial
  3
ObjectDBX Classes
 90
     1153
280
     0
281
     0
  0
CLASS
  1
TABLESTYLE
  2
AcDbTableStyle
  3
ObjectDBX Classes
 90
     4095
280
     0
281
     0
  0
CLASS
  1
MLEADERSTYLE
  2
AcDbMLeaderStyle
  3
ACDB_MLEADERSTYLE_CLASS
 90
     4095
280
     0
281
     0
  0
CLASS
  1
SUN
  2
AcDbSun
  3
SCENEOE
 90
     1153
280
     0
281
     0
  0
CLASS
  1
RASTERVARIABLES
  2
AcDbRasterVariables
  3
ISM
 90
        0
280
     0
281
     0
  0
ENDSEC
  0
SECTION
  2
TABLES
  0
TABLE
  2
VPORT
  5
8
330
0
100
AcDbSymbolTable
 70
     1
  0
VPORT
  5
A38
330
8
100
AcDbSymbolTableRecord
100
AcDbViewportTableRecord
  2
*Active
 70
     0
 10
0.0
 20
0.0
 11
1.0
 21
1.0
 12
248.4422266884619
 22
210.2158066854402
 13
0.0
 23
0.0
 14
1.0
 24
1.0
 15
0.0
 25
0.0
 16
0.0
 26
0.0
 36
1.0
 17
0.0
 27
0.0
 37
0.0
 40
444.435195650986
 41
1.762081784386617
 42
50.0
 43
0.0
 44
0.0
 50
0.0
 51
0.0
 71
     0
 72
   100
 73
     1
 74
     1
 75
     0
 76
     0
 77
     0
 78
     0
281
     0
 65
     1
110
0.0
120
0.0
130
0.0
111
1.0
121
0.0
131
0.0
112
0.0
122
1.0
132
0.0
 79
     0
146
0.0
  0
ENDTAB
  0
TABLE
  2
LTYPE
  5
5
330
0
100
AcDbSymbolTable
 70
     5
  0
LTYPE
  5
13
330
5
100
AcDbSymbolTableRecord
100
AcDbLinetypeTableRecord
  2
ByBlock
 70
     0
  3

 72
    65
 73
     0
 40
0.0
  0
LTYPE
  5
14
330
5
100
AcDbSymbolTableRecord
100
AcDbLinetypeTableRecord
  2
ByLayer
 70
     0
  3

 72
    65
 73
     0
 40
0.0
  0
LTYPE
  5
15
330
5
100
AcDbSymbolTableRecord
100
AcDbLinetypeTableRecord
  2
Continuous
 70
     0
  3
Solid line
 72
    65
 73
     0
 40
0.0
  0
LTYPE
  5
22
330
5
100
AcDbSymbolTableRecord
100
AcDbLinetypeTableRecord
  2
AUSGEZOGEN
 70
     0
  3
Solid line
 72
    65
 73
     0
 40
0.0
  0
LTYPE
  5
23
330
5
100
AcDbSymbolTableRecord
100
AcDbLinetypeTableRecord
  2
GESTRICHELT
 70
     0
  3
__ __ __ __ __ __ __ __
 72
    65
 73
     2
 40
0.75
 49
0.5
 74
     0
 49
-0.25
 74
     0
  0
LTYPE
  5
35
330
5
100
AcDbSymbolTableRecord
100
AcDbLinetypeTableRecord
  2
STRICHPUNKT
 70
     0
  3
__ . __ . __ . __ . __ 
 72
    65
 73
     4
 40
1.0
 49
0.5
 74
     0
 49
-0.25
 74
     0
 49
0.0
 74
     0
 49
-0.25
 74
     0
  0
LTYPE
  5
38
330
5
100
AcDbSymbolTableRecord
100
AcDbLinetypeTableRecord
  2
VERDECKT
 70
     0
  3
__ __ __ __ __ __ __ __
 72
    65
 73
     2
 40
0.375
 49
0.25
 74
     0
 49
-0.125
 74
     0
  0
ENDTAB
  0
TABLE
  2
LAYER
  5
2
102
{ACAD_XDICTIONARY
360
45F
102
}
330
0
100
AcDbSymbolTable
 70
     9
  0
LAYER
  5
10
330
2
100
AcDbSymbolTableRecord
100
AcDbLayerTableRecord
  2
0
 70
     0
 62
     7
  6
Continuous
370
    25
390
F
  0
LAYER
  5
3B
330
2
100
AcDbSymbolTableRecord
100
AcDbLayerTableRecord
  2
1
 70
     0
 62
     1
  6
Continuous
370
    18
390
F
  0
LAYER
  5
454
330
2
100
AcDbSymbolTableRecord
100
AcDbLayerTableRecord
  2
Text
 70
     0
 62
     7
  6
Continuous
370
    25
390
F
  0
LAYER
  5
56E
330
2
100
AcDbSymbolTableRecord
100
AcDbLayerTableRecord
  2
Bemaßung
 70
     0
 62
     2
  6
Continuous
370
    35
390
F
  0
LAYER
  5
571
330
2
100
AcDbSymbolTableRecord
100
AcDbLayerTableRecord
  2
Defpoints
 70
     0
 62
     7
  6
Continuous
290
     0
370
    -3
390
F
  0
LAYER
  5
622
330
2
100
AcDbSymbolTableRecord
100
AcDbLayerTableRecord
  2
Rüttler
 70
     0
 62
    62
  6
Continuous
370
    35
390
F
  0
LAYER
  5
65B
330
2
100
AcDbSymbolTableRecord
100
AcDbLayerTableRecord
  2
RAHMEN07
 70
     0
 62
     5
  6
Continuous
370
    50
390
F
  0
LAYER
  5
65C
330
2
100
AcDbSymbolTableRecord
100
AcDbLayerTableRecord
  2
RAHMEN025
 70
     0
 62
     7
  6
Continuous
370
    25
390
F
  0
LAYER
  5
65D
330
2
100
AcDbSymbolTableRecord
100
AcDbLayerTableRecord
  2
RAHMEN05
 70
     0
 62
     6
  6
Continuous
370
    50
390
F
  0
ENDTAB
  0
TABLE
  2
STYLE
  5
3
330
0
100
AcDbSymbolTable
 70
     5
  0
STYLE
  5
11
330
3
100
AcDbSymbolTableRecord
100
AcDbTextStyleTableRecord
  2
STANDARD
 70
     0
 40
0.0
 41
1.0
 50
0.0
 71
     0
 42
10.0
  3
txt
  4

  0
STYLE
  5
52
330
3
100
AcDbSymbolTableRecord
100
AcDbTextStyleTableRecord
  2
ROMANS
 70
     0
 40
3.5
 41
1.0
 50
0.0
 71
     0
 42
3.5
  3
romans
  4

  0
STYLE
  5
46B
330
3
100
AcDbSymbolTableRecord
100
AcDbTextStyleTableRecord
  2
NORM
 70
     0
 40
0.0
 41
1.0
 50
0.0
 71
     0
 42
40.0
  3
SIMPLEX
  4

  0
STYLE
  5
46C
330
3
100
AcDbSymbolTableRecord
100
AcDbTextStyleTableRecord
  2
Stil1
 70
     0
 40
0.0
 41
1.0
 50
0.0
 71
     0
 42
2.5
  3
romans.shx
  4
bigfont.shx
  0
STYLE
  5
65F
330
3
100
AcDbSymbolTableRecord
100
AcDbTextStyleTableRecord
  2
ISO Proportional
 70
     0
 40
0.0
 41
1.0
 50
0.0
 71
     0
 42
2.5
  3
isocp.shx
  4

  0
ENDTAB
  0
TABLE
  2
VIEW
  5
6
330
0
100
AcDbSymbolTable
 70
     0
  0
ENDTAB
  0
TABLE
  2
UCS
  5
7
330
0
100
AcDbSymbolTable
 70
     0
  0
ENDTAB
  0
TABLE
  2
APPID
  5
9
330
0
100
AcDbSymbolTable
 70
     7
  0
APPID
  5
12
330
9
100
AcDbSymbolTableRecord
100
AcDbRegAppTableRecord
  2
ACAD
 70
     0
  0
APPID
  5
46E
330
9
100
AcDbSymbolTableRecord
100
AcDbRegAppTableRecord
  2
AcAecLayerStandard
 70
     0
  0
APPID
  5
662
330
9
100
AcDbSymbolTableRecord
100
AcDbRegAppTableRecord
  2
ACAD_DSTYLE_DIMEXT_LENGTH
 70
     0
  0
APPID
  5
663
330
9
100
AcDbSymbolTableRecord
100
AcDbRegAppTableRecord
  2
ACAD_DSTYLE_DIMEXT_ENABLED
 70
     0
  0
APPID
  5
664
330
9
100
AcDbSymbolTableRecord
100
AcDbRegAppTableRecord
  2
ACAD_DSTYLE_DIMJOGGED_JOGANGLE_SYMBOL
 70
     0
  0
APPID
  5
665
330
9
100
AcDbSymbolTableRecord
100
AcDbRegAppTableRecord
  2
ACAD_DSTYLE_DIMARC_LENGTH_SYMBOL
 70
     0
  0
APPID
  5
666
330
9
100
AcDbSymbolTableRecord
100
AcDbRegAppTableRecord
  2
ACAD_PSEXT
 70
     0
  0
ENDTAB
  0
TABLE
  2
DIMSTYLE
  5
A
330
0
100
AcDbSymbolTable
 70
     4
100
AcDbDimStyleTable
  0
DIMSTYLE
105
2A4
330
A
100
AcDbSymbolTableRecord
100
AcDbDimStyleTableRecord
  2
Standard
 70
     0
178
     0
340
11
  0
DIMSTYLE
105
46D
330
A
100
AcDbSymbolTableRecord
100
AcDbDimStyleTableRecord
  2
Stil 3
 70
     0
 41
20.0
 42
0.0
 43
0.0
 44
10.0
 73
     0
 74
     0
 77
     1
 78
     8
 79
     2
140
20.0
141
2.5
143
0.03937007874016
147
10.0
171
     3
172
     1
176
     7
177
     7
271
     2
178
   256
179
     1
271
     2
272
     2
274
     3
278
    44
283
     0
284
     8
288
     1
340
46C
371
    25
372
    25
  0
DIMSTYLE
105
660
330
A
100
AcDbSymbolTableRecord
100
AcDbDimStyleTableRecord
  2
Stil 4
 70
     0
 41
10.0
 42
0.0
 43
0.0
 44
8.0
 73
     0
 74
     0
 77
     1
 78
     8
 79
     2
140
10.0
141
2.5
143
0.03937007874016
147
5.0
171
     3
172
     1
176
     7
177
     7
271
     2
178
   256
179
     1
271
     2
272
     2
274
     3
278
    44
283
     0
284
     8
288
     1
340
46B
371
    25
372
    25
  0
DIMSTYLE
105
661
330
A
100
AcDbSymbolTableRecord
100
AcDbDimStyleTableRecord
  2
Stil 5
 70
     0
 41
3.0
 42
0.0
 43
0.0
 44
2.0
 73
     0
 74
     0
 77
     1
 78
     8
 79
     2
140
3.0
141
2.5
143
0.03937007874016
147
2.0
171
     3
172
     1
176
     7
177
     7
271
     2
178
   256
179
     1
271
     2
272
     2
274
     3
278
    44
283
     0
284
     8
288
     1
340
46B
371
    25
372
    25
  0
ENDTAB
  0
TABLE
  2
BLOCK_RECORD
  5
1
330
0
100
AcDbSymbolTable
 70
    45
  0
BLOCK_RECORD
  5
1E
330
1
100
AcDbSymbolTableRecord
100
AcDbBlockTableRecord
  2
*Model_Space
340
21
  0
BLOCK_RECORD
  5
1A
330
1
100
AcDbSymbolTableRecord
100
AcDbBlockTableRecord
  2
*Paper_Space
340
1D
  0
BLOCK_RECORD
  5
61
330
1
100
AcDbSymbolTableRecord
100
AcDbBlockTableRecord
  2
U0004
340
0
102
{BLKREFS
331
95
102
}
  0
BLOCK_RECORD
  5
65
330
1
100
AcDbSymbolTableRecord
100
AcDbBlockTableRecord
  2
U0008
340
0
102
{BLKREFS
331
7F
102
}
  0
BLOCK_RECORD
  5
69
330
1
100
AcDbSymbolTableRecord
100
AcDbBlockTableRecord
  2
U0013
340
0
102
{BLKREFS
331
6F
102
}
  0
BLOCK_RECORD
  5
6D
330
1
100
AcDbSymbolTableRecord
100
AcDbBlockTableRecord
  2
U0012
340
0
102
{BLKREFS
331
73
102
}
  0
BLOCK_RECORD
  5
71
330
1
100
AcDbSymbolTableRecord
100
AcDbBlockTableRecord
  2
U0011
340
0
102
{BLKREFS
331
77
102
}
  0
BLOCK_RECORD
  5
75
330
1
100
AcDbSymbolTableRecord
100
AcDbBlockTableRecord
  2
U0010
340
0
102
{BLKREFS
331
7B
102
}
  0
BLOCK_RECORD
  5
79
330
1
100
AcDbSymbolTableRecord
100
AcDbBlockTableRecord
  2
U0009
340
0
102
{BLKREFS
331
80
102
}
  0
BLOCK_RECORD
  5
7D
330
1
100
AcDbSymbolTableRecord
100
AcDbBlockTableRecord
  2
U0007
340
0
102
{BLKREFS
331
84
102
}
  0
BLOCK_RECORD
  5
82
330
1
100
AcDbSymbolTableRecord
100
AcDbBlockTableRecord
  2
U0006
340
0
102
{BLKREFS
331
8F
102
}
  0
BLOCK_RECORD
  5
86
330
1
100
AcDbSymbolTableRecord
100
AcDbBlockTableRecord
  2
U0005
340
0
102
{BLKREFS
331
96
102
}
  0
BLOCK_RECORD
  5
91
330
1
100
AcDbSymbolTableRecord
100
AcDbBlockTableRecord
  2
U0003
340
0
102
{BLKREFS
331
1AB
102
}
  0
BLOCK_RECORD
  5
99
330
1
100
AcDbSymbolTableRecord
100
AcDbBlockTableRecord
  2
U0016
340
0
102
{BLKREFS
331
B8
102
}
  0
BLOCK_RECORD
  5
A0
330
1
100
AcDbSymbolTableRecord
100
AcDbBlockTableRecord
  2
U0017
340
0
102
{BLKREFS
331
B9
102
}
  0
BLOCK_RECORD
  5
A7
330
1
100
AcDbSymbolTableRecord
100
AcDbBlockTableRecord
  2
U0018
340
0
102
{BLKREFS
331
BA
102
}
  0
BLOCK_RECORD
  5
AE
330
1
100
AcDbSymbolTableRecord
100
AcDbBlockTableRecord
  2
U0019
340
0
102
{BLKREFS
331
BB
102
}
  0
BLOCK_RECORD
  5
B5
330
1
100
AcDbSymbolTableRecord
100
AcDbBlockTableRecord
  2
U0015
340
0
102
{BLKREFS
331
C1
102
}
  0
BLOCK_RECORD
  5
BF
330
1
100
AcDbSymbolTableRecord
100
AcDbBlockTableRecord
  2
U0014
340
0
102
{BLKREFS
331
1AC
102
}
  0
BLOCK_RECORD
  5
C3
330
1
100
AcDbSymbolTableRecord
100
AcDbBlockTableRecord
  2
U0022
340
0
102
{BLKREFS
331
C9
102
}
  0
BLOCK_RECORD
  5
C7
330
1
100
AcDbSymbolTableRecord
100
AcDbBlockTableRecord
  2
U0021
340
0
102
{BLKREFS
331
D9
102
}
  0
BLOCK_RECORD
  5
CB
330
1
100
AcDbSymbolTableRecord
100
AcDbBlockTableRecord
  2
U0023
340
0
102
{BLKREFS
331
DC
102
}
  0
BLOCK_RECORD
  5
D1
330
1
100
AcDbSymbolTableRecord
100
AcDbBlockTableRecord
  2
U0024
340
0
102
{BLKREFS
331
DD
102
}
  0
BLOCK_RECORD
  5
D7
330
1
100
AcDbSymbolTableRecord
100
AcDbBlockTableRecord
  2
U0020
340
0
102
{BLKREFS
331
1AE
102
}
  0
BLOCK_RECORD
  5
E9
330
1
100
AcDbSymbolTableRecord
100
AcDbBlockTableRecord
  2
U0028
340
0
102
{BLKREFS
331
EF
102
}
  0
BLOCK_RECORD
  5
ED
330
1
100
AcDbSymbolTableRecord
100
AcDbBlockTableRecord
  2
U0027
340
0
102
{BLKREFS
331
FE
102
}
  0
BLOCK_RECORD
  5
F1
330
1
100
AcDbSymbolTableRecord
100
AcDbBlockTableRecord
  2
U0029
340
0
102
{BLKREFS
331
101
102
}
  0
BLOCK_RECORD
  5
F7
330
1
100
AcDbSymbolTableRecord
100
AcDbBlockTableRecord
  2
U0030
340
0
102
{BLKREFS
331
102
102
}
  0
BLOCK_RECORD
  5
FC
330
1
100
AcDbSymbolTableRecord
100
AcDbBlockTableRecord
  2
U0026
340
0
102
{BLKREFS
331
111
102
}
  0
BLOCK_RECORD
  5
10F
330
1
100
AcDbSymbolTableRecord
100
AcDbBlockTableRecord
  2
U0025
340
0
102
{BLKREFS
331
1AF
102
}
  0
BLOCK_RECORD
  5
113
330
1
100
AcDbSymbolTableRecord
100
AcDbBlockTableRecord
  2
U0032
340
0
102
{BLKREFS
331
11D
102
}
  0
BLOCK_RECORD
  5
117
330
1
100
AcDbSymbolTableRecord
100
AcDbBlockTableRecord
  2
U0033
340
0
102
{BLKREFS
331
11E
102
}
  0
BLOCK_RECORD
  5
11B
330
1
100
AcDbSymbolTableRecord
100
AcDbBlockTableRecord
  2
U0031
340
0
102
{BLKREFS
331
1B0
102
}
  0
BLOCK_RECORD
  5
12A
330
1
100
AcDbSymbolTableRecord
100
AcDbBlockTableRecord
  2
U0036
340
0
102
{BLKREFS
331
130
102
}
  0
BLOCK_RECORD
  5
12E
330
1
100
AcDbSymbolTableRecord
100
AcDbBlockTableRecord
  2
U0035
340
0
102
{BLKREFS
331
14D
102
}
  0
BLOCK_RECORD
  5
132
330
1
100
AcDbSymbolTableRecord
100
AcDbBlockTableRecord
  2
U0037
340
0
102
{BLKREFS
331
150
102
}
  0
BLOCK_RECORD
  5
13B
330
1
100
AcDbSymbolTableRecord
100
AcDbBlockTableRecord
  2
U0038
340
0
102
{BLKREFS
331
151
102
}
  0
BLOCK_RECORD
  5
146
330
1
100
AcDbSymbolTableRecord
100
AcDbBlockTableRecord
  2
U0039
340
0
102
{BLKREFS
331
174
102
}
  0
BLOCK_RECORD
  5
14A
330
1
100
AcDbSymbolTableRecord
100
AcDbBlockTableRecord
  2
U0034
340
0
102
{BLKREFS
331
1B1
102
}
  0
BLOCK_RECORD
  5
178
330
1
100
AcDbSymbolTableRecord
100
AcDbBlockTableRecord
  2
U0040
340
0
102
{BLKREFS
331
1B2
102
}
  0
BLOCK_RECORD
  5
17F
330
1
100
AcDbSymbolTableRecord
100
AcDbBlockTableRecord
  2
U0041
340
0
102
{BLKREFS
331
1C6
102
}
  0
BLOCK_RECORD
  5
187
330
1
100
AcDbSymbolTableRecord
100
AcDbBlockTableRecord
  2
U0042
340
0
102
{BLKREFS
331
1CA
102
}
  0
BLOCK_RECORD
  5
196
330
1
100
AcDbSymbolTableRecord
100
AcDbBlockTableRecord
  2
U0043
340
0
102
{BLKREFS
331
1CB
102
}
  0
BLOCK_RECORD
  5
1A0
330
1
100
AcDbSymbolTableRecord
100
AcDbBlockTableRecord
  2
U0045
340
0
102
{BLKREFS
331
1A6
102
}
  0
BLOCK_RECORD
  5
1A4
330
1
100
AcDbSymbolTableRecord
100
AcDbBlockTableRecord
  2
U0044
340
0
102
{BLKREFS
331
1CD
102
}
  0
BLOCK_RECORD
  5
1A8
330
1
100
AcDbSymbolTableRecord
100
AcDbBlockTableRecord
  2
U0002
340
0
102
{BLKREFS
331
1D1
102
}
  0
BLOCK_RECORD
  5
1CF
330
1
100
AcDbSymbolTableRecord
100
AcDbBlockTableRecord
  2
U0001
340
0
  0
ENDTAB
  0
ENDSEC
  0
SECTION
  2
BLOCKS
  0
BLOCK
  5
1F
330
1E
100
AcDbEntity
  8
0
100
AcDbBlockBegin
  2
*Model_Space
 70
     0
 10
0.0
 20
0.0
 30
0.0
  3
*Model_Space
  1
*Model_Space
  0
ENDBLK
  5
20
330
1E
100
AcDbEntity
  8
0
100
AcDbBlockEnd
  0
BLOCK
  5
1B
330
1A
100
AcDbEntity
 67
     1
  8
0
100
AcDbBlockBegin
  2
*Paper_Space
 70
     0
 10
0.0
 20
0.0
 30
0.0
  3
*Paper_Space
  1
*Paper_Space
  0
ENDBLK
  5
1C
330
1A
100
AcDbEntity
 67
     1
  8
0
100
AcDbBlockEnd
  0
BLOCK
  5
62
330
61
100
AcDbEntity
  8
0
100
AcDbBlockBegin
  2
U0004
 70
     0
 10
0.0
 20
0.0
 30
0.0
  3
U0004
  1
U0004
  0
LINE
  5
63
330
61
100
AcDbEntity
  8
1
  6
AUSGEZOGEN
 62
     3
100
AcDbLine
 10
47.503994
 20
282.0836509999999
 30
0.0
 11
47.503994
 21
276.18323
 31
0.0
  0
ENDBLK
  5
64
330
61
100
AcDbEntity
  8
0
100
AcDbBlockEnd
  0
BLOCK
  5
66
330
65
100
AcDbEntity
  8
0
100
AcDbBlockBegin
  2
U0008
 70
     0
 10
0.0
 20
0.0
 30
0.0
  3
U0008
  1
U0008
  0
LINE
  5
67
330
65
100
AcDbEntity
  8
1
  6
AUSGEZOGEN
 62
     1
100
AcDbLine
 10
65.503957
 20
305.682285
 30
0.0
 11
68.003957
 21
305.682285
 31
0.0
  0
ENDBLK
  5
68
330
65
100
AcDbEntity
  8
0
100
AcDbBlockEnd
  0
BLOCK
  5
6A
330
69
100
AcDbEntity
  8
0
100
AcDbBlockBegin
  2
U0013
 70
     0
 10
0.0
 20
0.0
 30
0.0
  3
U0013
  1
U0013
  0
LINE
  5
6B
330
69
100
AcDbEntity
  8
1
  6
AUSGEZOGEN
 62
     1
100
AcDbLine
 10
65.503957
 20
304.1823459999999
 30
0.0
 11
62.503774
 21
304.1823459999999
 31
0.0
  0
ENDBLK
  5
6C
330
69
100
AcDbEntity
  8
0
100
AcDbBlockEnd
  0
BLOCK
  5
6E
330
6D
100
AcDbEntity
  8
0
100
AcDbBlockBegin
  2
U0012
 70
     0
 10
0.0
 20
0.0
 30
0.0
  3
U0012
  1
U0012
  0
INSERT
  5
6F
330
6D
100
AcDbEntity
  8
0
100
AcDbBlockReference
  2
U0013
 10
0.0
 20
0.0
 30
0.0
  0
ENDBLK
  5
70
330
6D
100
AcDbEntity
  8
0
100
AcDbBlockEnd
  0
BLOCK
  5
72
330
71
100
AcDbEntity
  8
0
100
AcDbBlockBegin
  2
U0011
 70
     0
 10
0.0
 20
0.0
 30
0.0
  3
U0011
  1
U0011
  0
INSERT
  5
73
330
71
100
AcDbEntity
  8
0
100
AcDbBlockReference
  2
U0012
 10
0.0
 20
0.0
 30
0.0
  0
ENDBLK
  5
74
330
71
100
AcDbEntity
  8
0
100
AcDbBlockEnd
  0
BLOCK
  5
76
330
75
100
AcDbEntity
  8
0
100
AcDbBlockBegin
  2
U0010
 70
     0
 10
0.0
 20
0.0
 30
0.0
  3
U0010
  1
U0010
  0
INSERT
  5
77
330
75
100
AcDbEntity
  8
0
100
AcDbBlockReference
  2
U0011
 10
0.0
 20
0.0
 30
0.0
  0
ENDBLK
  5
78
330
75
100
AcDbEntity
  8
0
100
AcDbBlockEnd
  0
BLOCK
  5
7A
330
79
100
AcDbEntity
  8
0
100
AcDbBlockBegin
  2
U0009
 70
     0
 10
0.0
 20
0.0
 30
0.0
  3
U0009
  1
U0009
  0
INSERT
  5
7B
330
79
100
AcDbEntity
  8
0
100
AcDbBlockReference
  2
U0010
 10
0.0
 20
0.0
 30
0.0
  0
ENDBLK
  5
7C
330
79
100
AcDbEntity
  8
0
100
AcDbBlockEnd
  0
BLOCK
  5
7E
330
7D
100
AcDbEntity
  8
0
100
AcDbBlockBegin
  2
U0007
 70
     0
 10
0.0
 20
0.0
 30
0.0
  3
U0007
  1
U0007
  0
INSERT
  5
7F
330
7D
100
AcDbEntity
  8
0
100
AcDbBlockReference
  2
U0008
 10
0.0
 20
0.0
 30
0.0
  0
INSERT
  5
80
330
7D
100
AcDbEntity
  8
0
100
AcDbBlockReference
  2
U0009
 10
0.0
 20
0.0
 30
0.0
  0
ENDBLK
  5
81
330
7D
100
AcDbEntity
  8
0
100
AcDbBlockEnd
  0
BLOCK
  5
83
330
82
100
AcDbEntity
  8
0
100
AcDbBlockBegin
  2
U0006
 70
     0
 10
0.0
 20
0.0
 30
0.0
  3
U0006
  1
U0006
  0
INSERT
  5
84
330
82
100
AcDbEntity
  8
0
100
AcDbBlockReference
  2
U0007
 10
0.0
 20
0.0
 30
0.0
  0
ENDBLK
  5
85
330
82
100
AcDbEntity
  8
0
100
AcDbBlockEnd
  0
BLOCK
  5
87
330
86
100
AcDbEntity
  8
0
100
AcDbBlockBegin
  2
U0005
 70
     0
 10
0.0
 20
0.0
 30
0.0
  3
U0005
  1
U0005
  0
LINE
  5
88
330
86
100
AcDbEntity
  8
1
  6
AUSGEZOGEN
 62
     1
100
AcDbLine
 10
59.30400600000001
 20
305.682285
 30
0.0
 11
59.30400600000001
 21
304.398257
 31
0.0
  0
ARC
  5
89
330
86
100
AcDbEntity
  8
1
  6
AUSGEZOGEN
 62
     1
100
AcDbCircle
 10
58.50383499999999
 20
306.28226
 30
0.0
 40
0.9999079999999999
100
AcDbArc
 50
270.0
 51
323.137095
  0
ARC
  5
8A
330
86
100
AcDbEntity
  8
1
  6
AUSGEZOGEN
 62
     1
100
AcDbCircle
 10
54.004018
 20
304.2822909999999
 30
0.0
 40
1.000061
100
AcDbArc
 50
90.0
 51
180.0
  0
LINE
  5
8B
330
86
100
AcDbEntity
  8
1
  6
AUSGEZOGEN
 62
     1
100
AcDbLine
 10
58.50383499999999
 20
305.282352
 30
0.0
 11
54.004018
 21
305.282352
 31
0.0
  0
LINE
  5
8C
330
86
100
AcDbEntity
  8
1
  6
AUSGEZOGEN
 62
     1
100
AcDbLine
 10
62.503774
 20
305.682285
 30
0.0
 11
59.30400600000001
 21
305.682285
 31
0.0
  0
LINE
  5
8D
330
86
100
AcDbEntity
  8
1
  6
AUSGEZOGEN
 62
     1
100
AcDbLine
 10
62.503774
 20
304.398257
 30
0.0
 11
59.30400600000001
 21
304.398257
 31
0.0
  0
LINE
  5
8E
330
86
100
AcDbEntity
  8
1
  6
AUSGEZOGEN
 62
     1
100
AcDbLine
 10
68.003957
 20
304.398257
 30
0.0
 11
65.503957
 21
304.398257
 31
0.0
  0
INSERT
  5
8F
330
86
100
AcDbEntity
  8
0
100
AcDbBlockReference
  2
U0006
 10
0.0
 20
0.0
 30
0.0
  0
ENDBLK
  5
90
330
86
100
AcDbEntity
  8
0
100
AcDbBlockEnd
  0
BLOCK
  5
92
330
91
100
AcDbEntity
  8
0
100
AcDbBlockBegin
  2
U0003
 70
     0
 10
0.0
 20
0.0
 30
0.0
  3
U0003
  1
U0003
  0
LINE
  5
93
330
91
100
AcDbEntity
  8
1
  6
AUSGEZOGEN
 62
     1
100
AcDbLine
 10
68.003957
 20
301.182773
 30
0.0
 11
68.003957
 21
305.682285
 31
0.0
  0
LINE
  5
94
330
91
100
AcDbEntity
  8
1
  6
AUSGEZOGEN
 62
     1
100
AcDbLine
 10
65.503957
 20
305.682285
 30
0.0
 11
65.503957
 21
301.182773
 31
0.0
  0
INSERT
  5
95
330
91
100
AcDbEntity
  8
0
100
AcDbBlockReference
  2
U0004
 10
0.0
 20
0.0
 30
0.0
  0
INSERT
  5
96
330
91
100
AcDbEntity
  8
0
100
AcDbBlockReference
  2
U0005
 10
0.0
 20
0.0
 30
0.0
  0
LINE
  5
97
330
91
100
AcDbEntity
  8
1
  6
AUSGEZOGEN
 62
     1
100
AcDbLine
 10
53.00395699999999
 20
304.2822909999999
 30
0.0
 11
53.00395699999999
 21
301.1829
 31
0.0
  0
ENDBLK
  5
98
330
91
100
AcDbEntity
  8
0
100
AcDbBlockEnd
  0
BLOCK
  5
9A
330
99
100
AcDbEntity
  8
0
100
AcDbBlockBegin
  2
U0016
 70
     0
 10
0.0
 20
0.0
 30
0.0
  3
U0016
  1
U0016
  0
ARC
  5
9B
330
99
100
AcDbEntity
  8
1
  6
AUSGEZOGEN
 62
     1
100
AcDbCircle
 10
409.504511
 20
293.682811
 30
0.0
 40
13.249978
100
AcDbArc
 50
175.0868759999999
 51
180.0
  0
LINE
  5
9C
330
99
100
AcDbEntity
  8
1
  6
AUSGEZOGEN
 62
     1
100
AcDbLine
 10
401.9211879999999
 20
304.548289
 30
0.0
 11
396.303217
 21
294.817607
 31
0.0
  0
ARC
  5
9D
330
99
100
AcDbEntity
  8
1
  6
AUSGEZOGEN
 62
     1
100
AcDbCircle
 10
409.504511
 20
293.682811
 30
0.0
 40
13.250085
100
AcDbArc
 50
115.087166
 51
124.9122699999999
  0
LINE
  5
9E
330
99
100
AcDbEntity
  8
1
  6
AUSGEZOGEN
 62
     1
100
AcDbLine
 10
403.88652
 20
305.6829329999999
 30
0.0
 11
409.5045009999999
 21
305.6829329999999
 31
0.0
  0
ENDBLK
  5
9F
330
99
100
AcDbEntity
  8
0
100
AcDbBlockEnd
  0
BLOCK
  5
A1
330
A0
100
AcDbEntity
  8
0
100
AcDbBlockBegin
  2
U0017
 70
     0
 10
0.0
 20
0.0
 30
0.0
  3
U0017
  1
U0017
  0
ARC
  5
A2
330
A0
100
AcDbEntity
  8
1
  6
AUSGEZOGEN
 62
     1
100
AcDbCircle
 10
409.504511
 20
293.682811
 30
0.0
 40
13.249965
100
AcDbArc
 50
355.087534
 51
0.0
  0
LINE
  5
A3
330
A0
100
AcDbEntity
  8
1
  6
AUSGEZOGEN
 62
     1
100
AcDbLine
 10
417.087824
 20
282.817638
 30
0.0
 11
422.705805
 21
292.5481669999999
 31
0.0
  0
ARC
  5
A4
330
A0
100
AcDbEntity
  8
1
  6
AUSGEZOGEN
 62
     1
100
AcDbCircle
 10
409.504511
 20
293.682811
 30
0.0
 40
13.249804
100
AcDbArc
 50
295.0876880000001
 51
304.912991
  0
LINE
  5
A5
330
A0
100
AcDbEntity
  8
1
  6
AUSGEZOGEN
 62
     1
100
AcDbLine
 10
415.1224919999999
 20
281.682994
 30
0.0
 11
409.504511
 21
281.682994
 31
0.0
  0
ENDBLK
  5
A6
330
A0
100
AcDbEntity
  8
0
100
AcDbBlockEnd
  0
BLOCK
  5
A8
330
A7
100
AcDbEntity
  8
0
100
AcDbBlockBegin
  2
U0018
 70
     0
 10
0.0
 20
0.0
 30
0.0
  3
U0018
  1
U0018
  0
ARC
  5
A9
330
A7
100
AcDbEntity
  8
1
  6
AUSGEZOGEN
 62
     1
100
AcDbCircle
 10
409.504511
 20
293.682811
 30
0.0
 40
13.25012199999999
100
AcDbArc
 50
180.0
 51
184.912466
  0
LINE
  5
AA
330
A7
100
AcDbEntity
  8
1
  6
AUSGEZOGEN
 62
     1
100
AcDbLine
 10
401.9211979999999
 20
282.817638
 30
0.0
 11
396.303217
 21
292.5481669999999
 31
0.0
  0
ARC
  5
AB
330
A7
100
AcDbEntity
  8
1
  6
AUSGEZOGEN
 62
     1
100
AcDbCircle
 10
409.504511
 20
293.682811
 30
0.0
 40
13.249854
100
AcDbArc
 50
235.0870089999999
 51
244.912312
  0
LINE
  5
AC
330
A7
100
AcDbEntity
  8
1
  6
AUSGEZOGEN
 62
     1
100
AcDbLine
 10
403.88653
 20
281.682994
 30
0.0
 11
409.504511
 21
281.682994
 31
0.0
  0
ENDBLK
  5
AD
330
A7
100
AcDbEntity
  8
0
100
AcDbBlockEnd
  0
BLOCK
  5
AF
330
AE
100
AcDbEntity
  8
0
100
AcDbBlockBegin
  2
U0019
 70
     0
 10
0.0
 20
0.0
 30
0.0
  3
U0019
  1
U0019
  0
ARC
  5
B0
330
AE
100
AcDbEntity
  8
1
  6
AUSGEZOGEN
 62
     1
100
AcDbCircle
 10
409.504511
 20
293.682811
 30
0.0
 40
13.25012199999999
100
AcDbArc
 50
0.0
 51
4.913123
  0
LINE
  5
B1
330
AE
100
AcDbEntity
  8
1
  6
AUSGEZOGEN
 62
     1
100
AcDbLine
 10
417.087814
 20
304.548289
 30
0.0
 11
422.705805
 21
294.817607
 31
0.0
  0
ARC
  5
B2
330
AE
100
AcDbEntity
  8
1
  6
AUSGEZOGEN
 62
     1
100
AcDbCircle
 10
409.504511
 20
293.682811
 30
0.0
 40
13.25009899999999
100
AcDbArc
 50
55.08779800000001
 51
64.91290799999999
  0
LINE
  5
B3
330
AE
100
AcDbEntity
  8
1
  6
AUSGEZOGEN
 62
     1
100
AcDbLine
 10
415.122482
 20
305.6829329999999
 30
0.0
 11
409.5045009999999
 21
305.6829329999999
 31
0.0
  0
ENDBLK
  5
B4
330
AE
100
AcDbEntity
  8
0
100
AcDbBlockEnd
  0
BLOCK
  5
B6
330
B5
100
AcDbEntity
  8
0
100
AcDbBlockBegin
  2
U0015
 70
     0
 10
0.0
 20
0.0
 30
0.0
  3
U0015
  1
U0015
  0
LINE
  5
B7
330
B5
100
AcDbEntity
  8
1
  6
STRICHPUNKT
 62
     1
100
AcDbLine
 10
429.504511
 20
293.682811
 30
0.0
 11
389.5045109999999
 21
293.682811
 31
0.0
  0
INSERT
  5
B8
330
B5
100
AcDbEntity
  8
0
100
AcDbBlockReference
  2
U0016
 10
0.0
 20
0.0
 30
0.0
  0
INSERT
  5
B9
330
B5
100
AcDbEntity
  8
0
100
AcDbBlockReference
  2
U0017
 10
0.0
 20
0.0
 30
0.0
  0
INSERT
  5
BA
330
B5
100
AcDbEntity
  8
0
100
AcDbBlockReference
  2
U0018
 10
0.0
 20
0.0
 30
0.0
  0
INSERT
  5
BB
330
B5
100
AcDbEntity
  8
0
100
AcDbBlockReference
  2
U0019
 10
0.0
 20
0.0
 30
0.0
  0
CIRCLE
  5
BC
330
B5
100
AcDbEntity
  8
1
  6
AUSGEZOGEN
 62
     1
100
AcDbCircle
 10
409.504511
 20
293.682811
 30
0.0
 40
11.599998
  0
CIRCLE
  5
BD
330
B5
100
AcDbEntity
  8
1
  6
AUSGEZOGEN
 62
     1
100
AcDbCircle
 10
409.504511
 20
293.682811
 30
0.0
 40
8.0
  0
ENDBLK
  5
BE
330
B5
100
AcDbEntity
  8
0
100
AcDbBlockEnd
  0
BLOCK
  5
C0
330
BF
100
AcDbEntity
  8
0
100
AcDbBlockBegin
  2
U0014
 70
     0
 10
0.0
 20
0.0
 30
0.0
  3
U0014
  1
U0014
  0
INSERT
  5
C1
330
BF
100
AcDbEntity
  8
0
100
AcDbBlockReference
  2
U0015
 10
0.0
 20
0.0
 30
0.0
  0
ENDBLK
  5
C2
330
BF
100
AcDbEntity
  8
0
100
AcDbBlockEnd
  0
BLOCK
  5
C4
330
C3
100
AcDbEntity
  8
0
100
AcDbBlockBegin
  2
U0022
 70
     0
 10
0.0
 20
0.0
 30
0.0
  3
U0022
  1
U0022
  0
LINE
  5
C5
330
C3
100
AcDbEntity
  8
1
  6
AUSGEZOGEN
 62
     3
100
AcDbLine
 10
1.003895999999999
 20
144.202493
 30
0.0
 11
1.003895999999999
 21
137.7025539999999
 31
0.0
  0
ENDBLK
  5
C6
330
C3
100
AcDbEntity
  8
0
100
AcDbBlockEnd
  0
BLOCK
  5
C8
330
C7
100
AcDbEntity
  8
0
100
AcDbBlockBegin
  2
U0021
 70
     0
 10
0.0
 20
0.0
 30
0.0
  3
U0021
  1
U0021
  0
INSERT
  5
C9
330
C7
100
AcDbEntity
  8
0
100
AcDbBlockReference
  2
U0022
 10
0.0
 20
0.0
 30
0.0
  0
ENDBLK
  5
CA
330
C7
100
AcDbEntity
  8
0
100
AcDbBlockEnd
  0
BLOCK
  5
CC
330
CB
100
AcDbEntity
  8
0
100
AcDbBlockBegin
  2
U0023
 70
     0
 10
0.0
 20
0.0
 30
0.0
  3
U0023
  1
U0023
  0
ARC
  5
CD
330
CB
100
AcDbEntity
  8
1
  6
AUSGEZOGEN
 62
     3
100
AcDbCircle
 10
6.003896
 20
146.3861789999999
 30
0.0
 40
5.000172
100
AcDbArc
 50
153.420876
 51
180.0000019999999
  0
ARC
  5
CE
330
CB
100
AcDbEntity
  8
1
  6
AUSGEZOGEN
 62
     3
100
AcDbCircle
 10
6.003896
 20
146.3861789999999
 30
0.0
 40
5.000276999999999
100
AcDbArc
 50
92.36105099999999
 51
153.420876
  0
LINE
  5
CF
330
CB
100
AcDbEntity
  8
1
  6
AUSGEZOGEN
 62
     3
100
AcDbLine
 10
67.003896
 20
152.182995
 30
0.0
 11
5.797901999999999
 21
151.382211
 31
0.0
  0
ENDBLK
  5
D0
330
CB
100
AcDbEntity
  8
0
100
AcDbBlockEnd
  0
BLOCK
  5
D2
330
D1
100
AcDbEntity
  8
0
100
AcDbBlockBegin
  2
U0024
 70
     0
 10
0.0
 20
0.0
 30
0.0
  3
U0024
  1
U0024
  0
ARC
  5
D3
330
D1
100
AcDbEntity
  8
1
  6
AUSGEZOGEN
 62
     3
100
AcDbCircle
 10
246.003774
 20
146.386185
 30
0.0
 40
5.0
100
AcDbArc
 50
0.000002
 51
87.64244399999997
  0
LINE
  5
D4
330
D1
100
AcDbEntity
  8
1
  6
AUSGEZOGEN
 62
     3
100
AcDbLine
 10
186.353261
 20
152.158279
 30
0.0
 11
246.209462
 21
151.382218
 31
0.0
  0
LINE
  5
D5
330
D1
100
AcDbEntity
  8
1
  6
AUSGEZOGEN
 62
     3
100
AcDbLine
 10
185.0037739999999
 20
152.1829979999999
 30
0.0
 11
186.353261
 21
152.158279
 31
0.0
  0
ENDBLK
  5
D6
330
D1
100
AcDbEntity
  8
0
100
AcDbBlockEnd
  0
BLOCK
  5
D8
330
D7
100
AcDbEntity
  8
0
100
AcDbBlockBegin
  2
U0020
 70
     0
 10
0.0
 20
0.0
 30
0.0
  3
U0020
  1
U0020
  0
INSERT
  5
D9
330
D7
100
AcDbEntity
  8
0
100
AcDbBlockReference
  2
U0021
 10
0.0
 20
0.0
 30
0.0
  0
LINE
  5
DA
330
D7
100
AcDbEntity
  8
1
  6
AUSGEZOGEN
 62
     3
100
AcDbLine
 10
1.003895999999999
 20
146.3861789999999
 30
0.0
 11
1.003895999999999
 21
144.202493
 31
0.0
  0
LINE
  5
DB
330
D7
100
AcDbEntity
  8
1
  6
AUSGEZOGEN
 62
     3
100
AcDbLine
 10
1.003895999999999
 20
135.952525
 30
0.0
 11
1.003895999999999
 21
137.7025539999999
 31
0.0
  0
INSERT
  5
DC
330
D7
100
AcDbEntity
  8
0
100
AcDbBlockReference
  2
U0023
 10
0.0
 20
0.0
 30
0.0
  0
INSERT
  5
DD
330
D7
100
AcDbEntity
  8
0
100
AcDbBlockReference
  2
U0024
 10
0.0
 20
0.0
 30
0.0
  0
LINE
  5
DE
330
D7
100
AcDbEntity
  8
1
  6
AUSGEZOGEN
 62
     3
100
AcDbLine
 10
70.807912
 20
152.182995
 30
0.0
 11
67.003896
 21
152.182995
 31
0.0
  0
LINE
  5
DF
330
D7
100
AcDbEntity
  8
1
  6
AUSGEZOGEN
 62
     3
100
AcDbLine
 10
76.003835
 20
152.182995
 30
0.0
 11
70.807912
 21
152.182995
 31
0.0
  0
LINE
  5
E0
330
D7
100
AcDbEntity
  8
1
  6
AUSGEZOGEN
 62
     3
100
AcDbLine
 10
176.0041399999999
 20
152.1829979999999
 30
0.0
 11
185.0037739999999
 21
152.1829979999999
 31
0.0
  0
ARC
  5
E1
330
D7
100
AcDbEntity
  8
1
  6
AUSGEZOGEN
 62
     3
100
AcDbCircle
 10
93.00395700000001
 20
150.1828729999999
 30
0.0
 40
1.999816999999999
100
AcDbArc
 50
0.0
 51
90.0
  0
ARC
  5
E2
330
D7
100
AcDbEntity
  8
1
  6
AUSGEZOGEN
 62
     3
100
AcDbCircle
 10
159.004018
 20
150.182875
 30
0.0
 40
2.000122
100
AcDbArc
 50
90.0
 51
180.0
  0
ARC
  5
E3
330
D7
100
AcDbEntity
  8
1
  6
AUSGEZOGEN
 62
     3
100
AcDbCircle
 10
97.00389600000001
 20
149.1829649999999
 30
0.0
 40
2.000122
100
AcDbArc
 50
180.0
 51
270.0
  0
ARC
  5
E4
330
D7
100
AcDbEntity
  8
1
  6
AUSGEZOGEN
 62
     3
100
AcDbCircle
 10
155.003774
 20
149.1829669999999
 30
0.0
 40
1.999968999999999
100
AcDbArc
 50
270.0
 51
0.0
  0
LINE
  5
E5
330
D7
100
AcDbEntity
  8
1
  6
AUSGEZOGEN
 62
     3
100
AcDbLine
 10
155.003774
 20
147.1829969999999
 30
0.0
 11
97.00389600000001
 21
147.182995
 31
0.0
  0
LINE
  5
E6
330
D7
100
AcDbEntity
  8
1
  6
AUSGEZOGEN
 62
     3
100
AcDbLine
 10
76.003835
 20
152.182995
 30
0.0
 11
93.00395700000001
 21
152.182995
 31
0.0
  0
LINE
  5
E7
330
D7
100
AcDbEntity
  8
1
  6
AUSGEZOGEN
 62
     3
100
AcDbLine
 10
176.0041399999999
 20
152.1829979999999
 30
0.0
 11
159.004018
 21
152.1829969999999
 31
0.0
  0
ENDBLK
  5
E8
330
D7
100
AcDbEntity
  8
0
100
AcDbBlockEnd
  0
BLOCK
  5
EA
330
E9
100
AcDbEntity
  8
0
100
AcDbBlockBegin
  2
U0028
 70
     0
 10
0.0
 20
0.0
 30
0.0
  3
U0028
  1
U0028
  0
LINE
  5
EB
330
E9
100
AcDbEntity
  8
1
  6
AUSGEZOGEN
 62
     3
100
AcDbLine
 10
251.003774
 20
64.163291
 30
0.0
 11
251.003774
 21
70.66337299999999
 31
0.0
  0
ENDBLK
  5
EC
330
E9
100
AcDbEntity
  8
0
100
AcDbBlockEnd
  0
BLOCK
  5
EE
330
ED
100
AcDbEntity
  8
0
100
AcDbBlockBegin
  2
U0027
 70
     0
 10
0.0
 20
0.0
 30
0.0
  3
U0027
  1
U0027
  0
INSERT
  5
EF
330
ED
100
AcDbEntity
  8
0
100
AcDbBlockReference
  2
U0028
 10
0.0
 20
0.0
 30
0.0
  0
ENDBLK
  5
F0
330
ED
100
AcDbEntity
  8
0
100
AcDbBlockEnd
  0
BLOCK
  5
F2
330
F1
100
AcDbEntity
  8
0
100
AcDbBlockBegin
  2
U0029
 70
     0
 10
0.0
 20
0.0
 30
0.0
  3
U0029
  1
U0029
  0
ARC
  5
F3
330
F1
100
AcDbEntity
  8
1
  6
AUSGEZOGEN
 62
     3
100
AcDbCircle
 10
246.003774
 20
61.979606
 30
0.0
 40
4.999830999999999
100
AcDbArc
 50
333.4208729999999
 51
0.0
  0
ARC
  5
F4
330
F1
100
AcDbEntity
  8
1
  6
AUSGEZOGEN
 62
     3
100
AcDbCircle
 10
246.003774
 20
61.979606
 30
0.0
 40
5.000112999999999
100
AcDbArc
 50
272.3576279999999
 51
333.4208729999999
  0
LINE
  5
F5
330
F1
100
AcDbEntity
  8
1
  6
AUSGEZOGEN
 62
     3
100
AcDbLine
 10
185.0037739999999
 20
56.18294399999999
 30
0.0
 11
246.209462
 21
56.983726
 31
0.0
  0
ENDBLK
  5
F6
330
F1
100
AcDbEntity
  8
0
100
AcDbBlockEnd
  0
BLOCK
  5
F8
330
F7
100
AcDbEntity
  8
0
100
AcDbBlockBegin
  2
U0030
 70
     0
 10
0.0
 20
0.0
 30
0.0
  3
U0030
  1
U0030
  0
ARC
  5
F9
330
F7
100
AcDbEntity
  8
1
  6
AUSGEZOGEN
 62
     3
100
AcDbCircle
 10
6.003896
 20
61.979587
 30
0.0
 40
5.0
100
AcDbArc
 50
180.0
 51
267.6388779999999
  0
LINE
  5
FA
330
F7
100
AcDbEntity
  8
1
  6
AUSGEZOGEN
 62
     3
100
AcDbLine
 10
67.003896
 20
56.18292499999999
 30
0.0
 11
5.797901999999999
 21
56.98370699999999
 31
0.0
  0
ENDBLK
  5
FB
330
F7
100
AcDbEntity
  8
0
100
AcDbBlockEnd
  0
BLOCK
  5
FD
330
FC
100
AcDbEntity
  8
0
100
AcDbBlockBegin
  2
U0026
 70
     0
 10
0.0
 20
0.0
 30
0.0
  3
U0026
  1
U0026
  0
INSERT
  5
FE
330
FC
100
AcDbEntity
  8
0
100
AcDbBlockReference
  2
U0027
 10
0.0
 20
0.0
 30
0.0
  0
LINE
  5
FF
330
FC
100
AcDbEntity
  8
1
  6
AUSGEZOGEN
 62
     3
100
AcDbLine
 10
251.003774
 20
61.979606
 30
0.0
 11
251.003774
 21
64.163291
 31
0.0
  0
LINE
  5
100
330
FC
100
AcDbEntity
  8
1
  6
AUSGEZOGEN
 62
     3
100
AcDbLine
 10
251.003774
 20
72.413404
 30
0.0
 11
251.003774
 21
70.66337299999999
 31
0.0
  0
INSERT
  5
101
330
FC
100
AcDbEntity
  8
0
100
AcDbBlockReference
  2
U0029
 10
0.0
 20
0.0
 30
0.0
  0
INSERT
  5
102
330
FC
100
AcDbEntity
  8
0
100
AcDbBlockReference
  2
U0030
 10
0.0
 20
0.0
 30
0.0
  0
LINE
  5
103
330
FC
100
AcDbEntity
  8
1
  6
AUSGEZOGEN
 62
     3
100
AcDbLine
 10
176.0041399999999
 20
56.18294399999999
 30
0.0
 11
185.0037739999999
 21
56.18294399999999
 31
0.0
  0
LINE
  5
104
330
FC
100
AcDbEntity
  8
1
  6
AUSGEZOGEN
 62
     3
100
AcDbLine
 10
76.003835
 20
56.18292499999999
 30
0.0
 11
67.003896
 21
56.18292499999999
 31
0.0
  0
ARC
  5
105
330
FC
100
AcDbEntity
  8
1
  6
AUSGEZOGEN
 62
     3
100
AcDbCircle
 10
159.004018
 20
58.182914
 30
0.0
 40
2.000122
100
AcDbArc
 50
180.0
 51
270.0
  0
ARC
  5
106
330
FC
100
AcDbEntity
  8
1
  6
AUSGEZOGEN
 62
     3
100
AcDbCircle
 10
93.00395700000001
 20
58.18289499999999
 30
0.0
 40
1.999968999999999
100
AcDbArc
 50
270.0
 51
0.0
  0
ARC
  5
107
330
FC
100
AcDbEntity
  8
1
  6
AUSGEZOGEN
 62
     3
100
AcDbCircle
 10
155.003774
 20
59.182975
 30
0.0
 40
2.000122
100
AcDbArc
 50
0.0
 51
90.0
  0
ARC
  5
108
330
FC
100
AcDbEntity
  8
1
  6
AUSGEZOGEN
 62
     3
100
AcDbCircle
 10
97.00389600000001
 20
59.182956
 30
0.0
 40
1.999968999999999
100
AcDbArc
 50
90.0
 51
180.0
  0
LINE
  5
109
330
FC
100
AcDbEntity
  8
1
  6
AUSGEZOGEN
 62
     3
100
AcDbLine
 10
97.00389600000001
 20
61.18292499999999
 30
0.0
 11
155.003774
 21
61.18294399999999
 31
0.0
  0
LINE
  5
10A
330
FC
100
AcDbEntity
  8
1
  6
AUSGEZOGEN
 62
     3
100
AcDbLine
 10
157.0038959999999
 20
58.182914
 30
0.0
 11
157.0038959999999
 21
59.182975
 31
0.0
  0
LINE
  5
10B
330
FC
100
AcDbEntity
  8
1
  6
AUSGEZOGEN
 62
     3
100
AcDbLine
 10
176.0041399999999
 20
56.18294399999999
 30
0.0
 11
159.004018
 21
56.18294399999999
 31
0.0
  0
LINE
  5
10C
330
FC
100
AcDbEntity
  8
1
  6
AUSGEZOGEN
 62
     3
100
AcDbLine
 10
95.00377399999999
 20
58.18289499999999
 30
0.0
 11
95.00377399999999
 21
59.182956
 31
0.0
  0
LINE
  5
10D
330
FC
100
AcDbEntity
  8
1
  6
AUSGEZOGEN
 62
     3
100
AcDbLine
 10
76.003835
 20
56.18292499999999
 30
0.0
 11
93.00395700000001
 21
56.18292499999999
 31
0.0
  0
ENDBLK
  5
10E
330
FC
100
AcDbEntity
  8
0
100
AcDbBlockEnd
  0
BLOCK
  5
110
330
10F
100
AcDbEntity
  8
0
100
AcDbBlockBegin
  2
U0025
 70
     0
 10
0.0
 20
0.0
 30
0.0
  3
U0025
  1
U0025
  0
INSERT
  5
111
330
10F
100
AcDbEntity
  8
0
100
AcDbBlockReference
  2
U0026
 10
0.0
 20
0.0
 30
0.0
  0
ENDBLK
  5
112
330
10F
100
AcDbEntity
  8
0
100
AcDbBlockEnd
  0
BLOCK
  5
114
330
113
100
AcDbEntity
  8
0
100
AcDbBlockBegin
  2
U0032
 70
     0
 10
0.0
 20
0.0
 30
0.0
  3
U0032
  1
U0032
  0
LINE
  5
115
330
113
100
AcDbEntity
  8
1
  6
AUSGEZOGEN
 62
     3
100
AcDbLine
 10
251.003774
 20
72.413404
 30
0.0
 11
251.003774
 21
146.386186
 31
0.0
  0
ENDBLK
  5
116
330
113
100
AcDbEntity
  8
0
100
AcDbBlockEnd
  0
BLOCK
  5
118
330
117
100
AcDbEntity
  8
0
100
AcDbBlockBegin
  2
U0033
 70
     0
 10
0.0
 20
0.0
 30
0.0
  3
U0033
  1
U0033
  0
LINE
  5
119
330
117
100
AcDbEntity
  8
1
  6
AUSGEZOGEN
 62
     3
100
AcDbLine
 10
1.003895999999999
 20
61.979587
 30
0.0
 11
1.003895999999999
 21
140.18287
 31
0.0
  0
ENDBLK
  5
11A
330
117
100
AcDbEntity
  8
0
100
AcDbBlockEnd
  0
BLOCK
  5
11C
330
11B
100
AcDbEntity
  8
0
100
AcDbBlockBegin
  2
U0031
 70
     0
 10
0.0
 20
0.0
 30
0.0
  3
U0031
  1
U0031
  0
INSERT
  5
11D
330
11B
100
AcDbEntity
  8
0
100
AcDbBlockReference
  2
U0032
 10
0.0
 20
0.0
 30
0.0
  0
INSERT
  5
11E
330
11B
100
AcDbEntity
  8
0
100
AcDbBlockReference
  2
U0033
 10
0.0
 20
0.0
 30
0.0
  0
LINE
  5
11F
330
11B
100
AcDbEntity
  8
1
  6
STRICHPUNKT
 62
     1
100
AcDbLine
 10
126.003835
 20
6.756032
 30
0.0
 11
126.003835
 21
104.1829649999999
 31
0.0
  0
LINE
  5
120
330
11B
100
AcDbEntity
  8
1
  6
AUSGEZOGEN
 62
     3
100
AcDbLine
 10
185.0037739999999
 20
56.18294399999999
 30
0.0
 11
185.0037739999999
 21
152.1829979999999
 31
0.0
  0
LINE
  5
121
330
11B
100
AcDbEntity
  8
1
  6
AUSGEZOGEN
 62
     3
100
AcDbLine
 10
67.003896
 20
56.18292499999999
 30
0.0
 11
67.003896
 21
152.182995
 31
0.0
  0
LINE
  5
122
330
11B
100
AcDbEntity
  8
1
  6
AUSGEZOGEN
 62
     3
100
AcDbLine
 10
157.0038959999999
 20
59.182975
 30
0.0
 11
157.0038959999999
 21
150.182875
 31
0.0
  0
LINE
  5
123
330
11B
100
AcDbEntity
  8
1
  6
AUSGEZOGEN
 62
     3
100
AcDbLine
 10
95.00377399999999
 20
59.182956
 30
0.0
 11
95.00377399999999
 21
150.1828729999999
 31
0.0
  0
LINE
  5
124
330
11B
100
AcDbEntity
  8
1
  6
AUSGEZOGEN
 62
     3
100
AcDbLine
 10
176.0041399999999
 20
149.1829669999999
 30
0.0
 11
176.0041399999999
 21
152.1829979999999
 31
0.0
  0
LINE
  5
125
330
11B
100
AcDbEntity
  8
1
  6
AUSGEZOGEN
 62
     3
100
AcDbLine
 10
176.0041399999999
 20
56.18294399999999
 30
0.0
 11
176.0041399999999
 21
149.1829669999999
 31
0.0
  0
LINE
  5
126
330
11B
100
AcDbEntity
  8
1
  6
AUSGEZOGEN
 62
     3
100
AcDbLine
 10
76.003835
 20
56.18292499999999
 30
0.0
 11
76.003835
 21
152.182995
 31
0.0
  0
LINE
  5
127
330
11B
100
AcDbEntity
  8
1
  6
STRICHPUNKT
 62
     1
100
AcDbLine
 10
126.003835
 20
104.1829649999999
 30
0.0
 11
263.782842
 21
104.1829649999999
 31
0.0
  0
LINE
  5
128
330
11B
100
AcDbEntity
  8
1
  6
STRICHPUNKT
 62
     1
100
AcDbLine
 10
-11.525469
 20
104.1829649999999
 30
0.0
 11
126.003835
 21
104.1829649999999
 31
0.0
  0
ENDBLK
  5
129
330
11B
100
AcDbEntity
  8
0
100
AcDbBlockEnd
  0
BLOCK
  5
12B
330
12A
100
AcDbEntity
  8
0
100
AcDbBlockBegin
  2
U0036
 70
     0
 10
0.0
 20
0.0
 30
0.0
  3
U0036
  1
U0036
  0
LINE
  5
12C
330
12A
100
AcDbEntity
  8
1
  6
AUSGEZOGEN
 62
     3
100
AcDbLine
 10
251.003774
 20
396.202457
 30
0.0
 11
251.003774
 21
389.7025179999999
 31
0.0
  0
ENDBLK
  5
12D
330
12A
100
AcDbEntity
  8
0
100
AcDbBlockEnd
  0
BLOCK
  5
12F
330
12E
100
AcDbEntity
  8
0
100
AcDbBlockBegin
  2
U0035
 70
     0
 10
0.0
 20
0.0
 30
0.0
  3
U0035
  1
U0035
  0
INSERT
  5
130
330
12E
100
AcDbEntity
  8
0
100
AcDbBlockReference
  2
U0036
 10
0.0
 20
0.0
 30
0.0
  0
ENDBLK
  5
131
330
12E
100
AcDbEntity
  8
0
100
AcDbBlockEnd
  0
BLOCK
  5
133
330
132
100
AcDbEntity
  8
0
100
AcDbBlockBegin
  2
U0037
 70
     0
 10
0.0
 20
0.0
 30
0.0
  3
U0037
  1
U0037
  0
ARC
  5
134
330
132
100
AcDbEntity
  8
1
  6
AUSGEZOGEN
 62
     3
100
AcDbCircle
 10
246.003774
 20
398.386142
 30
0.0
 40
5.0
100
AcDbArc
 50
0.0
 51
26.580691
  0
ARC
  5
135
330
132
100
AcDbEntity
  8
1
  6
AUSGEZOGEN
 62
     3
100
AcDbCircle
 10
246.003774
 20
313.98093
 30
0.0
 40
4.999502999999999
100
AcDbArc
 50
272.3579159999999
 51
0.0
  0
LINE
  5
136
330
132
100
AcDbEntity
  8
1
  6
AUSGEZOGEN
 62
     3
100
AcDbLine
 10
246.209462
 20
308.98566
 30
0.0
 11
185.0037739999999
 21
308.182895
 31
0.0
  0
LINE
  5
137
330
132
100
AcDbEntity
  8
1
  6
AUSGEZOGEN
 62
     3
100
AcDbLine
 10
251.003774
 20
387.952487
 30
0.0
 11
251.003774
 21
313.98093
 31
0.0
  0
LINE
  5
138
330
132
100
AcDbEntity
  8
1
  6
AUSGEZOGEN
 62
     3
100
AcDbLine
 10
185.0037739999999
 20
404.1828029999999
 30
0.0
 11
246.209462
 21
403.382175
 31
0.0
  0
ARC
  5
139
330
132
100
AcDbEntity
  8
1
  6
AUSGEZOGEN
 62
     3
100
AcDbCircle
 10
246.003774
 20
398.386142
 30
0.0
 40
4.999899
100
AcDbArc
 50
26.580691
 51
87.64244299999999
  0
ENDBLK
  5
13A
330
132
100
AcDbEntity
  8
0
100
AcDbBlockEnd
  0
BLOCK
  5
13C
330
13B
100
AcDbEntity
  8
0
100
AcDbBlockBegin
  2
U0038
 70
     0
 10
0.0
 20
0.0
 30
0.0
  3
U0038
  1
U0038
  0
ARC
  5
13D
330
13B
100
AcDbEntity
  8
1
  6
AUSGEZOGEN
 62
     3
100
AcDbCircle
 10
6.003896
 20
398.386142
 30
0.0
 40
5.000124999999999
100
AcDbArc
 50
92.36112299999999
 51
180.0
  0
ARC
  5
13E
330
13B
100
AcDbEntity
  8
1
  6
AUSGEZOGEN
 62
     3
100
AcDbCircle
 10
6.003896
 20
313.9807769999999
 30
0.0
 40
5.028863999999999
100
AcDbArc
 50
173.8583409999999
 51
267.638589
  0
LINE
  5
13F
330
13B
100
AcDbEntity
  8
1
  6
AUSGEZOGEN
 62
     3
100
AcDbLine
 10
7.503835
 20
308.915164
 30
0.0
 11
67.003896
 21
308.182895
 31
0.0
  0
LINE
  5
140
330
13B
100
AcDbEntity
  8
1
  6
AUSGEZOGEN
 62
     3
100
AcDbLine
 10
5.797901999999999
 20
308.985507
 30
0.0
 11
7.503835
 21
308.915164
 31
0.0
  0
LINE
  5
141
330
13B
100
AcDbEntity
  8
1
  6
AUSGEZOGEN
 62
     3
100
AcDbLine
 10
1.003895999999999
 20
398.386142
 30
0.0
 11
1.003895999999999
 21
320.182864
 31
0.0
  0
LINE
  5
142
330
13B
100
AcDbEntity
  8
1
  6
AUSGEZOGEN
 62
     3
100
AcDbLine
 10
67.003896
 20
404.1828029999999
 30
0.0
 11
5.797901999999999
 21
403.3820219999999
 31
0.0
  0
LINE
  5
143
330
13B
100
AcDbEntity
  8
1
  6
AUSGEZOGEN
 62
     3
100
AcDbLine
 10
1.003895999999999
 20
315.182864
 30
0.0
 11
1.003895999999999
 21
313.4427539999999
 31
0.0
  0
LINE
  5
144
330
13B
100
AcDbEntity
  8
1
  6
AUSGEZOGEN
 62
     3
100
AcDbLine
 10
1.003895999999999
 20
320.182864
 30
0.0
 11
1.003895999999999
 21
315.182864
 31
0.0
  0
ENDBLK
  5
145
330
13B
100
AcDbEntity
  8
0
100
AcDbBlockEnd
  0
BLOCK
  5
147
330
146
100
AcDbEntity
  8
0
100
AcDbBlockBegin
  2
U0039
 70
     0
 10
0.0
 20
0.0
 30
0.0
  3
U0039
  1
U0039
  0
LINE
  5
148
330
146
100
AcDbEntity
  8
1
  6
AUSGEZOGEN
 62
     3
100
AcDbLine
 10
97.00389600000001
 20
301.182773
 30
0.0
 11
155.003774
 21
301.1827919999999
 31
0.0
  0
ENDBLK
  5
149
330
146
100
AcDbEntity
  8
0
100
AcDbBlockEnd
  0
BLOCK
  5
14B
330
14A
100
AcDbEntity
  8
0
100
AcDbBlockBegin
  2
U0034
 70
     0
 10
0.0
 20
0.0
 30
0.0
  3
U0034
  1
U0034
  0
LINE
  5
14C
330
14A
100
AcDbEntity
  8
1
  6
AUSGEZOGEN
 62
     1
100
AcDbLine
 10
176.0041399999999
 20
329.182803
 30
0.0
 11
247.5034079999999
 21
329.182956
 31
0.0
  0
INSERT
  5
14D
330
14A
100
AcDbEntity
  8
0
100
AcDbBlockReference
  2
U0035
 10
0.0
 20
0.0
 30
0.0
  0
LINE
  5
14E
330
14A
100
AcDbEntity
  8
1
  6
AUSGEZOGEN
 62
     3
100
AcDbLine
 10
251.003774
 20
398.386142
 30
0.0
 11
251.003774
 21
396.202457
 31
0.0
  0
LINE
  5
14F
330
14A
100
AcDbEntity
  8
1
  6
AUSGEZOGEN
 62
     3
100
AcDbLine
 10
251.003774
 20
387.952487
 30
0.0
 11
251.003774
 21
389.7025179999999
 31
0.0
  0
INSERT
  5
150
330
14A
100
AcDbEntity
  8
0
100
AcDbBlockReference
  2
U0037
 10
0.0
 20
0.0
 30
0.0
  0
INSERT
  5
151
330
14A
100
AcDbEntity
  8
0
100
AcDbBlockReference
  2
U0038
 10
0.0
 20
0.0
 30
0.0
  0
LINE
  5
152
330
14A
100
AcDbEntity
  8
1
  6
STRICHPUNKT
 62
     1
100
AcDbLine
 10
126.003835
 20
412.1828339999999
 30
0.0
 11
126.003835
 21
356.182773
 31
0.0
  0
LINE
  5
153
330
14A
100
AcDbEntity
  8
1
  6
AUSGEZOGEN
 62
     1
100
AcDbLine
 10
76.003835
 20
329.182803
 30
0.0
 11
5.504018
 21
329.182803
 31
0.0
  0
LINE
  5
154
330
14A
100
AcDbEntity
  8
1
  6
AUSGEZOGEN
 62
     3
100
AcDbLine
 10
185.0037739999999
 20
308.182895
 30
0.0
 11
176.0041399999999
 21
308.182895
 31
0.0
  0
LINE
  5
155
330
14A
100
AcDbEntity
  8
1
  6
AUSGEZOGEN
 62
     3
100
AcDbLine
 10
185.0037739999999
 20
404.1828029999999
 30
0.0
 11
185.0037739999999
 21
308.182895
 31
0.0
  0
LINE
  5
156
330
14A
100
AcDbEntity
  8
1
  6
AUSGEZOGEN
 62
     3
100
AcDbLine
 10
176.0041399999999
 20
404.1828029999999
 30
0.0
 11
185.0037739999999
 21
404.1828029999999
 31
0.0
  0
LINE
  5
157
330
14A
100
AcDbEntity
  8
1
  6
AUSGEZOGEN
 62
     3
100
AcDbLine
 10
67.003896
 20
308.182895
 30
0.0
 11
76.003835
 21
308.182895
 31
0.0
  0
LINE
  5
158
330
14A
100
AcDbEntity
  8
1
  6
AUSGEZOGEN
 62
     3
100
AcDbLine
 10
67.003896
 20
404.1828029999999
 30
0.0
 11
67.003896
 21
308.182895
 31
0.0
  0
LINE
  5
159
330
14A
100
AcDbEntity
  8
1
  6
AUSGEZOGEN
 62
     3
100
AcDbLine
 10
76.003835
 20
404.1828029999999
 30
0.0
 11
67.003896
 21
404.1828029999999
 31
0.0
  0
LINE
  5
15A
330
14A
100
AcDbEntity
  8
1
  6
AUSGEZOGEN
 62
     1
100
AcDbLine
 10
176.0041399999999
 20
329.182803
 30
0.0
 11
159.004018
 21
329.182803
 31
0.0
  0
LINE
  5
15B
330
14A
100
AcDbEntity
  8
1
  6
AUSGEZOGEN
 62
     1
100
AcDbLine
 10
97.00389600000001
 20
326.182773
 30
0.0
 11
155.003774
 21
326.182773
 31
0.0
  0
LINE
  5
15C
330
14A
100
AcDbEntity
  8
1
  6
AUSGEZOGEN
 62
     1
100
AcDbLine
 10
76.003835
 20
329.182803
 30
0.0
 11
93.00395700000001
 21
329.182803
 31
0.0
  0
ARC
  5
15D
330
14A
100
AcDbEntity
  8
1
  6
AUSGEZOGEN
 62
     3
100
AcDbCircle
 10
159.004018
 20
402.1828339999999
 30
0.0
 40
1.999968999999999
100
AcDbArc
 50
90.0
 51
180.0
  0
ARC
  5
15E
330
14A
100
AcDbEntity
  8
1
  6
AUSGEZOGEN
 62
     3
100
AcDbCircle
 10
93.00395700000001
 20
402.1828339999999
 30
0.0
 40
1.999816999999999
100
AcDbArc
 50
0.0
 51
90.0
  0
ARC
  5
15F
330
14A
100
AcDbEntity
  8
1
  6
AUSGEZOGEN
 62
     3
100
AcDbCircle
 10
155.003774
 20
401.182773
 30
0.0
 40
1.999968999999999
100
AcDbArc
 50
270.0
 51
0.0
  0
ARC
  5
160
330
14A
100
AcDbEntity
  8
1
  6
AUSGEZOGEN
 62
     3
100
AcDbCircle
 10
97.00389600000001
 20
401.182773
 30
0.0
 40
2.000122
100
AcDbArc
 50
180.0
 51
270.0
  0
LINE
  5
161
330
14A
100
AcDbEntity
  8
1
  6
AUSGEZOGEN
 62
     3
100
AcDbLine
 10
97.00389600000001
 20
399.1828029999999
 30
0.0
 11
155.003774
 21
399.1828029999999
 31
0.0
  0
LINE
  5
162
330
14A
100
AcDbEntity
  8
1
  6
AUSGEZOGEN
 62
     3
100
AcDbLine
 10
155.003774
 20
301.1827919999999
 30
0.0
 11
202.503554
 21
301.1827919999999
 31
0.0
  0
LINE
  5
163
330
14A
100
AcDbEntity
  8
1
  6
AUSGEZOGEN
 62
     3
100
AcDbLine
 10
68.003957
 20
301.182773
 30
0.0
 11
97.00389600000001
 21
301.182773
 31
0.0
  0
LINE
  5
164
330
14A
100
AcDbEntity
  8
1
  6
AUSGEZOGEN
 62
     3
100
AcDbLine
 10
65.503957
 20
301.182773
 30
0.0
 11
68.003957
 21
301.182773
 31
0.0
  0
LINE
  5
165
330
14A
100
AcDbEntity
  8
1
  6
AUSGEZOGEN
 62
     3
100
AcDbLine
 10
50.463746
 20
301.182925
 30
0.0
 11
65.503957
 21
301.182773
 31
0.0
  0
LINE
  5
166
330
14A
100
AcDbEntity
  8
1
  6
AUSGEZOGEN
 62
     3
100
AcDbLine
 10
49.50411599999999
 20
301.182925
 30
0.0
 11
50.463746
 21
301.182925
 31
0.0
  0
ARC
  5
167
330
14A
100
AcDbEntity
  8
1
  6
AUSGEZOGEN
 62
     3
100
AcDbCircle
 10
155.003774
 20
303.182914
 30
0.0
 40
2.000122
100
AcDbArc
 50
270.0
 51
0.0
  0
ARC
  5
168
330
14A
100
AcDbEntity
  8
1
  6
AUSGEZOGEN
 62
     3
100
AcDbCircle
 10
97.00389600000001
 20
303.182895
 30
0.0
 40
2.000122
100
AcDbArc
 50
180.0
 51
270.0
  0
LINE
  5
169
330
14A
100
AcDbEntity
  8
1
  6
AUSGEZOGEN
 62
     3
100
AcDbLine
 10
157.0038959999999
 20
401.182773
 30
0.0
 11
157.0038959999999
 21
303.182914
 31
0.0
  0
LINE
  5
16A
330
14A
100
AcDbEntity
  8
1
  6
AUSGEZOGEN
 62
     3
100
AcDbLine
 10
157.0038959999999
 20
402.1828339999999
 30
0.0
 11
157.0038959999999
 21
401.182773
 31
0.0
  0
LINE
  5
16B
330
14A
100
AcDbEntity
  8
1
  6
AUSGEZOGEN
 62
     3
100
AcDbLine
 10
176.0041399999999
 20
404.1828029999999
 30
0.0
 11
159.004018
 21
404.1828029999999
 31
0.0
  0
LINE
  5
16C
330
14A
100
AcDbEntity
  8
1
  6
AUSGEZOGEN
 62
     3
100
AcDbLine
 10
95.00377399999999
 20
401.182773
 30
0.0
 11
95.00377399999999
 21
303.182895
 31
0.0
  0
LINE
  5
16D
330
14A
100
AcDbEntity
  8
1
  6
AUSGEZOGEN
 62
     3
100
AcDbLine
 10
95.00377399999999
 20
402.1828339999999
 30
0.0
 11
95.00377399999999
 21
401.182773
 31
0.0
  0
LINE
  5
16E
330
14A
100
AcDbEntity
  8
1
  6
AUSGEZOGEN
 62
     3
100
AcDbLine
 10
76.003835
 20
404.1828029999999
 30
0.0
 11
93.00395700000001
 21
404.1828029999999
 31
0.0
  0
LINE
  5
16F
330
14A
100
AcDbEntity
  8
1
  6
AUSGEZOGEN
 62
     3
100
AcDbLine
 10
176.0041399999999
 20
329.182803
 30
0.0
 11
176.0041399999999
 21
301.1827919999999
 31
0.0
  0
LINE
  5
170
330
14A
100
AcDbEntity
  8
1
  6
AUSGEZOGEN
 62
     3
100
AcDbLine
 10
176.0041399999999
 20
404.1828029999999
 30
0.0
 11
176.0041399999999
 21
329.182803
 31
0.0
  0
LINE
  5
171
330
14A
100
AcDbEntity
  8
1
  6
AUSGEZOGEN
 62
     3
100
AcDbLine
 10
76.003835
 20
404.1828029999999
 30
0.0
 11
76.003835
 21
301.182773
 31
0.0
  0
ARC
  5
172
330
14A
100
AcDbEntity
  8
1
  6
AUSGEZOGEN
 62
     3
100
AcDbCircle
 10
202.503554
 20
299.182822
 30
0.0
 40
2.000122
100
AcDbArc
 50
0.0
 51
90.0
  0
ARC
  5
173
330
14A
100
AcDbEntity
  8
1
  6
AUSGEZOGEN
 62
     3
100
AcDbCircle
 10
49.50411599999999
 20
299.1829549999999
 30
0.0
 40
1.999968999999999
100
AcDbArc
 50
90.0
 51
180.0
  0
INSERT
  5
174
330
14A
100
AcDbEntity
  8
0
100
AcDbBlockReference
  2
U0039
 10
0.0
 20
0.0
 30
0.0
  0
LINE
  5
175
330
14A
100
AcDbEntity
  8
1
  6
STRICHPUNKT
 62
     1
100
AcDbLine
 10
126.003835
 20
356.182773
 30
0.0
 11
263.2198149999999
 21
356.182939
 31
0.0
  0
LINE
  5
176
330
14A
100
AcDbEntity
  8
1
  6
STRICHPUNKT
 62
     1
100
AcDbLine
 10
-9.273458
 20
356.182773
 30
0.0
 11
126.003835
 21
356.182773
 31
0.0
  0
ENDBLK
  5
177
330
14A
100
AcDbEntity
  8
0
100
AcDbBlockEnd
  0
BLOCK
  5
179
330
178
100
AcDbEntity
  8
0
100
AcDbBlockBegin
  2
U0040
 70
     0
 10
0.0
 20
0.0
 30
0.0
  3
U0040
  1
U0040
  0
LINE
  5
17A
330
178
100
AcDbEntity
  8
1
  6
AUSGEZOGEN
 62
     3
100
AcDbLine
 10
204.503676
 20
276.182944
 30
0.0
 11
47.503994
 21
276.183077
 31
0.0
  0
LINE
  5
17B
330
178
100
AcDbEntity
  8
1
  6
AUSGEZOGEN
 62
     3
100
AcDbLine
 10
204.503676
 20
299.182822
 30
0.0
 11
204.503676
 21
276.182944
 31
0.0
  0
LINE
  5
17C
330
178
100
AcDbEntity
  8
1
  6
AUSGEZOGEN
 62
     3
100
AcDbLine
 10
47.503994
 20
282.0836509999999
 30
0.0
 11
47.503994
 21
299.1829549999999
 31
0.0
  0
LINE
  5
17D
330
178
100
AcDbEntity
  8
1
  6
AUSGEZOGEN
 62
     3
100
AcDbLine
 10
47.503994
 20
276.183077
 30
0.0
 11
47.503994
 21
282.0836509999999
 31
0.0
  0
ENDBLK
  5
17E
330
178
100
AcDbEntity
  8
0
100
AcDbBlockEnd
  0
BLOCK
  5
180
330
17F
100
AcDbEntity
  8
0
100
AcDbBlockBegin
  2
U0041
 70
     0
 10
0.0
 20
0.0
 30
0.0
  3
U0041
  1
U0041
  0
LINE
  5
181
330
17F
100
AcDbEntity
  8
1
  6
AUSGEZOGEN
 62
     3
100
AcDbLine
 10
364.504506
 20
276.182964
 30
0.0
 11
328.504445
 21
276.182964
 31
0.0
  0
LINE
  5
182
330
17F
100
AcDbEntity
  8
1
  6
AUSGEZOGEN
 62
     3
100
AcDbLine
 10
490.504572
 20
276.182964
 30
0.0
 11
454.504511
 21
276.182964
 31
0.0
  0
LINE
  5
183
330
17F
100
AcDbEntity
  8
1
  6
AUSGEZOGEN
 62
     3
100
AcDbLine
 10
490.504572
 20
299.182841
 30
0.0
 11
490.504572
 21
276.182964
 31
0.0
  0
LINE
  5
184
330
17F
100
AcDbEntity
  8
1
  6
AUSGEZOGEN
 62
     3
100
AcDbLine
 10
456.504633
 20
301.182811
 30
0.0
 11
488.50445
 21
301.182811
 31
0.0
  0
LINE
  5
185
330
17F
100
AcDbEntity
  8
1
  6
AUSGEZOGEN
 62
     3
100
AcDbLine
 10
328.504445
 20
276.182964
 30
0.0
 11
328.504445
 21
299.182841
 31
0.0
  0
ENDBLK
  5
186
330
17F
100
AcDbEntity
  8
0
100
AcDbBlockEnd
  0
BLOCK
  5
188
330
187
100
AcDbEntity
  8
0
100
AcDbBlockBegin
  2
U0042
 70
     0
 10
0.0
 20
0.0
 30
0.0
  3
U0042
  1
U0042
  0
LINE
  5
189
330
187
100
AcDbEntity
  8
1
  6
AUSGEZOGEN
 62
     3
100
AcDbLine
 10
365.0641959999999
 20
387.952373
 30
0.0
 11
361.866564
 21
362.067363
 31
0.0
  0
LINE
  5
18A
330
187
100
AcDbEntity
  8
1
  6
AUSGEZOGEN
 62
     3
100
AcDbLine
 10
365.787768
 20
393.8105269999999
 30
0.0
 11
365.0641959999999
 21
387.952373
 31
0.0
  0
LINE
  5
18B
330
187
100
AcDbEntity
  8
1
  6
AUSGEZOGEN
 62
     3
100
AcDbLine
 10
377.7350919999999
 20
400.6232709999999
 30
0.0
 11
403.620407
 21
403.8207499999999
 31
0.0
  0
LINE
  5
18C
330
187
100
AcDbEntity
  8
1
  6
AUSGEZOGEN
 62
     3
100
AcDbLine
 10
371.8769379999999
 20
399.899699
 30
0.0
 11
377.7350919999999
 21
400.6232709999999
 31
0.0
  0
ARC
  5
18D
330
187
100
AcDbEntity
  8
1
  6
AUSGEZOGEN
 62
     3
100
AcDbCircle
 10
372.735092
 20
392.952373
 30
0.0
 40
7.000126999999999
100
AcDbArc
 50
97.04167400000001
 51
172.958323
  0
ARC
  5
18E
330
187
100
AcDbEntity
  8
1
  6
AUSGEZOGEN
 62
     3
100
AcDbCircle
 10
377.004506
 20
315.182902
 30
0.0
 40
7.000122
100
AcDbArc
 50
180.0
 51
270.0
  0
LINE
  5
18F
330
187
100
AcDbEntity
  8
1
  6
AUSGEZOGEN
 62
     3
100
AcDbLine
 10
370.0043839999999
 20
320.182902
 30
0.0
 11
370.0043839999999
 21
328.9110819999999
 31
0.0
  0
LINE
  5
190
330
187
100
AcDbEntity
  8
1
  6
AUSGEZOGEN
 62
     3
100
AcDbLine
 10
370.0043839999999
 20
315.182902
 30
0.0
 11
370.0043839999999
 21
320.182902
 31
0.0
  0
LINE
  5
191
330
187
100
AcDbEntity
  8
1
  6
AUSGEZOGEN
 62
     3
100
AcDbLine
 10
382.0045059999999
 20
308.1827799999999
 30
0.0
 11
409.5045009999999
 21
308.1827799999999
 31
0.0
  0
LINE
  5
192
330
187
100
AcDbEntity
  8
1
  6
AUSGEZOGEN
 62
     3
100
AcDbLine
 10
377.004506
 20
308.1827799999999
 30
0.0
 11
382.0045059999999
 21
308.1827799999999
 31
0.0
  0
ARC
  5
193
330
187
100
AcDbEntity
  8
1
  6
AUSGEZOGEN
 62
     3
100
AcDbCircle
 10
409.5045009999999
 20
356.182811
 30
0.0
 40
48.00000999999999
100
AcDbArc
 50
172.95812
 51
214.6220309999999
  0
ARC
  5
194
330
187
100
AcDbEntity
  8
1
  6
AUSGEZOGEN
 62
     3
100
AcDbCircle
 10
409.5045009999999
 20
356.182811
 30
0.0
 40
48.000031
100
AcDbArc
 50
90.0
 51
97.04133800000001
  0
ENDBLK
  5
195
330
187
100
AcDbEntity
  8
0
100
AcDbBlockEnd
  0
BLOCK
  5
197
330
196
100
AcDbEntity
  8
0
100
AcDbBlockBegin
  2
U0043
 70
     0
 10
0.0
 20
0.0
 30
0.0
  3
U0043
  1
U0043
  0
LINE
  5
198
330
196
100
AcDbEntity
  8
1
  6
AUSGEZOGEN
 62
     3
100
AcDbLine
 10
453.2212469999999
 20
393.8105269999999
 30
0.0
 11
457.14245
 21
362.067363
 31
0.0
  0
LINE
  5
199
330
196
100
AcDbEntity
  8
1
  6
AUSGEZOGEN
 62
     3
100
AcDbLine
 10
447.132074
 20
399.899699
 30
0.0
 11
415.388596
 21
403.8207499999999
 31
0.0
  0
ARC
  5
19A
330
196
100
AcDbEntity
  8
1
  6
AUSGEZOGEN
 62
     3
100
AcDbCircle
 10
446.27392
 20
392.952373
 30
0.0
 40
7.000126999999999
100
AcDbArc
 50
7.041674999999997
 51
82.95832500000002
  0
LINE
  5
19B
330
196
100
AcDbEntity
  8
1
  6
AUSGEZOGEN
 62
     3
100
AcDbLine
 10
449.004633
 20
320.182902
 30
0.0
 11
449.004633
 21
328.9110819999999
 31
0.0
  0
LINE
  5
19C
330
196
100
AcDbEntity
  8
1
  6
AUSGEZOGEN
 62
     3
100
AcDbLine
 10
437.004511
 20
308.1827799999999
 30
0.0
 11
409.5045009999999
 21
308.1827799999999
 31
0.0
  0
ARC
  5
19D
330
196
100
AcDbEntity
  8
1
  6
AUSGEZOGEN
 62
     3
100
AcDbCircle
 10
409.5045009999999
 20
356.182811
 30
0.0
 40
48.000079
100
AcDbArc
 50
325.3779779999999
 51
7.041878000000001
  0
ARC
  5
19E
330
196
100
AcDbEntity
  8
1
  6
AUSGEZOGEN
 62
     3
100
AcDbCircle
 10
409.5045009999999
 20
356.182811
 30
0.0
 40
47.999957
100
AcDbArc
 50
82.95866300000002
 51
90.0
  0
ENDBLK
  5
19F
330
196
100
AcDbEntity
  8
0
100
AcDbBlockEnd
  0
BLOCK
  5
1A1
330
1A0
100
AcDbEntity
  8
0
100
AcDbBlockBegin
  2
U0045
 70
     0
 10
0.0
 20
0.0
 30
0.0
  3
U0045
  1
U0045
  0
LINE
  5
1A2
330
1A0
100
AcDbEntity
  8
1
  6
STRICHPUNKT
 62
     1
100
AcDbLine
 10
409.504511
 20
270.682933
 30
0.0
 11
409.5045009999999
 21
413.682811
 31
0.0
  0
ENDBLK
  5
1A3
330
1A0
100
AcDbEntity
  8
0
100
AcDbBlockEnd
  0
BLOCK
  5
1A5
330
1A4
100
AcDbEntity
  8
0
100
AcDbBlockBegin
  2
U0044
 70
     0
 10
0.0
 20
0.0
 30
0.0
  3
U0044
  1
U0044
  0
INSERT
  5
1A6
330
1A4
100
AcDbEntity
  8
0
100
AcDbBlockReference
  2
U0045
 10
0.0
 20
0.0
 30
0.0
  0
ENDBLK
  5
1A7
330
1A4
100
AcDbEntity
  8
0
100
AcDbBlockEnd
  0
BLOCK
  5
1A9
330
1A8
100
AcDbEntity
  8
0
100
AcDbBlockBegin
  2
U0002
 70
     0
 10
0.0
 20
0.0
 30
0.0
  3
U0002
  1
U0002
  0
LINE
  5
1AA
330
1A8
100
AcDbEntity
  8
1
  6
AUSGEZOGEN
 62
     1
100
AcDbLine
 10
68.003957
 20
304.6823759999999
 30
0.0
 11
76.003835
 21
304.6823759999999
 31
0.0
  0
INSERT
  5
1AB
330
1A8
100
AcDbEntity
  8
0
100
AcDbBlockReference
  2
U0003
 10
0.0
 20
0.0
 30
0.0
  0
INSERT
  5
1AC
330
1A8
100
AcDbEntity
  8
0
100
AcDbBlockReference
  2
U0014
 10
0.0
 20
0.0
 30
0.0
  0
LINE
  5
1AD
330
1A8
100
AcDbEntity
  8
1
  6
STRICHPUNKT
 62
     1
100
AcDbLine
 10
126.003835
 20
104.1829649999999
 30
0.0
 11
126.003835
 21
199.1829649999999
 31
0.0
  0
INSERT
  5
1AE
330
1A8
100
AcDbEntity
  8
0
100
AcDbBlockReference
  2
U0020
 10
0.0
 20
0.0
 30
0.0
  0
INSERT
  5
1AF
330
1A8
100
AcDbEntity
  8
0
100
AcDbBlockReference
  2
U0025
 10
0.0
 20
0.0
 30
0.0
  0
INSERT
  5
1B0
330
1A8
100
AcDbEntity
  8
0
100
AcDbBlockReference
  2
U0031
 10
0.0
 20
0.0
 30
0.0
  0
INSERT
  5
1B1
330
1A8
100
AcDbEntity
  8
0
100
AcDbBlockReference
  2
U0034
 10
0.0
 20
0.0
 30
0.0
  0
INSERT
  5
1B2
330
1A8
100
AcDbEntity
  8
0
100
AcDbBlockReference
  2
U0040
 10
0.0
 20
0.0
 30
0.0
  0
LINE
  5
1B3
330
1A8
100
AcDbEntity
  8
1
  6
STRICHPUNKT
 62
     1
100
AcDbLine
 10
158.503835
 20
309.6828339999999
 30
0.0
 11
158.503835
 21
257.1828529999999
 31
0.0
  0
LINE
  5
1B4
330
1A8
100
AcDbEntity
  8
1
  6
STRICHPUNKT
 62
     1
100
AcDbLine
 10
93.503835
 20
257.1828339999999
 30
0.0
 11
93.503835
 21
308.6827729999999
 31
0.0
  0
LINE
  5
1B5
330
1A8
100
AcDbEntity
  8
1
  6
STRICHPUNKT
 62
     1
100
AcDbLine
 10
126.003835
 20
356.182773
 30
0.0
 11
126.003835
 21
257.1828529999999
 31
0.0
  0
LINE
  5
1B6
330
1A8
100
AcDbEntity
  8
1
  6
STRICHPUNKT
 62
     1
100
AcDbLine
 10
472.004511
 20
306.182811
 30
0.0
 11
472.004511
 21
271.182964
 31
0.0
  0
LINE
  5
1B7
330
1A8
100
AcDbEntity
  8
1
  6
STRICHPUNKT
 62
     1
100
AcDbLine
 10
347.0045069999999
 20
271.182964
 30
0.0
 11
347.0045059999999
 21
306.182811
 31
0.0
  0
LINE
  5
1B8
330
1A8
100
AcDbEntity
  8
1
  6
AUSGEZOGEN
 62
     3
100
AcDbLine
 10
364.504506
 20
277.682902
 30
0.0
 11
454.504511
 21
277.682902
 31
0.0
  0
LINE
  5
1B9
330
1A8
100
AcDbEntity
  8
1
  6
AUSGEZOGEN
 62
     3
100
AcDbLine
 10
456.504633
 20
301.182811
 30
0.0
 11
454.004633
 21
301.182811
 31
0.0
  0
ARC
  5
1BA
330
1A8
100
AcDbEntity
  8
1
  6
AUSGEZOGEN
 62
     3
100
AcDbCircle
 10
365.0043839999999
 20
306.182811
 30
0.0
 40
5.0
100
AcDbArc
 50
270.0
 51
0.0
  0
LINE
  5
1BB
330
1A8
100
AcDbEntity
  8
1
  6
AUSGEZOGEN
 62
     3
100
AcDbLine
 10
362.5043839999999
 20
301.182811
 30
0.0
 11
365.0043839999999
 21
301.182811
 31
0.0
  0
ARC
  5
1BC
330
1A8
100
AcDbEntity
  8
1
  6
AUSGEZOGEN
 62
     3
100
AcDbCircle
 10
362.5043839999999
 20
299.182841
 30
0.0
 40
2.000122
100
AcDbArc
 50
0.0
 51
90.0
  0
LINE
  5
1BD
330
1A8
100
AcDbEntity
  8
1
  6
AUSGEZOGEN
 62
     3
100
AcDbLine
 10
330.504567
 20
301.182811
 30
0.0
 11
362.5043839999999
 21
301.182811
 31
0.0
  0
ARC
  5
1BE
330
1A8
100
AcDbEntity
  8
1
  6
AUSGEZOGEN
 62
     3
100
AcDbCircle
 10
456.504633
 20
299.182841
 30
0.0
 40
1.999968999999999
100
AcDbArc
 50
90.0
 51
180.0
  0
LINE
  5
1BF
330
1A8
100
AcDbEntity
  8
1
  6
AUSGEZOGEN
 62
     3
100
AcDbLine
 10
454.504511
 20
276.182964
 30
0.0
 11
454.504511
 21
299.182841
 31
0.0
  0
LINE
  5
1C0
330
1A8
100
AcDbEntity
  8
1
  6
AUSGEZOGEN
 62
     3
100
AcDbLine
 10
364.504506
 20
276.182964
 30
0.0
 11
364.504506
 21
299.182841
 31
0.0
  0
ARC
  5
1C1
330
1A8
100
AcDbEntity
  8
1
  6
AUSGEZOGEN
 62
     3
100
AcDbCircle
 10
454.004633
 20
306.182811
 30
0.0
 40
5.0
100
AcDbArc
 50
180.0
 51
270.0
  0
LINE
  5
1C2
330
1A8
100
AcDbEntity
  8
1
  6
AUSGEZOGEN
 62
     3
100
AcDbLine
 10
449.004633
 20
315.182902
 30
0.0
 11
449.004633
 21
306.182811
 31
0.0
  0
LINE
  5
1C3
330
1A8
100
AcDbEntity
  8
1
  6
AUSGEZOGEN
 62
     3
100
AcDbLine
 10
370.0043839999999
 20
315.182902
 30
0.0
 11
370.0043839999999
 21
304.682872
 31
0.0
  0
ARC
  5
1C4
330
1A8
100
AcDbEntity
  8
1
  6
AUSGEZOGEN
 62
     3
100
AcDbCircle
 10
488.50445
 20
299.182841
 30
0.0
 40
2.000122
100
AcDbArc
 50
0.0
 51
90.0
  0
ARC
  5
1C5
330
1A8
100
AcDbEntity
  8
1
  6
AUSGEZOGEN
 62
     3
100
AcDbCircle
 10
330.504567
 20
299.182841
 30
0.0
 40
1.999968999999999
100
AcDbArc
 50
90.0
 51
180.0
  0
INSERT
  5
1C6
330
1A8
100
AcDbEntity
  8
0
100
AcDbBlockReference
  2
U0041
 10
0.0
 20
0.0
 30
0.0
  0
LINE
  5
1C7
330
1A8
100
AcDbEntity
  8
1
  6
AUSGEZOGEN
 62
     3
100
AcDbLine
 10
449.004633
 20
315.182902
 30
0.0
 11
449.004633
 21
320.182902
 31
0.0
  0
LINE
  5
1C8
330
1A8
100
AcDbEntity
  8
1
  6
AUSGEZOGEN
 62
     3
100
AcDbLine
 10
442.004511
 20
308.1827799999999
 30
0.0
 11
437.004511
 21
308.1827799999999
 31
0.0
  0
ARC
  5
1C9
330
1A8
100
AcDbEntity
  8
1
  6
AUSGEZOGEN
 62
     3
100
AcDbCircle
 10
442.004511
 20
315.182902
 30
0.0
 40
7.000122
100
AcDbArc
 50
270.0
 51
0.0
  0
INSERT
  5
1CA
330
1A8
100
AcDbEntity
  8
0
100
AcDbBlockReference
  2
U0042
 10
0.0
 20
0.0
 30
0.0
  0
INSERT
  5
1CB
330
1A8
100
AcDbEntity
  8
0
100
AcDbBlockReference
  2
U0043
 10
0.0
 20
0.0
 30
0.0
  0
LINE
  5
1CC
330
1A8
100
AcDbEntity
  8
1
  6
STRICHPUNKT
 62
     1
100
AcDbLine
 10
464.504511
 20
356.182811
 30
0.0
 11
352.7045779999999
 21
356.182811
 31
0.0
  0
INSERT
  5
1CD
330
1A8
100
AcDbEntity
  8
0
100
AcDbBlockReference
  2
U0044
 10
0.0
 20
0.0
 30
0.0
  0
ENDBLK
  5
1CE
330
1A8
100
AcDbEntity
  8
0
100
AcDbBlockEnd
  0
BLOCK
  5
1D0
330
1CF
100
AcDbEntity
  8
0
100
AcDbBlockBegin
  2
U0001
 70
     0
 10
0.0
 20
0.0
 30
0.0
  3
U0001
  1
U0001
  0
INSERT
  5
1D1
330
1CF
100
AcDbEntity
  8
0
100
AcDbBlockReference
  2
U0002
 10
0.0
 20
0.0
 30
0.0
  0
ENDBLK
  5
1D2
330
1CF
100
AcDbEntity
  8
0
100
AcDbBlockEnd
  0
ENDSEC
  0
SECTION
  2
ENTITIES
  0
LINE
  5
29F
330
1E
100
AcDbEntity
  8
Rüttler
100
AcDbLine
 10
47.503994
 20
276.183077
 30
0.0
 11
47.503994
 21
276.18323
 31
0.0
  0
LINE
  5
2A0
330
1E
100
AcDbEntity
  8
1
100
AcDbLine
 10
62.503774
 20
301.1828029999999
 30
0.0
 11
62.503774
 21
305.682285
 31
0.0
  0
LINE
  5
2A1
330
1E
100
AcDbEntity
  8
1
100
AcDbLine
 10
58.57385
 20
301.182843
 30
0.0
 11
59.30400600000001
 21
304.398257
 31
0.0
  0
LINE
  5
2A2
330
1E
100
AcDbEntity
  8
0
  6
STRICHPUNKT
 62
     7
 48
20.0
370
    18
100
AcDbLine
 10
183.5041399999999
 20
297.828418
 30
0.0
 11
183.5041399999999
 21
279.2493299999999
 31
0.0
  0
LINE
  5
2A3
330
1E
100
AcDbEntity
  8
0
  6
STRICHPUNKT
 62
     7
 48
20.0
370
    18
100
AcDbLine
 10
68.50353
 20
297.828418
 30
0.0
 11
68.50353
 21
279.2493299999999
 31
0.0
  0
LINE
  5
2AF
330
1E
100
AcDbEntity
  8
Rüttler
100
AcDbLine
 10
126.003835
 20
23.182996
 30
0.0
 11
181.0037129999999
 21
23.182996
 31
0.0
  0
LINE
  5
2B1
330
1E
100
AcDbEntity
  8
Rüttler
100
AcDbLine
 10
199.003682
 20
152.156781
 30
0.0
 11
198.542847
 21
151.8907199999999
 31
0.0
  0
ARC
  5
2B2
330
1E
100
AcDbEntity
  8
Rüttler
100
AcDbCircle
 10
158.503835
 20
34.182996
 30
0.0
 40
6.5
100
AcDbArc
 50
150.016819
 51
180.0
  0
ARC
  5
2B6
330
1E
100
AcDbEntity
  8
Rüttler
100
AcDbCircle
 10
188.003835
 20
49.182965
 30
0.0
 40
5.5
100
AcDbArc
 50
90.0
 51
245.556124
  0
LINE
  5
2BA
330
1E
100
AcDbEntity
  8
Rüttler
100
AcDbLine
 10
195.779744
 20
51.689985
 30
0.0
 11
190.279744
 21
54.189985
 31
0.0
  0
CIRCLE
  5
2BB
330
1E
100
AcDbEntity
  8
Rüttler
100
AcDbCircle
 10
183.5038349999999
 20
171.682935
 30
0.0
 40
5.5
  0
ARC
  5
2BC
330
1E
100
AcDbEntity
  8
Rüttler
100
AcDbCircle
 10
188.003835
 20
49.182965
 30
0.0
 40
5.5
100
AcDbArc
 50
65.556124
 51
90.0
  0
CIRCLE
  5
2BD
330
1E
100
AcDbEntity
  8
Rüttler
100
AcDbCircle
 10
68.503835
 20
171.682935
 30
0.0
 40
5.5
  0
LINE
  5
2BE
330
1E
100
AcDbEntity
  8
Rüttler
100
AcDbLine
 10
53.003987
 20
152.156781
 30
0.0
 11
53.46482299999999
 21
151.8907199999999
 31
0.0
  0
ARC
  5
2C0
330
1E
100
AcDbEntity
  8
Rüttler
100
AcDbCircle
 10
93.503835
 20
174.182935
 30
0.0
 40
6.500008999999999
100
AcDbArc
 50
97.992159
 51
330.0168189999999
  0
ARC
  5
2C1
330
1E
100
AcDbEntity
  8
Rüttler
100
AcDbCircle
 10
93.503835
 20
174.182935
 30
0.0
 40
6.500023999999999
100
AcDbArc
 50
0.0
 51
97.992159
  0
CIRCLE
  5
2C2
330
1E
100
AcDbEntity
  8
Rüttler
100
AcDbCircle
 10
86.003835
 20
159.182965
 30
0.0
 40
5.499997
  0
LINE
  5
2C3
330
1E
100
AcDbEntity
  8
Rüttler
100
AcDbLine
 10
126.003835
 20
185.182935
 30
0.0
 11
71.00395699999999
 21
185.182935
 31
0.0
  0
ARC
  5
2C4
330
1E
100
AcDbEntity
  8
Rüttler
100
AcDbCircle
 10
71.00395699999999
 20
174.182935
 30
0.0
 40
11.000033
100
AcDbArc
 50
90.0
 51
135.0
  0
ARC
  5
2C5
330
1E
100
AcDbEntity
  8
Rüttler
100
AcDbCircle
 10
58.50383499999999
 20
161.6829649999999
 30
0.0
 40
10.999841
100
AcDbArc
 50
135.0001119999999
 51
240.0004399999999
  0
LINE
  5
2C6
330
1E
100
AcDbEntity
  8
Rüttler
100
AcDbLine
 10
50.725698
 20
169.461072
 30
0.0
 11
52.94755999999999
 21
171.682935
 31
0.0
  0
LINE
  5
2C7
330
1E
100
AcDbEntity
  8
Rüttler
100
AcDbLine
 10
52.94755999999999
 20
171.682935
 30
0.0
 11
63.225759
 21
181.961133
 31
0.0
  0
ARC
  5
2CE
330
1E
100
AcDbEntity
  8
Rüttler
100
AcDbCircle
 10
93.503835
 20
174.182935
 30
0.0
 40
6.5
100
AcDbArc
 50
330.0168189999999
 51
0.0
  0
ARC
  5
2CF
330
1E
100
AcDbEntity
  8
Rüttler
100
AcDbCircle
 10
64.003835
 20
159.182965
 30
0.0
 40
5.5
100
AcDbArc
 50
270.0
 51
65.556124
  0
ARC
  5
2D0
330
1E
100
AcDbEntity
  8
Rüttler
100
AcDbCircle
 10
64.003835
 20
159.182965
 30
0.0
 40
5.5
100
AcDbArc
 50
245.556124
 51
270.0
  0
LINE
  5
2D1
330
1E
100
AcDbEntity
  8
Rüttler
100
AcDbLine
 10
56.227925
 20
156.675946
 30
0.0
 11
61.72792499999999
 21
154.175946
 31
0.0
  0
ARC
  5
2D2
330
1E
100
AcDbEntity
  8
Rüttler
100
AcDbCircle
 10
58.50383499999999
 20
161.6829649999999
 30
0.0
 40
5.5
100
AcDbArc
 50
65.556124
 51
245.556124
  0
LINE
  5
2D4
330
1E
100
AcDbEntity
  8
Rüttler
100
AcDbLine
 10
66.279744
 20
164.189985
 30
0.0
 11
60.77974399999999
 21
166.689985
 31
0.0
  0
CIRCLE
  5
2D6
330
1E
100
AcDbEntity
  8
Rüttler
100
AcDbCircle
 10
68.503835
 20
36.682996
 30
0.0
 40
5.5
  0
LINE
  5
2D7
330
1E
100
AcDbEntity
  8
Rüttler
100
AcDbLine
 10
53.003987
 20
56.20915
 30
0.0
 11
53.46482299999999
 21
56.475211
 31
0.0
  0
ARC
  5
2D9
330
1E
100
AcDbEntity
  8
Rüttler
100
AcDbCircle
 10
93.503835
 20
34.182996
 30
0.0
 40
6.500008999999999
100
AcDbArc
 50
29.983181
 51
262.007841
  0
ARC
  5
2DA
330
1E
100
AcDbEntity
  8
Rüttler
100
AcDbCircle
 10
93.503835
 20
34.182996
 30
0.0
 40
6.500023999999999
100
AcDbArc
 50
262.007841
 51
0.0
  0
CIRCLE
  5
2DB
330
1E
100
AcDbEntity
  8
Rüttler
100
AcDbCircle
 10
86.003835
 20
49.182965
 30
0.0
 40
5.499997
  0
LINE
  5
2DC
330
1E
100
AcDbEntity
  8
Rüttler
100
AcDbLine
 10
126.003835
 20
23.182996
 30
0.0
 11
71.00395699999999
 21
23.182996
 31
0.0
  0
ARC
  5
2DD
330
1E
100
AcDbEntity
  8
Rüttler
100
AcDbCircle
 10
71.00395699999999
 20
34.182996
 30
0.0
 40
11.000033
100
AcDbArc
 50
225.0
 51
270.0
  0
ARC
  5
2DE
330
1E
100
AcDbEntity
  8
Rüttler
100
AcDbCircle
 10
58.50383499999999
 20
46.682965
 30
0.0
 40
10.999841
100
AcDbArc
 50
119.99956
 51
224.999888
  0
LINE
  5
2DF
330
1E
100
AcDbEntity
  8
Rüttler
100
AcDbLine
 10
50.725698
 20
38.904859
 30
0.0
 11
52.94755999999999
 21
36.682996
 31
0.0
  0
LINE
  5
2E0
330
1E
100
AcDbEntity
  8
Rüttler
100
AcDbLine
 10
52.94755999999999
 20
36.682996
 30
0.0
 11
63.225759
 21
26.404798
 31
0.0
  0
ARC
  5
2E7
330
1E
100
AcDbEntity
  8
Rüttler
100
AcDbCircle
 10
93.503835
 20
34.182996
 30
0.0
 40
6.5
100
AcDbArc
 50
0.0
 51
29.983181
  0
ARC
  5
2E8
330
1E
100
AcDbEntity
  8
Rüttler
100
AcDbCircle
 10
64.003835
 20
49.182965
 30
0.0
 40
5.5
100
AcDbArc
 50
294.4438759999999
 51
90.0
  0
ARC
  5
2E9
330
1E
100
AcDbEntity
  8
Rüttler
100
AcDbCircle
 10
64.003835
 20
49.182965
 30
0.0
 40
5.5
100
AcDbArc
 50
90.0
 51
114.443876
  0
LINE
  5
2EA
330
1E
100
AcDbEntity
  8
Rüttler
100
AcDbLine
 10
56.227925
 20
51.689985
 30
0.0
 11
61.72792499999999
 21
54.189985
 31
0.0
  0
ARC
  5
2EB
330
1E
100
AcDbEntity
  8
Rüttler
100
AcDbCircle
 10
58.50383499999999
 20
46.682965
 30
0.0
 40
5.5
100
AcDbArc
 50
114.443876
 51
294.4438759999999
  0
LINE
  5
2ED
330
1E
100
AcDbEntity
  8
Rüttler
100
AcDbLine
 10
66.279744
 20
44.175946
 30
0.0
 11
60.77974399999999
 21
41.675946
 31
0.0
  0
CIRCLE
  5
2EF
330
1E
100
AcDbEntity
  8
Rüttler
100
AcDbCircle
 10
183.5038349999999
 20
36.682996
 30
0.0
 40
5.5
  0
LINE
  5
2F0
330
1E
100
AcDbEntity
  8
Rüttler
100
AcDbLine
 10
199.003682
 20
56.20915
 30
0.0
 11
198.542847
 21
56.475211
 31
0.0
  0
ARC
  5
2F2
330
1E
100
AcDbEntity
  8
Rüttler
100
AcDbCircle
 10
158.503835
 20
34.182996
 30
0.0
 40
6.500008999999999
100
AcDbArc
 50
277.9921589999999
 51
150.016819
  0
ARC
  5
2F3
330
1E
100
AcDbEntity
  8
Rüttler
100
AcDbCircle
 10
158.503835
 20
34.182996
 30
0.0
 40
6.500023999999999
100
AcDbArc
 50
180.0
 51
277.9921589999999
  0
CIRCLE
  5
2F4
330
1E
100
AcDbEntity
  8
Rüttler
100
AcDbCircle
 10
166.003835
 20
49.182965
 30
0.0
 40
5.499997
  0
ARC
  5
2F5
330
1E
100
AcDbEntity
  8
Rüttler
100
AcDbCircle
 10
181.0037129999999
 20
34.182996
 30
0.0
 40
11.000033
100
AcDbArc
 50
270.0
 51
315.0
  0
ARC
  5
2F6
330
1E
100
AcDbEntity
  8
Rüttler
100
AcDbCircle
 10
193.503835
 20
46.682965
 30
0.0
 40
10.999841
100
AcDbArc
 50
315.000112
 51
60.00043999999999
  0
LINE
  5
2F7
330
1E
100
AcDbEntity
  8
Rüttler
100
AcDbLine
 10
201.2819719999999
 20
38.904859
 30
0.0
 11
199.060109
 21
36.682996
 31
0.0
  0
LINE
  5
2F8
330
1E
100
AcDbEntity
  8
Rüttler
100
AcDbLine
 10
199.060109
 20
36.682996
 30
0.0
 11
188.781911
 21
26.404798
 31
0.0
  0
ARC
  5
2FB
330
1E
100
AcDbEntity
  8
Rüttler
100
AcDbCircle
 10
188.003835
 20
159.182965
 30
0.0
 40
5.500000000000002
100
AcDbArc
 50
114.4438759999999
 51
270.0
  0
ARC
  5
2FC
330
1E
100
AcDbEntity
  8
Rüttler
100
AcDbCircle
 10
188.003835
 20
159.182965
 30
0.0
 40
5.5
100
AcDbArc
 50
270.0
 51
294.4438759999999
  0
LINE
  5
2FD
330
1E
100
AcDbEntity
  8
Rüttler
100
AcDbLine
 10
195.779744
 20
156.675946
 30
0.0
 11
190.279744
 21
154.175946
 31
0.0
  0
ARC
  5
2FE
330
1E
100
AcDbEntity
  8
Rüttler
100
AcDbCircle
 10
193.503835
 20
161.6829649999999
 30
0.0
 40
5.5
100
AcDbArc
 50
294.4438759999999
 51
114.443876
  0
LINE
  5
300
330
1E
100
AcDbEntity
  8
Rüttler
100
AcDbLine
 10
185.7279249999999
 20
164.189985
 30
0.0
 11
191.227925
 21
166.689985
 31
0.0
  0
LINE
  5
302
330
1E
100
AcDbEntity
  8
Rüttler
100
AcDbLine
 10
185.7279249999999
 20
44.175946
 30
0.0
 11
191.227925
 21
41.675946
 31
0.0
  0
ARC
  5
303
330
1E
100
AcDbEntity
  8
Rüttler
100
AcDbCircle
 10
158.503835
 20
174.182935
 30
0.0
 40
6.500008999999999
100
AcDbArc
 50
209.9831809999999
 51
82.00784099999998
  0
ARC
  5
304
330
1E
100
AcDbEntity
  8
Rüttler
100
AcDbCircle
 10
158.503835
 20
174.182935
 30
0.0
 40
6.500023999999999
100
AcDbArc
 50
82.00784099999998
 51
180.0
  0
CIRCLE
  5
305
330
1E
100
AcDbEntity
  8
Rüttler
100
AcDbCircle
 10
166.003835
 20
159.182965
 30
0.0
 40
5.499997
  0
LINE
  5
306
330
1E
100
AcDbEntity
  8
Rüttler
100
AcDbLine
 10
126.003835
 20
185.182935
 30
0.0
 11
181.0037129999999
 21
185.182935
 31
0.0
  0
ARC
  5
307
330
1E
100
AcDbEntity
  8
Rüttler
100
AcDbCircle
 10
181.0037129999999
 20
174.182935
 30
0.0
 40
11.000033
100
AcDbArc
 50
45.0
 51
90.0
  0
ARC
  5
308
330
1E
100
AcDbEntity
  8
Rüttler
100
AcDbCircle
 10
193.503835
 20
161.6829649999999
 30
0.0
 40
10.999841
100
AcDbArc
 50
299.9995599999999
 51
44.999888
  0
LINE
  5
309
330
1E
100
AcDbEntity
  8
Rüttler
100
AcDbLine
 10
201.2819719999999
 20
169.461072
 30
0.0
 11
199.060109
 21
171.682935
 31
0.0
  0
LINE
  5
30A
330
1E
100
AcDbEntity
  8
Rüttler
100
AcDbLine
 10
199.060109
 20
171.682935
 30
0.0
 11
188.781911
 21
181.961133
 31
0.0
  0
ARC
  5
30B
330
1E
100
AcDbEntity
  8
Rüttler
100
AcDbCircle
 10
193.503835
 20
46.682965
 30
0.0
 40
5.5
100
AcDbArc
 50
245.556124
 51
65.556124
  0
LINE
  5
310
330
1E
100
AcDbEntity
  8
0
  6
STRICHPUNKT
 62
     7
 48
8.0
370
    18
100
AcDbLine
 10
148.5038500000112
 20
174.182935
 30
0.0
 11
168.5038199999887
 21
174.182935
 31
0.0
  0
LINE
  5
311
330
1E
100
AcDbEntity
  8
0
  6
STRICHPUNKT
 62
     7
 48
8.0
370
    18
100
AcDbLine
 10
158.503835
 20
184.182935
 30
0.0
 11
158.503835
 21
164.182965
 31
0.0
  0
ARC
  5
314
330
1E
100
AcDbEntity
  8
Rüttler
100
AcDbCircle
 10
158.503835
 20
174.182935
 30
0.0
 40
6.5
100
AcDbArc
 50
180.0
 51
209.9831809999999
  0
ARC
  5
339
330
1E
100
AcDbEntity
  8
Rüttler
100
AcDbCircle
 10
159.004018
 20
150.182875
 30
0.0
 40
2.000122
100
AcDbArc
 50
90.0
 51
180.0
  0
LINE
  5
36D
330
1E
100
AcDbEntity
  8
1
100
AcDbLine
 10
68.003957
 20
304.6823759999999
 30
0.0
 11
76.003835
 21
304.6823759999999
 31
0.0
  0
LINE
  5
370
330
1E
100
AcDbEntity
  8
0
  6
STRICHPUNKT
 62
     7
 48
10.0
370
    18
100
AcDbLine
 10
126.003835
 20
9.182964999999996
 30
0.0
 11
126.003835
 21
95.68935258477337
 31
0.0
  0
LINE
  5
378
330
1E
100
AcDbEntity
  8
0
  6
STRICHPUNKT
 62
     7
 48
10.0
370
    18
100
AcDbLine
 10
126.003835
 20
412.1828339999999
 30
0.0
 11
126.003835
 21
271.8519788707655
 31
0.0
  0
LINE
  5
379
330
1E
100
AcDbEntity
  8
0
  6
STRICHPUNKT
 62
     7
 48
10.0
370
    18
100
AcDbLine
 10
472.004511
 20
306.182811
 30
0.0
 11
472.004511
 21
271.182964
 31
0.0
  0
LINE
  5
37A
330
1E
100
AcDbEntity
  8
0
  6
STRICHPUNKT
 62
     7
 48
10.0
370
    18
100
AcDbLine
 10
347.0045069999999
 20
271.182964
 30
0.0
 11
347.0045059999999
 21
306.182811
 31
0.0
  0
LINE
  5
37B
330
1E
100
AcDbEntity
  8
Rüttler
100
AcDbLine
 10
364.504506
 20
277.682902
 30
0.0
 11
454.504511
 21
277.682902
 31
0.0
  0
LINE
  5
37C
330
1E
100
AcDbEntity
  8
Rüttler
100
AcDbLine
 10
456.504633
 20
301.182811
 30
0.0
 11
454.004633
 21
301.182811
 31
0.0
  0
ARC
  5
37D
330
1E
100
AcDbEntity
  8
Rüttler
100
AcDbCircle
 10
365.0043839999999
 20
306.182811
 30
0.0
 40
5.0
100
AcDbArc
 50
270.0
 51
0.0
  0
LINE
  5
37E
330
1E
100
AcDbEntity
  8
Rüttler
100
AcDbLine
 10
362.5043839999999
 20
301.182811
 30
0.0
 11
365.0043839999999
 21
301.182811
 31
0.0
  0
ARC
  5
37F
330
1E
100
AcDbEntity
  8
Rüttler
100
AcDbCircle
 10
362.5043839999999
 20
299.182841
 30
0.0
 40
2.000122
100
AcDbArc
 50
0.0
 51
90.0
  0
LINE
  5
380
330
1E
100
AcDbEntity
  8
Rüttler
100
AcDbLine
 10
330.504567
 20
301.182811
 30
0.0
 11
362.5043839999999
 21
301.182811
 31
0.0
  0
ARC
  5
381
330
1E
100
AcDbEntity
  8
Rüttler
100
AcDbCircle
 10
456.504633
 20
299.182841
 30
0.0
 40
1.999968999999999
100
AcDbArc
 50
90.0
 51
180.0
  0
LINE
  5
382
330
1E
100
AcDbEntity
  8
Rüttler
100
AcDbLine
 10
454.504511
 20
276.182964
 30
0.0
 11
454.504511
 21
299.182841
 31
0.0
  0
LINE
  5
383
330
1E
100
AcDbEntity
  8
Rüttler
100
AcDbLine
 10
364.504506
 20
276.182964
 30
0.0
 11
364.504506
 21
299.182841
 31
0.0
  0
ARC
  5
384
330
1E
100
AcDbEntity
  8
Rüttler
100
AcDbCircle
 10
454.004633
 20
306.182811
 30
0.0
 40
5.0
100
AcDbArc
 50
180.0
 51
270.0
  0
LINE
  5
385
330
1E
100
AcDbEntity
  8
Rüttler
100
AcDbLine
 10
449.004633
 20
315.182902
 30
0.0
 11
449.004633
 21
306.182811
 31
0.0
  0
LINE
  5
386
330
1E
100
AcDbEntity
  8
Rüttler
100
AcDbLine
 10
370.0043839999999
 20
315.182902
 30
0.0
 11
370.0043839999999
 21
304.682872
 31
0.0
  0
ARC
  5
387
330
1E
100
AcDbEntity
  8
Rüttler
100
AcDbCircle
 10
488.50445
 20
299.182841
 30
0.0
 40
2.000122
100
AcDbArc
 50
0.0
 51
90.0
  0
ARC
  5
388
330
1E
100
AcDbEntity
  8
Rüttler
100
AcDbCircle
 10
330.504567
 20
299.182841
 30
0.0
 40
1.999968999999999
100
AcDbArc
 50
90.0
 51
180.0
  0
LINE
  5
38A
330
1E
100
AcDbEntity
  8
Rüttler
100
AcDbLine
 10
449.004633
 20
315.182902
 30
0.0
 11
449.004633
 21
320.182902
 31
0.0
  0
LINE
  5
38B
330
1E
100
AcDbEntity
  8
Rüttler
100
AcDbLine
 10
442.004511
 20
308.1827799999999
 30
0.0
 11
437.004511
 21
308.1827799999999
 31
0.0
  0
ARC
  5
38C
330
1E
100
AcDbEntity
  8
Rüttler
100
AcDbCircle
 10
442.004511
 20
315.182902
 30
0.0
 40
7.000122
100
AcDbArc
 50
270.0
 51
0.0
  0
LINE
  5
38F
330
1E
100
AcDbEntity
  8
0
  6
STRICHPUNKT
 62
     7
 48
10.0
370
    18
100
AcDbLine
 10
463.4548250601982
 20
356.182811
 30
0.0
 11
355.5541849817666
 21
356.182811
 31
0.0
  0
LINE
  5
392
330
1E
100
AcDbEntity
  8
0
  6
STRICHPUNKT
 62
     7
 48
10.0
370
    15
100
AcDbLine
 10
409.504511
 20
270.682933
 30
0.0
 11
409.5045009999999
 21
413.682811
 31
0.0
  0
LINE
  5
395
330
1E
100
AcDbEntity
  8
Rüttler
100
AcDbLine
 10
204.503676
 20
276.182944
 30
0.0
 11
47.503994
 21
276.183077
 31
0.0
  0
LINE
  5
396
330
1E
100
AcDbEntity
  8
Rüttler
100
AcDbLine
 10
204.503676
 20
299.182822
 30
0.0
 11
204.503676
 21
276.182944
 31
0.0
  0
LINE
  5
397
330
1E
100
AcDbEntity
  8
Rüttler
100
AcDbLine
 10
47.503994
 20
282.0836509999999
 30
0.0
 11
47.503994
 21
299.1829549999999
 31
0.0
  0
LINE
  5
398
330
1E
100
AcDbEntity
  8
Rüttler
100
AcDbLine
 10
47.503994
 20
276.183077
 30
0.0
 11
47.503994
 21
282.0836509999999
 31
0.0
  0
LINE
  5
39B
330
1E
100
AcDbEntity
  8
Rüttler
100
AcDbLine
 10
233.503835
 20
398.386142
 30
0.0
 11
233.503835
 21
396.202457
 31
0.0
  0
LINE
  5
39C
330
1E
100
AcDbEntity
  8
Rüttler
100
AcDbLine
 10
233.503835
 20
387.952487
 30
0.0
 11
233.503835
 21
389.7025179999999
 31
0.0
  0
LINE
  5
3A1
330
1E
100
AcDbEntity
  8
Rüttler
100
AcDbLine
 10
185.0037739999999
 20
308.182895
 30
0.0
 11
176.0041399999999
 21
308.182895
 31
0.0
  0
LINE
  5
3A2
330
1E
100
AcDbEntity
  8
Rüttler
100
AcDbLine
 10
185.0037739999999
 20
404.1828029999999
 30
0.0
 11
185.0037739999999
 21
308.182895
 31
0.0
  0
LINE
  5
3A3
330
1E
100
AcDbEntity
  8
Rüttler
100
AcDbLine
 10
176.0041399999999
 20
404.1828029999999
 30
0.0
 11
185.0037739999999
 21
404.1828029999999
 31
0.0
  0
LINE
  5
3A4
330
1E
100
AcDbEntity
  8
Rüttler
100
AcDbLine
 10
67.003896
 20
308.182895
 30
0.0
 11
76.003835
 21
308.182895
 31
0.0
  0
LINE
  5
3A5
330
1E
100
AcDbEntity
  8
Rüttler
100
AcDbLine
 10
67.003896
 20
404.1828029999999
 30
0.0
 11
67.003896
 21
308.182895
 31
0.0
  0
LINE
  5
3A6
330
1E
100
AcDbEntity
  8
Rüttler
100
AcDbLine
 10
76.003835
 20
404.1828029999999
 30
0.0
 11
67.003896
 21
404.1828029999999
 31
0.0
  0
LINE
  5
3A8
330
1E
100
AcDbEntity
  8
0
 62
     7
370
    18
100
AcDbLine
 10
97.00389600000001
 20
328.9110819999999
 30
0.0
 11
155.003774
 21
328.9110819999999
 31
0.0
  0
ARC
  5
3AA
330
1E
100
AcDbEntity
  8
Rüttler
100
AcDbCircle
 10
159.004018
 20
402.1828339999999
 30
0.0
 40
1.999968999999999
100
AcDbArc
 50
90.0
 51
180.0
  0
ARC
  5
3AB
330
1E
100
AcDbEntity
  8
Rüttler
100
AcDbCircle
 10
93.00395700000001
 20
402.1828339999999
 30
0.0
 40
1.999816999999999
100
AcDbArc
 50
0.0
 51
90.0
  0
ARC
  5
3AC
330
1E
100
AcDbEntity
  8
Rüttler
100
AcDbCircle
 10
155.003774
 20
401.182773
 30
0.0
 40
1.999968999999999
100
AcDbArc
 50
270.0
 51
0.0
  0
ARC
  5
3AD
330
1E
100
AcDbEntity
  8
Rüttler
100
AcDbCircle
 10
97.00389600000001
 20
401.182773
 30
0.0
 40
2.000122
100
AcDbArc
 50
180.0
 51
270.0
  0
LINE
  5
3AE
330
1E
100
AcDbEntity
  8
Rüttler
100
AcDbLine
 10
97.00389600000001
 20
399.1828029999999
 30
0.0
 11
155.003774
 21
399.1828029999999
 31
0.0
  0
LINE
  5
3AF
330
1E
100
AcDbEntity
  8
Rüttler
100
AcDbLine
 10
155.003774
 20
301.1827919999999
 30
0.0
 11
202.503554
 21
301.1827919999999
 31
0.0
  0
LINE
  5
3B0
330
1E
100
AcDbEntity
  8
Rüttler
100
AcDbLine
 10
49.52869175711858
 20
301.182773
 30
0.0
 11
97.00389600000001
 21
301.182773
 31
0.0
  0
ARC
  5
3B4
330
1E
100
AcDbEntity
  8
Rüttler
100
AcDbCircle
 10
155.003774
 20
303.182914
 30
0.0
 40
2.000122
100
AcDbArc
 50
270.0
 51
0.0
  0
ARC
  5
3B5
330
1E
100
AcDbEntity
  8
Rüttler
100
AcDbCircle
 10
97.00389600000001
 20
303.182895
 30
0.0
 40
2.000122
100
AcDbArc
 50
180.0
 51
270.0
  0
LINE
  5
3B6
330
1E
100
AcDbEntity
  8
Rüttler
100
AcDbLine
 10
157.0038959999999
 20
401.182773
 30
0.0
 11
157.0038959999999
 21
303.182914
 31
0.0
  0
LINE
  5
3B7
330
1E
100
AcDbEntity
  8
Rüttler
100
AcDbLine
 10
157.0038959999999
 20
402.1828339999999
 30
0.0
 11
157.0038959999999
 21
401.182773
 31
0.0
  0
LINE
  5
3B8
330
1E
100
AcDbEntity
  8
Rüttler
100
AcDbLine
 10
176.0041399999999
 20
404.1828029999999
 30
0.0
 11
159.004018
 21
404.1828029999999
 31
0.0
  0
LINE
  5
3B9
330
1E
100
AcDbEntity
  8
Rüttler
100
AcDbLine
 10
95.00377399999999
 20
401.182773
 30
0.0
 11
95.00377399999999
 21
303.182895
 31
0.0
  0
LINE
  5
3BA
330
1E
100
AcDbEntity
  8
Rüttler
100
AcDbLine
 10
95.00377399999999
 20
402.1828339999999
 30
0.0
 11
95.00377399999999
 21
401.182773
 31
0.0
  0
LINE
  5
3BB
330
1E
100
AcDbEntity
  8
Rüttler
100
AcDbLine
 10
76.003835
 20
404.1828029999999
 30
0.0
 11
93.00395700000001
 21
404.1828029999999
 31
0.0
  0
LINE
  5
3BC
330
1E
100
AcDbEntity
  8
Rüttler
100
AcDbLine
 10
176.0041399999999
 20
329.182803
 30
0.0
 11
176.0041399999999
 21
301.1827919999999
 31
0.0
  0
LINE
  5
3BD
330
1E
100
AcDbEntity
  8
Rüttler
100
AcDbLine
 10
176.0041399999999
 20
404.1828029999999
 30
0.0
 11
176.0041399999999
 21
329.182803
 31
0.0
  0
LINE
  5
3BE
330
1E
100
AcDbEntity
  8
Rüttler
100
AcDbLine
 10
76.003835
 20
404.1828029999999
 30
0.0
 11
76.003835
 21
301.182773
 31
0.0
  0
ARC
  5
3BF
330
1E
100
AcDbEntity
  8
Rüttler
100
AcDbCircle
 10
202.503554
 20
299.182822
 30
0.0
 40
2.000122
100
AcDbArc
 50
0.0
 51
90.0
  0
ARC
  5
3C0
330
1E
100
AcDbEntity
  8
Rüttler
100
AcDbCircle
 10
49.50411599999999
 20
299.1829549999999
 30
0.0
 40
1.999968999999999
100
AcDbArc
 50
89.2959277870243
 51
180.0
  0
LINE
  5
3C3
330
1E
100
AcDbEntity
  8
0
  6
STRICHPUNKT
 62
     7
 48
10.0
370
    18
100
AcDbLine
 10
8.226481000000009
 20
356.182773
 30
0.0
 11
243.781189
 21
356.182773
 31
0.0
  0
LINE
  5
3C4
330
1E
100
AcDbEntity
  8
1
100
AcDbLine
 10
68.003957
 20
301.182773
 30
0.0
 11
68.003957
 21
305.682285
 31
0.0
  0
LINE
  5
3C5
330
1E
100
AcDbEntity
  8
1
100
AcDbLine
 10
65.503957
 20
305.682285
 30
0.0
 11
65.503957
 21
301.182773
 31
0.0
  0
LINE
  5
3C8
330
1E
100
AcDbEntity
  8
1
100
AcDbLine
 10
53.00395699999999
 20
304.2822909999999
 30
0.0
 11
53.00395699999999
 21
301.1829
 31
0.0
  0
LINE
  5
3CA
330
1E
100
AcDbEntity
  8
Rüttler
100
AcDbLine
 10
18.50383500000001
 20
146.3861789999999
 30
0.0
 11
18.50383500000001
 21
144.2024929999999
 31
0.0
  0
LINE
  5
3CB
330
1E
100
AcDbEntity
  8
Rüttler
100
AcDbLine
 10
18.50383500000001
 20
135.9525249999999
 30
0.0
 11
18.50383500000001
 21
137.7025539999999
 31
0.0
  0
LINE
  5
3CE
330
1E
100
AcDbEntity
  8
Rüttler
100
AcDbLine
 10
70.807912
 20
152.182995
 30
0.0
 11
67.003896
 21
152.182995
 31
0.0
  0
LINE
  5
3CF
330
1E
100
AcDbEntity
  8
Rüttler
100
AcDbLine
 10
76.003835
 20
152.182995
 30
0.0
 11
70.807912
 21
152.182995
 31
0.0
  0
LINE
  5
3D0
330
1E
100
AcDbEntity
  8
Rüttler
100
AcDbLine
 10
176.0041399999999
 20
152.1829979999999
 30
0.0
 11
185.0037739999999
 21
152.1829979999999
 31
0.0
  0
ARC
  5
3D1
330
1E
100
AcDbEntity
  8
Rüttler
100
AcDbCircle
 10
93.00395700000001
 20
150.1828729999999
 30
0.0
 40
1.999816999999999
100
AcDbArc
 50
0.0
 51
90.0
  0
ARC
  5
3D2
330
1E
100
AcDbEntity
  8
Rüttler
100
AcDbCircle
 10
159.004018
 20
150.182875
 30
0.0
 40
2.000122
100
AcDbArc
 50
90.0
 51
180.0
  0
ARC
  5
3D3
330
1E
100
AcDbEntity
  8
Rüttler
100
AcDbCircle
 10
97.00389600000001
 20
149.1829649999999
 30
0.0
 40
2.000122
100
AcDbArc
 50
180.0
 51
270.0
  0
ARC
  5
3D4
330
1E
100
AcDbEntity
  8
Rüttler
100
AcDbCircle
 10
155.003774
 20
149.1829669999999
 30
0.0
 40
1.999968999999999
100
AcDbArc
 50
270.0
 51
0.0
  0
LINE
  5
3D5
330
1E
100
AcDbEntity
  8
Rüttler
100
AcDbLine
 10
155.003774
 20
147.1829969999999
 30
0.0
 11
97.00389600000001
 21
147.182995
 31
0.0
  0
LINE
  5
3D6
330
1E
100
AcDbEntity
  8
Rüttler
100
AcDbLine
 10
76.003835
 20
152.182995
 30
0.0
 11
93.00395700000001
 21
152.182995
 31
0.0
  0
LINE
  5
3D7
330
1E
100
AcDbEntity
  8
Rüttler
100
AcDbLine
 10
176.0041399999999
 20
152.1829979999999
 30
0.0
 11
159.004018
 21
152.1829969999999
 31
0.0
  0
LINE
  5
3DB
330
1E
100
AcDbEntity
  8
Rüttler
100
AcDbLine
 10
185.0037739999999
 20
56.18294399999999
 30
0.0
 11
185.0037739999999
 21
152.1829979999999
 31
0.0
  0
LINE
  5
3DC
330
1E
100
AcDbEntity
  8
Rüttler
100
AcDbLine
 10
67.003896
 20
56.18292499999999
 30
0.0
 11
67.003896
 21
152.182995
 31
0.0
  0
LINE
  5
3DD
330
1E
100
AcDbEntity
  8
Rüttler
100
AcDbLine
 10
157.0038959999999
 20
59.182975
 30
0.0
 11
157.0038959999999
 21
150.182875
 31
0.0
  0
LINE
  5
3DE
330
1E
100
AcDbEntity
  8
Rüttler
100
AcDbLine
 10
95.00377399999999
 20
59.182956
 30
0.0
 11
95.00377399999999
 21
150.1828729999999
 31
0.0
  0
LINE
  5
3DF
330
1E
100
AcDbEntity
  8
Rüttler
100
AcDbLine
 10
176.0041399999999
 20
149.1829669999999
 30
0.0
 11
176.0041399999999
 21
152.1829979999999
 31
0.0
  0
LINE
  5
3E0
330
1E
100
AcDbEntity
  8
Rüttler
100
AcDbLine
 10
176.0041399999999
 20
56.18294399999999
 30
0.0
 11
176.0041399999999
 21
149.1829669999999
 31
0.0
  0
LINE
  5
3E1
330
1E
100
AcDbEntity
  8
Rüttler
100
AcDbLine
 10
76.003835
 20
56.18292499999999
 30
0.0
 11
76.003835
 21
152.182995
 31
0.0
  0
LINE
  5
3E3
330
1E
100
AcDbEntity
  8
0
  6
STRICHPUNKT
 62
     7
 48
10.0
370
    18
100
AcDbLine
 10
5.974470000000007
 20
104.1829649999999
 30
0.0
 11
101.5251427943683
 21
104.1829649999999
 31
0.0
  0
LINE
  5
3EA
330
1E
100
AcDbEntity
  8
Rüttler
100
AcDbLine
 10
176.0041399999999
 20
56.18294399999999
 30
0.0
 11
185.0037739999999
 21
56.18294399999999
 31
0.0
  0
LINE
  5
3EB
330
1E
100
AcDbEntity
  8
Rüttler
100
AcDbLine
 10
76.003835
 20
56.18292499999999
 30
0.0
 11
67.003896
 21
56.18292499999999
 31
0.0
  0
ARC
  5
3EC
330
1E
100
AcDbEntity
  8
Rüttler
100
AcDbCircle
 10
159.004018
 20
58.182914
 30
0.0
 40
2.000122
100
AcDbArc
 50
180.0
 51
270.0
  0
ARC
  5
3ED
330
1E
100
AcDbEntity
  8
Rüttler
100
AcDbCircle
 10
93.00395700000001
 20
58.18289499999999
 30
0.0
 40
1.999968999999999
100
AcDbArc
 50
270.0
 51
0.0
  0
ARC
  5
3EE
330
1E
100
AcDbEntity
  8
Rüttler
100
AcDbCircle
 10
155.003774
 20
59.182975
 30
0.0
 40
2.000122
100
AcDbArc
 50
0.0
 51
90.0
  0
ARC
  5
3EF
330
1E
100
AcDbEntity
  8
Rüttler
100
AcDbCircle
 10
97.00389600000001
 20
59.182956
 30
0.0
 40
1.999968999999999
100
AcDbArc
 50
90.0
 51
180.0
  0
LINE
  5
3F0
330
1E
100
AcDbEntity
  8
Rüttler
100
AcDbLine
 10
97.00389600000001
 20
61.18292499999999
 30
0.0
 11
155.003774
 21
61.18294399999999
 31
0.0
  0
LINE
  5
3F1
330
1E
100
AcDbEntity
  8
Rüttler
100
AcDbLine
 10
157.0038959999999
 20
58.182914
 30
0.0
 11
157.0038959999999
 21
59.182975
 31
0.0
  0
LINE
  5
3F2
330
1E
100
AcDbEntity
  8
Rüttler
100
AcDbLine
 10
176.0041399999999
 20
56.18294399999999
 30
0.0
 11
159.004018
 21
56.18294399999999
 31
0.0
  0
LINE
  5
3F3
330
1E
100
AcDbEntity
  8
Rüttler
100
AcDbLine
 10
95.00377399999999
 20
58.18289499999999
 30
0.0
 11
95.00377399999999
 21
59.182956
 31
0.0
  0
LINE
  5
3F4
330
1E
100
AcDbEntity
  8
Rüttler
100
AcDbLine
 10
76.003835
 20
56.18292499999999
 30
0.0
 11
93.00395700000001
 21
56.18292499999999
 31
0.0
  0
LINE
  5
3F5
330
1E
100
AcDbEntity
  8
Rüttler
100
AcDbLine
 10
18.50383500000001
 20
61.97958699999997
 30
0.0
 11
18.50383500000001
 21
140.1828699999999
 31
0.0
  0
ARC
  5
3F6
330
1E
100
AcDbEntity
  8
Rüttler
100
AcDbCircle
 10
23.503835
 20
146.3861789999999
 30
0.0
 40
5.000172
100
AcDbArc
 50
153.420876
 51
180.0000019999999
  0
ARC
  5
3F7
330
1E
100
AcDbEntity
  8
Rüttler
100
AcDbCircle
 10
23.503835
 20
146.3861789999999
 30
0.0
 40
5.000276999999999
100
AcDbArc
 50
92.36105099999999
 51
153.420876
  0
LINE
  5
3F8
330
1E
100
AcDbEntity
  8
Rüttler
100
AcDbLine
 10
67.003896
 20
152.182995
 30
0.0
 11
23.297841
 21
151.3822109999999
 31
0.0
  0
LINE
  5
3FA
330
1E
100
AcDbEntity
  8
Rüttler
100
AcDbLine
 10
233.5037504998618
 20
61.979606
 30
0.0
 11
233.5039194998618
 21
146.386186
 31
0.0
  0
ARC
  5
3FB
330
1E
100
AcDbEntity
  8
Rüttler
100
AcDbCircle
 10
228.5039194998618
 20
146.386185
 30
0.0
 40
5.0
100
AcDbArc
 50
0.000002
 51
87.64244399999997
  0
LINE
  5
3FC
330
1E
100
AcDbEntity
  8
Rüttler
100
AcDbLine
 10
186.353261
 20
152.158279
 30
0.0
 11
228.7096074998618
 21
151.382218
 31
0.0
  0
LINE
  5
3FD
330
1E
100
AcDbEntity
  8
Rüttler
100
AcDbLine
 10
185.0037739999999
 20
152.1829979999999
 30
0.0
 11
186.353261
 21
152.158279
 31
0.0
  0
LINE
  5
400
330
1E
100
AcDbEntity
  8
Rüttler
100
AcDbLine
 10
97.00389600000001
 20
301.182773
 30
0.0
 11
155.003774
 21
301.1827919999999
 31
0.0
  0
ARC
  5
401
330
1E
100
AcDbEntity
  8
Rüttler
100
AcDbCircle
 10
23.503835
 20
398.386142
 30
0.0
 40
5.000124999999999
100
AcDbArc
 50
92.36112299999996
 51
180.0
  0
ARC
  5
402
330
1E
100
AcDbEntity
  8
Rüttler
100
AcDbCircle
 10
23.503835
 20
313.9807769999999
 30
0.0
 40
5.028863999999999
100
AcDbArc
 50
173.8583409999999
 51
267.638589
  0
LINE
  5
403
330
1E
100
AcDbEntity
  8
Rüttler
100
AcDbLine
 10
25.003774
 20
308.915164
 30
0.0
 11
67.003896
 21
308.182895
 31
0.0
  0
LINE
  5
404
330
1E
100
AcDbEntity
  8
Rüttler
100
AcDbLine
 10
23.297841
 20
308.985507
 30
0.0
 11
25.003774
 21
308.915164
 31
0.0
  0
LINE
  5
405
330
1E
100
AcDbEntity
  8
Rüttler
100
AcDbLine
 10
18.50383500000001
 20
398.386142
 30
0.0
 11
18.50383500000001
 21
320.182864
 31
0.0
  0
LINE
  5
406
330
1E
100
AcDbEntity
  8
Rüttler
100
AcDbLine
 10
67.003896
 20
404.1828029999999
 30
0.0
 11
23.297841
 21
403.3820219999999
 31
0.0
  0
LINE
  5
407
330
1E
100
AcDbEntity
  8
Rüttler
100
AcDbLine
 10
18.50383500000001
 20
315.182864
 30
0.0
 11
18.50383500000001
 21
313.4427539999999
 31
0.0
  0
LINE
  5
408
330
1E
100
AcDbEntity
  8
Rüttler
100
AcDbLine
 10
18.50383500000001
 20
320.182864
 30
0.0
 11
18.50383500000001
 21
315.182864
 31
0.0
  0
LINE
  5
409
330
1E
100
AcDbEntity
  8
1
100
AcDbLine
 10
59.30400600000001
 20
305.682285
 30
0.0
 11
59.30400600000001
 21
304.398257
 31
0.0
  0
ARC
  5
40A
330
1E
100
AcDbEntity
  8
1
100
AcDbCircle
 10
58.50383499999999
 20
306.28226
 30
0.0
 40
0.9999079999999999
100
AcDbArc
 50
270.0
 51
323.137095
  0
ARC
  5
40B
330
1E
100
AcDbEntity
  8
1
100
AcDbCircle
 10
54.004018
 20
304.2822909999999
 30
0.0
 40
1.000061
100
AcDbArc
 50
90.0
 51
180.0
  0
LINE
  5
40C
330
1E
100
AcDbEntity
  8
1
100
AcDbLine
 10
58.50383499999999
 20
305.282352
 30
0.0
 11
54.004018
 21
305.282352
 31
0.0
  0
LINE
  5
40D
330
1E
100
AcDbEntity
  8
1
100
AcDbLine
 10
62.503774
 20
305.682285
 30
0.0
 11
59.30400600000001
 21
305.682285
 31
0.0
  0
LINE
  5
40E
330
1E
100
AcDbEntity
  8
1
100
AcDbLine
 10
62.503774
 20
304.398257
 30
0.0
 11
59.30400600000001
 21
304.398257
 31
0.0
  0
LINE
  5
40F
330
1E
100
AcDbEntity
  8
1
100
AcDbLine
 10
68.003957
 20
304.398257
 30
0.0
 11
65.503957
 21
304.398257
 31
0.0
  0
LINE
  5
411
330
1E
100
AcDbEntity
  8
Rüttler
100
AcDbLine
 10
47.503994
 20
282.0836509999999
 30
0.0
 11
47.503994
 21
276.18323
 31
0.0
  0
ARC
  5
412
330
1E
100
AcDbEntity
  8
Rüttler
100
AcDbCircle
 10
228.503835
 20
398.386142
 30
0.0
 40
5.0
100
AcDbArc
 50
0.0
 51
26.580691
  0
ARC
  5
413
330
1E
100
AcDbEntity
  8
Rüttler
100
AcDbCircle
 10
228.503835
 20
313.98093
 30
0.0
 40
4.999502999999999
100
AcDbArc
 50
272.3579159999999
 51
0.0
  0
LINE
  5
414
330
1E
100
AcDbEntity
  8
Rüttler
100
AcDbLine
 10
228.7095229999999
 20
308.98566
 30
0.0
 11
185.0037739999999
 21
308.182895
 31
0.0
  0
LINE
  5
415
330
1E
100
AcDbEntity
  8
Rüttler
100
AcDbLine
 10
233.503835
 20
387.952487
 30
0.0
 11
233.503835
 21
313.98093
 31
0.0
  0
LINE
  5
416
330
1E
100
AcDbEntity
  8
Rüttler
100
AcDbLine
 10
185.0037739999999
 20
404.1828029999999
 30
0.0
 11
228.7095229999999
 21
403.382175
 31
0.0
  0
ARC
  5
417
330
1E
100
AcDbEntity
  8
Rüttler
100
AcDbCircle
 10
228.503835
 20
398.386142
 30
0.0
 40
4.999899
100
AcDbArc
 50
26.580691
 51
87.64244299999999
  0
LINE
  5
419
330
1E
100
AcDbEntity
  8
Rüttler
100
AcDbLine
 10
364.504506
 20
276.182964
 30
0.0
 11
328.504445
 21
276.182964
 31
0.0
  0
LINE
  5
41A
330
1E
100
AcDbEntity
  8
Rüttler
100
AcDbLine
 10
490.504572
 20
276.182964
 30
0.0
 11
454.504511
 21
276.182964
 31
0.0
  0
LINE
  5
41B
330
1E
100
AcDbEntity
  8
Rüttler
100
AcDbLine
 10
490.504572
 20
299.182841
 30
0.0
 11
490.504572
 21
276.182964
 31
0.0
  0
LINE
  5
41C
330
1E
100
AcDbEntity
  8
Rüttler
100
AcDbLine
 10
456.504633
 20
301.182811
 30
0.0
 11
488.50445
 21
301.182811
 31
0.0
  0
LINE
  5
41D
330
1E
100
AcDbEntity
  8
Rüttler
100
AcDbLine
 10
328.504445
 20
276.182964
 30
0.0
 11
328.504445
 21
299.182841
 31
0.0
  0
LINE
  5
41E
330
1E
100
AcDbEntity
  8
Rüttler
100
AcDbLine
 10
453.2212469999999
 20
393.8105269999999
 30
0.0
 11
457.14245
 21
362.067363
 31
0.0
  0
LINE
  5
41F
330
1E
100
AcDbEntity
  8
Rüttler
100
AcDbLine
 10
447.132074
 20
399.899699
 30
0.0
 11
415.388596
 21
403.8207499999999
 31
0.0
  0
ARC
  5
420
330
1E
100
AcDbEntity
  8
Rüttler
100
AcDbCircle
 10
446.27392
 20
392.952373
 30
0.0
 40
7.000126999999999
100
AcDbArc
 50
7.041674999999997
 51
82.95832500000002
  0
LINE
  5
421
330
1E
100
AcDbEntity
  8
Rüttler
100
AcDbLine
 10
449.004633
 20
320.182902
 30
0.0
 11
449.004633
 21
328.9110819999999
 31
0.0
  0
LINE
  5
422
330
1E
100
AcDbEntity
  8
Rüttler
100
AcDbLine
 10
437.004511
 20
308.1827799999999
 30
0.0
 11
409.5045009999999
 21
308.1827799999999
 31
0.0
  0
ARC
  5
423
330
1E
100
AcDbEntity
  8
Rüttler
100
AcDbCircle
 10
409.5045009999999
 20
356.182811
 30
0.0
 40
48.000079
100
AcDbArc
 50
325.3779779999999
 51
7.041878000000001
  0
ARC
  5
424
330
1E
100
AcDbEntity
  8
Rüttler
100
AcDbCircle
 10
409.5045009999999
 20
356.182811
 30
0.0
 40
47.999957
100
AcDbArc
 50
82.95866300000002
 51
90.0
  0
LINE
  5
425
330
1E
100
AcDbEntity
  8
Rüttler
100
AcDbLine
 10
365.0641959999999
 20
387.952373
 30
0.0
 11
361.866564
 21
362.067363
 31
0.0
  0
LINE
  5
426
330
1E
100
AcDbEntity
  8
Rüttler
100
AcDbLine
 10
365.787768
 20
393.8105269999999
 30
0.0
 11
365.0641959999999
 21
387.952373
 31
0.0
  0
LINE
  5
427
330
1E
100
AcDbEntity
  8
Rüttler
100
AcDbLine
 10
377.7350919999999
 20
400.6232709999999
 30
0.0
 11
403.620407
 21
403.8207499999999
 31
0.0
  0
LINE
  5
428
330
1E
100
AcDbEntity
  8
Rüttler
100
AcDbLine
 10
371.8769379999999
 20
399.899699
 30
0.0
 11
377.7350919999999
 21
400.6232709999999
 31
0.0
  0
ARC
  5
429
330
1E
100
AcDbEntity
  8
Rüttler
100
AcDbCircle
 10
372.735092
 20
392.952373
 30
0.0
 40
7.000126999999999
100
AcDbArc
 50
97.04167399999997
 51
172.958323
  0
ARC
  5
42A
330
1E
100
AcDbEntity
  8
Rüttler
100
AcDbCircle
 10
377.004506
 20
315.182902
 30
0.0
 40
7.000122
100
AcDbArc
 50
180.0
 51
270.0
  0
LINE
  5
42B
330
1E
100
AcDbEntity
  8
Rüttler
100
AcDbLine
 10
370.0043839999999
 20
320.182902
 30
0.0
 11
370.0043839999999
 21
328.9110819999999
 31
0.0
  0
LINE
  5
42C
330
1E
100
AcDbEntity
  8
Rüttler
100
AcDbLine
 10
370.0043839999999
 20
315.182902
 30
0.0
 11
370.0043839999999
 21
320.182902
 31
0.0
  0
LINE
  5
42D
330
1E
100
AcDbEntity
  8
Rüttler
100
AcDbLine
 10
382.0045059999999
 20
308.1827799999999
 30
0.0
 11
409.5045009999999
 21
308.1827799999999
 31
0.0
  0
LINE
  5
42E
330
1E
100
AcDbEntity
  8
Rüttler
100
AcDbLine
 10
377.004506
 20
308.1827799999999
 30
0.0
 11
382.0045059999999
 21
308.1827799999999
 31
0.0
  0
ARC
  5
42F
330
1E
100
AcDbEntity
  8
Rüttler
100
AcDbCircle
 10
409.5045009999999
 20
356.182811
 30
0.0
 40
48.00000999999999
100
AcDbArc
 50
172.95812
 51
214.6220309999999
  0
ARC
  5
430
330
1E
100
AcDbEntity
  8
Rüttler
100
AcDbCircle
 10
409.5045009999999
 20
356.182811
 30
0.0
 40
48.000031
100
AcDbArc
 50
90.0
 51
97.04133799999997
  0
LINE
  5
432
330
1E
100
AcDbEntity
  8
1
  6
STRICHPUNKT
 62
     7
 48
10.0
100
AcDbLine
 10
429.504511
 20
293.682811
 30
0.0
 11
389.5045109999999
 21
293.682811
 31
0.0
  0
CIRCLE
  5
437
330
1E
100
AcDbEntity
  8
1
100
AcDbCircle
 10
409.504511
 20
293.682811
 30
0.0
 40
11.599998
  0
CIRCLE
  5
438
330
1E
100
AcDbEntity
  8
1
100
AcDbCircle
 10
409.504511
 20
293.682811
 30
0.0
 40
8.0
  0
ARC
  5
439
330
1E
100
AcDbEntity
  8
Rüttler
100
AcDbCircle
 10
23.503835
 20
61.97958699999997
 30
0.0
 40
5.0
100
AcDbArc
 50
180.0
 51
267.6388779999999
  0
LINE
  5
43A
330
1E
100
AcDbEntity
  8
Rüttler
100
AcDbLine
 10
67.003896
 20
56.18292499999999
 30
0.0
 11
23.297841
 21
56.98370699999997
 31
0.0
  0
LINE
  5
43B
330
1E
100
AcDbEntity
  8
Rüttler
100
AcDbLine
 10
18.50383500000001
 20
144.2024929999999
 30
0.0
 11
18.50383500000001
 21
137.7025539999999
 31
0.0
  0
ARC
  5
43C
330
1E
100
AcDbEntity
  8
Rüttler
100
AcDbCircle
 10
228.5039194998618
 20
61.979606
 30
0.0
 40
4.999830999999999
100
AcDbArc
 50
333.4208729999999
 51
0.0
  0
ARC
  5
43D
330
1E
100
AcDbEntity
  8
Rüttler
100
AcDbCircle
 10
228.5039194998618
 20
61.979606
 30
0.0
 40
5.000112999999999
100
AcDbArc
 50
272.3576279999999
 51
333.4208729999999
  0
LINE
  5
43E
330
1E
100
AcDbEntity
  8
Rüttler
100
AcDbLine
 10
185.0037739999999
 20
56.18294399999999
 30
0.0
 11
228.7096074998618
 21
56.983726
 31
0.0
  0
LINE
  5
441
330
1E
100
AcDbEntity
  8
Rüttler
100
AcDbLine
 10
233.503835
 20
396.202457
 30
0.0
 11
233.503835
 21
389.7025179999999
 31
0.0
  0
ARC
  5
442
330
1E
100
AcDbEntity
  8
1
100
AcDbCircle
 10
409.504511
 20
293.682811
 30
0.0
 40
13.25012199999999
100
AcDbArc
 50
0.0
 51
4.913123
  0
LINE
  5
443
330
1E
100
AcDbEntity
  8
1
100
AcDbLine
 10
417.087814
 20
304.548289
 30
0.0
 11
422.705805
 21
294.817607
 31
0.0
  0
ARC
  5
444
330
1E
100
AcDbEntity
  8
1
100
AcDbCircle
 10
409.504511
 20
293.682811
 30
0.0
 40
13.25009899999999
100
AcDbArc
 50
55.08779800000001
 51
64.91290799999999
  0
LINE
  5
445
330
1E
100
AcDbEntity
  8
1
100
AcDbLine
 10
415.122482
 20
305.6829329999999
 30
0.0
 11
409.5045009999999
 21
305.6829329999999
 31
0.0
  0
ARC
  5
446
330
1E
100
AcDbEntity
  8
1
100
AcDbCircle
 10
409.504511
 20
293.682811
 30
0.0
 40
13.249965
100
AcDbArc
 50
355.087534
 51
0.0
  0
LINE
  5
447
330
1E
100
AcDbEntity
  8
1
100
AcDbLine
 10
417.087824
 20
282.817638
 30
0.0
 11
422.705805
 21
292.5481669999999
 31
0.0
  0
ARC
  5
448
330
1E
100
AcDbEntity
  8
1
100
AcDbCircle
 10
409.504511
 20
293.682811
 30
0.0
 40
13.249804
100
AcDbArc
 50
295.0876880000001
 51
304.912991
  0
LINE
  5
449
330
1E
100
AcDbEntity
  8
1
100
AcDbLine
 10
415.1224919999999
 20
281.682994
 30
0.0
 11
409.504511
 21
281.682994
 31
0.0
  0
ARC
  5
44A
330
1E
100
AcDbEntity
  8
1
100
AcDbCircle
 10
409.504511
 20
293.682811
 30
0.0
 40
13.25012199999999
100
AcDbArc
 50
180.0
 51
184.912466
  0
LINE
  5
44B
330
1E
100
AcDbEntity
  8
1
100
AcDbLine
 10
401.9211979999999
 20
282.817638
 30
0.0
 11
396.303217
 21
292.5481669999999
 31
0.0
  0
ARC
  5
44C
330
1E
100
AcDbEntity
  8
1
100
AcDbCircle
 10
409.504511
 20
293.682811
 30
0.0
 40
13.249854
100
AcDbArc
 50
235.0870089999999
 51
244.912312
  0
LINE
  5
44D
330
1E
100
AcDbEntity
  8
1
100
AcDbLine
 10
403.88653
 20
281.682994
 30
0.0
 11
409.504511
 21
281.682994
 31
0.0
  0
ARC
  5
44E
330
1E
100
AcDbEntity
  8
1
100
AcDbCircle
 10
409.504511
 20
293.682811
 30
0.0
 40
13.249978
100
AcDbArc
 50
175.0868759999999
 51
180.0
  0
LINE
  5
44F
330
1E
100
AcDbEntity
  8
1
100
AcDbLine
 10
401.9211879999999
 20
304.548289
 30
0.0
 11
396.303217
 21
294.817607
 31
0.0
  0
ARC
  5
450
330
1E
100
AcDbEntity
  8
1
100
AcDbCircle
 10
409.504511
 20
293.682811
 30
0.0
 40
13.250085
100
AcDbArc
 50
115.087166
 51
124.9122699999999
  0
LINE
  5
451
330
1E
100
AcDbEntity
  8
1
100
AcDbLine
 10
403.88652
 20
305.6829329999999
 30
0.0
 11
409.5045009999999
 21
305.6829329999999
 31
0.0
  0
TEXT
  5
56D
330
1E
100
AcDbEntity
  8
Text
  6
Continuous
 62
    10
370
    50
100
AcDbText
 10
344.7693306248552
 20
134.7204017354213
 30
0.0
 40
10.0
  1
%%uRZ 15
  7
Stil1
100
AcDbText
  0
LINE
  5
62B
330
1E
100
AcDbEntity
  8
0
  6
STRICHPUNKT
 62
     7
 48
8.0
370
    18
100
AcDbLine
 10
173.5038500000112
 20
171.682935
 30
0.0
 11
193.5038199999887
 21
171.682935
 31
0.0
  0
LINE
  5
62C
330
1E
100
AcDbEntity
  8
0
  6
STRICHPUNKT
 62
     7
 48
8.0
370
    18
100
AcDbLine
 10
183.5038349999999
 20
181.682935
 30
0.0
 11
183.5038349999999
 21
161.6829649999999
 31
0.0
  0
LINE
  5
62D
330
1E
100
AcDbEntity
  8
0
  6
STRICHPUNKT
 62
     7
 48
8.0
370
    18
100
AcDbLine
 10
156.0038500000112
 20
159.18295
 30
0.0
 11
176.0038199999887
 21
159.18295
 31
0.0
  0
LINE
  5
62E
330
1E
100
AcDbEntity
  8
0
  6
STRICHPUNKT
 62
     7
 48
8.0
370
    18
100
AcDbLine
 10
166.003835
 20
169.18295
 30
0.0
 11
166.003835
 21
149.1829799999999
 31
0.0
  0
LINE
  5
62F
330
1E
100
AcDbEntity
  8
0
  6
STRICHPUNKT
 62
     7
 48
8.0
370
    18
100
AcDbLine
 10
193.503835
 20
171.682965
 30
0.0
 11
193.503835
 21
151.6829949999999
 31
0.0
  0
LINE
  5
630
330
1E
100
AcDbEntity
  8
0
  6
STRICHPUNKT
 62
     7
 48
8.0
370
    18
100
AcDbLine
 10
183.5038500000112
 20
161.6829649999999
 30
0.0
 11
203.5038199999887
 21
161.6829649999999
 31
0.0
  0
LINE
  5
631
330
1E
100
AcDbEntity
  8
0
  6
STRICHPUNKT
 62
     7
 48
8.0
370
    18
100
AcDbLine
 10
188.003835
 20
169.18295
 30
0.0
 11
188.003835
 21
149.1829799999999
 31
0.0
  0
LINE
  5
632
330
1E
100
AcDbEntity
  8
0
  6
STRICHPUNKT
 62
     7
 48
8.0
370
    18
100
AcDbLine
 10
178.0038500000112
 20
159.18295
 30
0.0
 11
198.0038199999887
 21
159.18295
 31
0.0
  0
LINE
  5
633
330
1E
100
AcDbEntity
  8
0
  6
STRICHPUNKT
 62
     7
 48
8.0
370
    18
100
AcDbLine
 10
74.00381999998876
 20
159.18295
 30
0.0
 11
54.00385000001126
 21
159.18295
 31
0.0
  0
LINE
  5
634
330
1E
100
AcDbEntity
  8
0
  6
STRICHPUNKT
 62
     7
 48
8.0
370
    18
100
AcDbLine
 10
68.50381999998876
 20
161.6829649999999
 30
0.0
 11
48.50385000001125
 21
161.6829649999999
 31
0.0
  0
LINE
  5
635
330
1E
100
AcDbEntity
  8
0
  6
STRICHPUNKT
 62
     7
 48
8.0
370
    18
100
AcDbLine
 10
64.00383500000001
 20
169.18295
 30
0.0
 11
64.00383500000001
 21
149.1829799999999
 31
0.0
  0
LINE
  5
636
330
1E
100
AcDbEntity
  8
0
  6
STRICHPUNKT
 62
     7
 48
8.0
370
    18
100
AcDbLine
 10
58.50383500000001
 20
171.682965
 30
0.0
 11
58.50383500000001
 21
151.6829949999999
 31
0.0
  0
LINE
  5
637
330
1E
100
AcDbEntity
  8
0
  6
STRICHPUNKT
 62
     7
 48
8.0
370
    18
100
AcDbLine
 10
86.00383500000001
 20
169.18295
 30
0.0
 11
86.00383500000001
 21
149.1829799999999
 31
0.0
  0
LINE
  5
638
330
1E
100
AcDbEntity
  8
0
  6
STRICHPUNKT
 62
     7
 48
8.0
370
    18
100
AcDbLine
 10
103.5038199999887
 20
174.182935
 30
0.0
 11
83.50385000001125
 21
174.182935
 31
0.0
  0
LINE
  5
639
330
1E
100
AcDbEntity
  8
0
  6
STRICHPUNKT
 62
     7
 48
8.0
370
    18
100
AcDbLine
 10
96.00381999998876
 20
159.18295
 30
0.0
 11
76.00385000001125
 21
159.18295
 31
0.0
  0
LINE
  5
63A
330
1E
100
AcDbEntity
  8
0
  6
STRICHPUNKT
 62
     7
 48
8.0
370
    18
100
AcDbLine
 10
93.50383500000001
 20
184.182935
 30
0.0
 11
93.50383500000001
 21
164.182965
 31
0.0
  0
LINE
  5
63B
330
1E
100
AcDbEntity
  8
0
  6
STRICHPUNKT
 62
     7
 48
8.0
370
    18
100
AcDbLine
 10
68.50383500000001
 20
181.682935
 30
0.0
 11
68.50383500000001
 21
161.6829649999999
 31
0.0
  0
LINE
  5
63C
330
1E
100
AcDbEntity
  8
0
  6
STRICHPUNKT
 62
     7
 48
8.0
370
    18
100
AcDbLine
 10
78.50381999998876
 20
171.682935
 30
0.0
 11
58.50385000001125
 21
171.682935
 31
0.0
  0
LINE
  5
63D
330
1E
100
AcDbEntity
  8
0
  6
STRICHPUNKT
 62
     7
 48
8.0
370
    18
100
AcDbLine
 10
103.5038199999887
 20
34.18299499999998
 30
0.0
 11
83.50385000001128
 21
34.18299499999994
 31
0.0
  0
LINE
  5
63E
330
1E
100
AcDbEntity
  8
0
  6
STRICHPUNKT
 62
     7
 48
8.0
370
    18
100
AcDbLine
 10
86.00383500000004
 20
39.18297999999996
 30
0.0
 11
86.00383500000002
 21
59.18294999999997
 31
0.0
  0
LINE
  5
63F
330
1E
100
AcDbEntity
  8
0
  6
STRICHPUNKT
 62
     7
 48
8.0
370
    18
100
AcDbLine
 10
58.50383500000003
 20
36.68296499999996
 30
0.0
 11
58.50383500000003
 21
56.68293499999998
 31
0.0
  0
LINE
  5
640
330
1E
100
AcDbEntity
  8
0
  6
STRICHPUNKT
 62
     7
 48
8.0
370
    18
100
AcDbLine
 10
64.00383500000002
 20
39.18297999999996
 30
0.0
 11
64.00383500000002
 21
59.18294999999997
 31
0.0
  0
LINE
  5
641
330
1E
100
AcDbEntity
  8
0
  6
STRICHPUNKT
 62
     7
 48
8.0
370
    18
100
AcDbLine
 10
68.50381999998876
 20
46.68296499999996
 30
0.0
 11
48.50385000001128
 21
46.68296499999996
 31
0.0
  0
LINE
  5
642
330
1E
100
AcDbEntity
  8
0
  6
STRICHPUNKT
 62
     7
 48
8.0
370
    18
100
AcDbLine
 10
74.00381999998876
 20
49.18297999999996
 30
0.0
 11
54.00385000001127
 21
49.18297999999996
 31
0.0
  0
LINE
  5
643
330
1E
100
AcDbEntity
  8
0
  6
STRICHPUNKT
 62
     7
 48
8.0
370
    18
100
AcDbLine
 10
78.50381999998879
 20
36.68299499999994
 30
0.0
 11
58.50385000001128
 21
36.68299499999994
 31
0.0
  0
LINE
  5
644
330
1E
100
AcDbEntity
  8
0
  6
STRICHPUNKT
 62
     7
 48
8.0
370
    18
100
AcDbLine
 10
96.00381999998878
 20
49.18297999999999
 30
0.0
 11
76.00385000001127
 21
49.18297999999996
 31
0.0
  0
LINE
  5
645
330
1E
100
AcDbEntity
  8
0
  6
STRICHPUNKT
 62
     7
 48
8.0
370
    18
100
AcDbLine
 10
68.50383500000002
 20
26.68299499999994
 30
0.0
 11
68.50383500000002
 21
46.68296499999996
 31
0.0
  0
LINE
  5
646
330
1E
100
AcDbEntity
  8
0
  6
STRICHPUNKT
 62
     7
 48
8.0
370
    18
100
AcDbLine
 10
93.50383500000004
 20
24.18299499999998
 30
0.0
 11
93.50383500000002
 21
44.18296499999999
 31
0.0
  0
LINE
  5
647
330
1E
100
AcDbEntity
  8
0
  6
STRICHPUNKT
 62
     7
 48
8.0
370
    18
100
AcDbLine
 10
178.0038500000112
 20
49.18298000000001
 30
0.0
 11
198.0038199999887
 21
49.18298000000001
 31
0.0
  0
LINE
  5
648
330
1E
100
AcDbEntity
  8
0
  6
STRICHPUNKT
 62
     7
 48
8.0
370
    18
100
AcDbLine
 10
183.5038500000112
 20
46.68296500000002
 30
0.0
 11
203.5038199999887
 21
46.68296500000002
 31
0.0
  0
LINE
  5
649
330
1E
100
AcDbEntity
  8
0
  6
STRICHPUNKT
 62
     7
 48
8.0
370
    18
100
AcDbLine
 10
188.003835
 20
39.18298000000001
 30
0.0
 11
188.003835
 21
59.18295000000004
 31
0.0
  0
LINE
  5
64A
330
1E
100
AcDbEntity
  8
0
  6
STRICHPUNKT
 62
     7
 48
8.0
370
    18
100
AcDbLine
 10
193.503835
 20
36.68296500000002
 30
0.0
 11
193.503835
 21
56.68293500000004
 31
0.0
  0
LINE
  5
64B
330
1E
100
AcDbEntity
  8
0
  6
STRICHPUNKT
 62
     7
 48
8.0
370
    18
100
AcDbLine
 10
166.003835
 20
39.18298000000001
 30
0.0
 11
166.003835
 21
59.18295000000004
 31
0.0
  0
LINE
  5
64C
330
1E
100
AcDbEntity
  8
0
  6
STRICHPUNKT
 62
     7
 48
8.0
370
    18
100
AcDbLine
 10
148.5038500000112
 20
34.18299499999998
 30
0.0
 11
168.5038199999888
 21
34.182995
 31
0.0
  0
LINE
  5
64D
330
1E
100
AcDbEntity
  8
0
  6
STRICHPUNKT
 62
     7
 48
8.0
370
    18
100
AcDbLine
 10
156.0038500000112
 20
49.18298000000001
 30
0.0
 11
176.0038199999887
 21
49.18298000000001
 31
0.0
  0
LINE
  5
64E
330
1E
100
AcDbEntity
  8
0
  6
STRICHPUNKT
 62
     7
 48
8.0
370
    18
100
AcDbLine
 10
158.503835
 20
24.182995
 30
0.0
 11
158.503835
 21
44.18296500000002
 31
0.0
  0
LINE
  5
64F
330
1E
100
AcDbEntity
  8
0
  6
STRICHPUNKT
 62
     7
 48
8.0
370
    18
100
AcDbLine
 10
183.503835
 20
26.682995
 30
0.0
 11
183.503835
 21
46.68296500000002
 31
0.0
  0
LINE
  5
650
330
1E
100
AcDbEntity
  8
0
  6
STRICHPUNKT
 62
     7
 48
8.0
370
    18
100
AcDbLine
 10
173.5038500000112
 20
36.682995
 30
0.0
 11
193.5038199999888
 21
36.682995
 31
0.0
  0
LINE
  5
651
330
1E
100
AcDbEntity
  8
1
  6
Continuous
100
AcDbLine
 10
65.503957
 20
305.682285
 30
0.0
 11
68.003957
 21
305.682285
 31
0.0
  0
LINE
  5
961
330
1E
100
AcDbEntity
  8
0
370
    18
100
AcDbLine
 10
110.9396054878233
 20
104.7049911016827
 30
0.0
 11
111.649195502572
 21
102.9528318701516
 31
0.0
  0
LINE
  5
962
330
1E
100
AcDbEntity
  8
0
370
    18
100
AcDbLine
 10
111.1674293259944
 20
101.0006238000914
 30
0.0
 11
112.4414740662998
 21
101.0006238000914
 31
0.0
  0
LINE
  5
963
330
1E
100
AcDbEntity
  8
0
370
    18
100
AcDbLine
 10
111.6179976190725
 20
107.0888871008479
 30
0.0
 11
111.1584589547188
 21
105.373865457439
 31
0.0
  0
LINE
  5
964
330
1E
100
AcDbEntity
  8
0
370
    18
100
AcDbLine
 10
112.1510411816488
 20
109.0782327590304
 30
0.0
 11
110.8087760508592
 21
109.0782327590304
 31
0.0
  0
LWPOLYLINE
  5
965
330
1E
100
AcDbEntity
  8
0
  6
Continuous
100
AcDbPolyline
 90
        4
 70
     1
 43
0.0
 10
101.5251427943683
 20
95.68935258477337
 10
150.4825272056316
 20
95.68935258477337
 10
150.4825272056316
 20
112.6765774152266
 10
101.5251427943683
 20
112.6765774152266
  0
LINE
  5
966
330
1E
100
AcDbEntity
  8
0
370
    18
100
AcDbLine
 10
109.6784196405566
 20
104.7049911016827
 30
0.0
 11
108.6858374136268
 21
101.0006238000914
 31
0.0
  0
LINE
  5
967
330
1E
100
AcDbEntity
  8
0
370
    18
100
AcDbLine
 10
105.3520738285572
 20
104.7049911016827
 30
0.0
 11
104.3594916016271
 21
101.0006238000914
 31
0.0
  0
LINE
  5
968
330
1E
100
AcDbEntity
  8
0
370
    18
100
AcDbLine
 10
106.381548496921
 20
103.6858158958505
 30
0.0
 11
106.2575014221713
 21
103.2228659103548
 31
0.0
  0
LINE
  5
969
330
1E
100
AcDbEntity
  8
0
370
    18
100
AcDbLine
 10
104.3594916016276
 20
101.0006238000914
 30
0.0
 11
108.1548315433776
 21
101.0006238000914
 31
0.0
  0
LINE
  5
96A
330
1E
100
AcDbEntity
  8
0
370
    18
100
AcDbLine
 10
108.7502795222092
 20
103.2228659103548
 30
0.0
 11
106.2575014221713
 21
103.2228659103548
 31
0.0
  0
LINE
  5
96B
330
1E
100
AcDbEntity
  8
0
370
    18
100
AcDbLine
 10
105.9347957436414
 20
102.0185119221893
 30
0.0
 11
108.4378498110455
 21
102.0185119221893
 31
0.0
  0
LINE
  5
96C
330
1E
100
AcDbEntity
  8
0
370
    18
100
AcDbLine
 10
106.0591073672613
 20
102.4824492175095
 30
0.0
 11
108.5518854672991
 21
102.4824492175095
 31
0.0
  0
LINE
  5
96D
330
1E
100
AcDbEntity
  8
0
370
    18
100
AcDbLine
 10
106.0591073672613
 20
102.4824492175095
 30
0.0
 11
105.9347957436414
 21
102.0185119221893
 31
0.0
  0
LINE
  5
96E
330
1E
100
AcDbEntity
  8
0
370
    18
100
AcDbLine
 10
106.0591073672613
 20
102.4824492175095
 30
0.0
 11
105.9450717110076
 21
102.0568623544975
 31
0.0
  0
LINE
  5
96F
330
1E
100
AcDbEntity
  8
0
370
    18
100
AcDbLine
 10
108.1548315433776
 20
101.0006238000914
 30
0.0
 11
108.4275738436793
 21
102.0185119221893
 31
0.0
  0
LINE
  5
970
330
1E
100
AcDbEntity
  8
0
370
    18
100
AcDbLine
 10
110.4602940195453
 20
102.7617590359326
 30
0.0
 11
109.9883992553394
 21
101.0006238000914
 31
0.0
  0
LINE
  5
971
330
1E
100
AcDbEntity
  8
0
370
    18
100
AcDbLine
 10
108.6858374136268
 20
101.0006238000914
 30
0.0
 11
109.9883992553394
 21
101.0006238000914
 31
0.0
  0
LINE
  5
972
330
1E
100
AcDbEntity
  8
0
370
    18
100
AcDbLine
 10
108.5518854672991
 20
102.4824492175095
 30
0.0
 11
108.7502795222092
 21
103.2228659103548
 31
0.0
  0
LINE
  5
973
330
1E
100
AcDbEntity
  8
0
370
    18
100
AcDbLine
 10
111.1674293259944
 20
101.0006238000914
 30
0.0
 11
110.4602940195453
 21
102.7617590359326
 31
0.0
  0
LINE
  5
974
330
1E
100
AcDbEntity
  8
0
370
    18
100
AcDbLine
 10
109.1474137703072
 20
104.7049911016827
 30
0.0
 11
105.3520738285572
 21
104.7049911016827
 31
0.0
  0
LINE
  5
975
330
1E
100
AcDbEntity
  8
0
370
    18
100
AcDbLine
 10
108.8743265969588
 20
103.6858158958505
 30
0.0
 11
109.1474137703072
 21
104.7049911016827
 31
0.0
  0
LINE
  5
976
330
1E
100
AcDbEntity
  8
0
370
    18
100
AcDbLine
 10
108.8743265969588
 20
103.6858158958505
 30
0.0
 11
106.3712725295547
 21
103.6858158958505
 31
0.0
  0
LINE
  5
977
330
1E
100
AcDbEntity
  8
0
370
    18
100
AcDbLine
 10
110.8087760508592
 20
109.0782327590304
 30
0.0
 11
109.8161938239293
 21
105.373865457439
 31
0.0
  0
LWPOLYLINE
  5
978
330
1E
100
AcDbEntity
  8
0
370
    18
100
AcDbPolyline
 90
        4
 70
     1
 43
0.0
 10
106.2047306109842
 20
107.6562351396993
 10
105.609181274826
 20
105.4336147587443
 10
109.0607201825708
 20
105.4336147587443
 10
109.6562695187289
 20
107.6562351396993
  0
LINE
  5
979
330
1E
100
AcDbEntity
  8
0
370
    18
100
AcDbLine
 10
110.9396054878233
 20
104.7049911016827
 30
0.0
 11
109.6784196405566
 21
104.7049911016827
 31
0.0
  0
LINE
  5
97A
330
1E
100
AcDbEntity
  8
0
370
    18
100
AcDbLine
 10
109.8161938239293
 20
105.373865457439
 30
0.0
 11
111.1584589547188
 21
105.373865457439
 31
0.0
  0
ARC
  5
97B
330
1E
100
AcDbEntity
  8
0
370
    18
100
AcDbCircle
 10
134.4904797026704
 20
108.0657715419109
 30
0.0
 40
0.7682193793950698
100
AcDbArc
 50
270.1852188608381
 51
291.3103783431897
  0
LINE
  5
97C
330
1E
100
AcDbEntity
  8
0
370
    18
100
AcDbLine
 10
134.3760654580745
 20
101.0105496223607
 30
0.0
 11
136.0850699449798
 21
101.0105496223607
 31
0.0
  0
LINE
  5
97D
330
1E
100
AcDbEntity
  8
0
370
    18
100
AcDbLine
 10
134.2389631822926
 20
105.373865457439
 30
0.0
 11
135.9479676691981
 21
105.373865457439
 31
0.0
  0
LWPOLYLINE
  5
97E
330
1E
100
AcDbEntity
  8
0
370
    18
100
AcDbPolyline
 90
        4
 70
     1
 43
0.0
 10
122.9768874826329
 20
100.4121398730033
 10
122.3813381464749
 20
98.18951949204839
 10
145.4323440645775
 20
98.18951949204839
 10
146.0278934007356
 20
100.4121398730033
  0
LINE
  5
97F
330
1E
100
AcDbEntity
  8
0
370
    18
100
AcDbLine
 10
134.6300653779379
 20
102.9342403414621
 30
0.0
 11
133.4636976037685
 21
102.9342403414621
 31
0.0
  0
LINE
  5
980
330
1E
100
AcDbEntity
  8
0
370
    18
100
AcDbLine
 10
135.978108530151
 20
104.7149169239519
 30
0.0
 11
132.6382666143152
 21
104.7149169239519
 31
0.0
  0
LINE
  5
981
330
1E
100
AcDbEntity
  8
0
370
    18
100
AcDbLine
 10
135.8410062543693
 20
109.0782327590304
 30
0.0
 11
132.5011643385334
 21
109.0782327590304
 31
0.0
  0
LINE
  5
982
330
1E
100
AcDbEntity
  8
0
370
    18
100
AcDbLine
 10
134.8206923245699
 20
103.8383365706039
 30
0.0
 11
133.7059494582471
 21
103.8383365706039
 31
0.0
  0
LINE
  5
983
330
1E
100
AcDbEntity
  8
0
370
    18
100
AcDbLine
 10
134.6835900487881
 20
108.2016524056824
 30
0.0
 11
133.5688471824658
 21
108.2016524056824
 31
0.0
  0
LINE
  5
984
330
1E
100
AcDbEntity
  8
0
370
    18
100
AcDbLine
 10
122.6219315384834
 20
101.0006238000914
 30
0.0
 11
123.6145137654133
 21
104.7049911016827
 31
0.0
  0
ARC
  5
985
330
1E
100
AcDbEntity
  8
0
370
    18
100
AcDbCircle
 10
124.025889368914
 20
106.394355442055
 30
0.0
 40
0.9587608077068694
100
AcDbArc
 50
164.9999999999988
 51
261.6882763531173
  0
LINE
  5
986
330
1E
100
AcDbEntity
  8
0
370
    18
100
AcDbLine
 10
123.6145137654133
 20
104.7049911016827
 30
0.0
 11
122.2991426258553
 21
104.7049911016827
 31
0.0
  0
LINE
  5
987
330
1E
100
AcDbEntity
  8
0
370
    18
100
AcDbLine
 10
118.0547354148536
 20
104.7049911016827
 30
0.0
 11
117.062153187924
 21
101.0006238000914
 31
0.0
  0
LINE
  5
988
330
1E
100
AcDbEntity
  8
0
370
    18
100
AcDbLine
 10
119.3970005456432
 20
104.7049911016827
 30
0.0
 11
118.4044183187136
 21
101.0006238000914
 31
0.0
  0
LINE
  5
989
330
1E
100
AcDbEntity
  8
0
370
    18
100
AcDbLine
 10
119.8588771127403
 20
104.7049911016827
 30
0.0
 11
118.8662948858104
 21
101.0006238000914
 31
0.0
  0
LINE
  5
98A
330
1E
100
AcDbEntity
  8
0
370
    18
100
AcDbLine
 10
121.1200629600069
 20
104.7049911016827
 30
0.0
 11
121.8296529747558
 21
102.9528318701516
 31
0.0
  0
LINE
  5
98B
330
1E
100
AcDbEntity
  8
0
370
    18
100
AcDbLine
 10
121.8296529747558
 20
102.9528318701516
 30
0.0
 11
122.2991426258553
 21
104.7049911016827
 31
0.0
  0
LINE
  5
98C
330
1E
100
AcDbEntity
  8
0
370
    18
100
AcDbLine
 10
112.4414740662998
 20
101.0006238000914
 30
0.0
 11
113.4340562932295
 21
104.7049911016827
 31
0.0
  0
LINE
  5
98D
330
1E
100
AcDbEntity
  8
0
370
    18
100
AcDbLine
 10
111.649195502572
 20
102.9528318701516
 30
0.0
 11
112.1186851536715
 21
104.7049911016827
 31
0.0
  0
ARC
  5
98E
330
1E
100
AcDbEntity
  8
0
370
    18
100
AcDbCircle
 10
121.3087494011319
 20
100.881229130997
 30
0.0
 40
8.224997010073714
100
AcDbArc
 50
157.3874044007947
 51
171.0200151799526
  0
ARC
  5
98F
330
1E
100
AcDbEntity
  8
0
370
    18
100
AcDbCircle
 10
120.7327836034041
 20
101.1329715897823
 30
0.0
 40
6.22149298766157
100
AcDbArc
 50
158.0969939507942
 51
170.4856136403676
  0
LINE
  5
990
330
1E
100
AcDbEntity
  8
0
370
    18
100
AcDbLine
 10
117.062153187924
 20
101.0006238000914
 30
0.0
 11
118.4044183187136
 21
101.0006238000914
 31
0.0
  0
ARC
  5
991
330
1E
100
AcDbEntity
  8
0
370
    18
100
AcDbCircle
 10
114.9821844845888
 20
108.116897664776
 30
0.0
 40
7.119253077153191
100
AcDbArc
 50
262.0635437036931
 51
271.6576250419802
  0
LINE
  5
992
330
1E
100
AcDbEntity
  8
0
370
    18
100
AcDbLine
 10
116.6031277974467
 20
101.0006238000914
 30
0.0
 11
114.8740834663073
 21
101.0006238000914
 31
0.0
  0
ARC
  5
993
330
1E
100
AcDbEntity
  8
0
370
    18
100
AcDbCircle
 10
115.7778337945847
 20
102.1511367693396
 30
0.0
 40
1.150512969248243
100
AcDbArc
 50
270.0
 51
270.0
  0
ARC
  5
994
330
1E
100
AcDbEntity
  8
0
370
    18
100
AcDbCircle
 10
114.1507478331009
 20
102.5986233692878
 30
0.0
 40
1.422878199650913
100
AcDbArc
 50
334.2263645027386
 51
11.71383119333146
  0
ARC
  5
995
330
1E
100
AcDbEntity
  8
0
370
    18
100
AcDbCircle
 10
115.0176531196764
 20
102.1800369958259
 30
0.0
 40
0.4602051876992975
100
AcDbArc
 50
270.0
 51
334.2263645027495
  0
LINE
  5
996
330
1E
100
AcDbEntity
  8
0
370
    18
100
AcDbLine
 10
114.9759628978408
 20
101.7198318081264
 30
0.0
 11
115.0176531196764
 21
101.7198318081264
 31
0.0
  0
ARC
  5
997
330
1E
100
AcDbEntity
  8
0
370
    18
100
AcDbCircle
 10
114.9759628978408
 20
102.1033361312092
 30
0.0
 40
0.3835043230827479
100
AcDbArc
 50
171.2985646492626
 51
270.0
  0
ARC
  5
998
330
1E
100
AcDbEntity
  8
0
370
    18
100
AcDbCircle
 10
114.1315759812132
 20
102.0154117657601
 30
0.0
 40
0.9587608077068694
100
AcDbArc
 50
171.0200151799526
 51
262.0635437036931
  0
LINE
  5
999
330
1E
100
AcDbEntity
  8
0
370
    18
100
AcDbLine
 10
116.6031277974467
 20
101.0006238000914
 30
0.0
 11
117.1087151074285
 21
102.8875013286056
 31
0.0
  0
LINE
  5
99A
330
1E
100
AcDbEntity
  8
0
370
    18
100
AcDbLine
 10
115.5439929284316
 20
102.8875013286056
 30
0.0
 11
117.1087151074285
 21
102.8875013286056
 31
0.0
  0
LINE
  5
99B
330
1E
100
AcDbEntity
  8
0
370
    18
100
AcDbLine
 10
120.6407514917285
 20
102.7617590359326
 30
0.0
 11
120.1688567275227
 21
101.0006238000914
 31
0.0
  0
LINE
  5
99C
330
1E
100
AcDbEntity
  8
0
370
    18
100
AcDbLine
 10
121.3478867981782
 20
101.0006238000914
 30
0.0
 11
120.6407514917285
 21
102.7617590359326
 31
0.0
  0
LINE
  5
99D
330
1E
100
AcDbEntity
  8
0
370
    18
100
AcDbLine
 10
118.8662948858104
 20
101.0006238000914
 30
0.0
 11
120.1688567275227
 21
101.0006238000914
 31
0.0
  0
LINE
  5
99E
330
1E
100
AcDbEntity
  8
0
370
    18
100
AcDbLine
 10
121.3478867981782
 20
101.0006238000914
 30
0.0
 11
122.6219315384834
 21
101.0006238000914
 31
0.0
  0
ARC
  5
99F
330
1E
100
AcDbEntity
  8
0
370
    18
100
AcDbCircle
 10
115.8306793522847
 20
94.89641039591535
 30
0.0
 40
8.85764661435673
100
AcDbArc
 50
80.0265067162775
 51
93.02614479233048
  0
LINE
  5
9A0
330
1E
100
AcDbEntity
  8
0
370
    18
100
AcDbLine
 10
117.0007409711144
 20
107.3260735274992
 30
0.0
 11
117.4702306222139
 21
109.0782327590304
 31
0.0
  0
ARC
  5
9A1
330
1E
100
AcDbEntity
  8
0
370
    18
100
AcDbCircle
 10
115.99523186673
 20
90.23789501688296
 30
0.0
 40
14.46807838019826
100
AcDbArc
 50
83.51735091136804
 51
95.92334440423654
  0
LINE
  5
9A2
330
1E
100
AcDbEntity
  8
0
370
    18
100
AcDbLine
 10
116.5189747945369
 20
105.373865457439
 30
0.0
 11
117.7930195348422
 21
105.373865457439
 31
0.0
  0
ARC
  5
9A3
330
1E
100
AcDbEntity
  8
0
370
    18
100
AcDbCircle
 10
115.3873646633023
 20
103.2821420038714
 30
0.0
 40
0.4602051876992975
100
AcDbArc
 50
93.02614479233048
 51
158.0969939507942
  0
LINE
  5
9A4
330
1E
100
AcDbEntity
  8
0
370
    18
100
AcDbLine
 10
113.0493329718418
 20
109.0782327590304
 30
0.0
 11
111.7532417803978
 21
107.5936251823412
 31
0.0
  0
LINE
  5
9A5
330
1E
100
AcDbEntity
  8
0
370
    18
100
AcDbLine
 10
112.1510411816488
 20
109.0782327590304
 30
0.0
 11
111.7532417803978
 21
107.5936251823412
 31
0.0
  0
LINE
  5
9A6
330
1E
100
AcDbEntity
  8
0
370
    18
100
AcDbLine
 10
116.2911509563655
 20
109.0782327590304
 30
0.0
 11
115.0299651090989
 21
109.0782327590304
 31
0.0
  0
LINE
  5
9A7
330
1E
100
AcDbEntity
  8
0
370
    18
100
AcDbLine
 10
114.6438192816866
 20
109.0782327590304
 30
0.0
 11
112.9848212628064
 21
107.1779335788491
 31
0.0
  0
LINE
  5
9A8
330
1E
100
AcDbEntity
  8
0
370
    18
100
AcDbLine
 10
114.6438192816866
 20
109.0782327590304
 30
0.0
 11
113.0493329718418
 21
109.0782327590304
 31
0.0
  0
LINE
  5
9A9
330
1E
100
AcDbEntity
  8
0
370
    18
100
AcDbLine
 10
116.2911509563655
 20
109.0782327590304
 30
0.0
 11
117.0007409711144
 21
107.3260735274992
 31
0.0
  0
LINE
  5
9AA
330
1E
100
AcDbEntity
  8
0
370
    18
100
AcDbLine
 10
113.4340562932299
 20
104.7049911016827
 30
0.0
 11
112.1186851536715
 21
104.7049911016827
 31
0.0
  0
LINE
  5
9AB
330
1E
100
AcDbEntity
  8
0
370
    18
100
AcDbLine
 10
114.0373828821692
 20
105.373865457439
 30
0.0
 11
115.3399447238817
 21
105.373865457439
 31
0.0
  0
LINE
  5
9AC
330
1E
100
AcDbEntity
  8
0
370
    18
100
AcDbLine
 10
112.2106366714629
 20
105.373865457439
 30
0.0
 11
113.6512370547567
 21
105.373865457439
 31
0.0
  0
ARC
  5
9AD
330
1E
100
AcDbEntity
  8
0
370
    18
100
AcDbCircle
 10
114.601099923327
 20
103.6750843583636
 30
0.0
 40
0.9587608077068694
100
AcDbArc
 50
95.92334440423654
 51
157.3874044008002
  0
LINE
  5
9AE
330
1E
100
AcDbEntity
  8
0
370
    18
100
AcDbLine
 10
111.6179976190725
 20
107.0888871008479
 30
0.0
 11
112.2466111434032
 21
105.3871542883449
 31
0.0
  0
LINE
  5
9AF
330
1E
100
AcDbEntity
  8
0
370
    18
100
AcDbLine
 10
115.0299651090989
 20
109.0782327590304
 30
0.0
 11
114.0373828821692
 21
105.373865457439
 31
0.0
  0
LINE
  5
9B0
330
1E
100
AcDbEntity
  8
0
370
    18
100
AcDbLine
 10
115.811839488087
 20
107.1350006932802
 30
0.0
 11
115.3399447238817
 21
105.373865457439
 31
0.0
  0
LINE
  5
9B1
330
1E
100
AcDbEntity
  8
0
370
    18
100
AcDbLine
 10
116.5189747945369
 20
105.373865457439
 30
0.0
 11
115.811839488087
 21
107.1350006932802
 31
0.0
  0
LINE
  5
9B2
330
1E
100
AcDbEntity
  8
0
370
    18
100
AcDbLine
 10
112.9848212628064
 20
107.1779335788491
 30
0.0
 11
113.6512370547567
 21
105.373865457439
 31
0.0
  0
LINE
  5
9B3
330
1E
100
AcDbEntity
  8
0
370
    18
100
AcDbLine
 10
117.3647578273644
 20
103.620200098626
 30
0.0
 11
117.628711549628
 21
104.6134658278497
 31
0.0
  0
LINE
  5
9B4
330
1E
100
AcDbEntity
  8
0
370
    18
100
AcDbLine
 10
122.8203616550391
 20
105.3719295892302
 30
0.0
 11
122.6330346123287
 21
109.0782327590304
 31
0.0
  0
LINE
  5
9B5
330
1E
100
AcDbEntity
  8
0
370
    18
100
AcDbLine
 10
118.7856017617719
 20
109.0782327590304
 30
0.0
 11
117.4702306222139
 21
109.0782327590304
 31
0.0
  0
LINE
  5
9B6
330
1E
100
AcDbEntity
  8
0
370
    18
100
AcDbLine
 10
119.9863033688219
 20
105.9022508002163
 30
0.0
 11
121.4896919762679
 21
105.9022508002163
 31
0.0
  0
LINE
  5
9B7
330
1E
100
AcDbEntity
  8
0
370
    18
100
AcDbLine
 10
120.4253727686719
 20
106.7063131897274
 30
0.0
 11
121.4490523894126
 21
106.7063131897274
 31
0.0
  0
LINE
  5
9B8
330
1E
100
AcDbEntity
  8
0
370
    18
100
AcDbLine
 10
120.4253727686719
 20
106.7063131897274
 30
0.0
 11
121.362329150924
 21
108.4221498839687
 31
0.0
  0
LINE
  5
9B9
330
1E
100
AcDbEntity
  8
0
370
    18
100
AcDbLine
 10
121.4490523894126
 20
106.7063131897274
 30
0.0
 11
121.362329150924
 21
108.4221498839687
 31
0.0
  0
LINE
  5
9BA
330
1E
100
AcDbEntity
  8
0
370
    18
100
AcDbLine
 10
121.1200629600069
 20
104.7049911016827
 30
0.0
 11
119.8588771127403
 21
104.7049911016827
 31
0.0
  0
LINE
  5
9BB
330
1E
100
AcDbEntity
  8
0
370
    18
100
AcDbLine
 10
119.3970005456432
 20
104.7049911016827
 30
0.0
 11
118.0547354148536
 21
104.7049911016827
 31
0.0
  0
LINE
  5
9BC
330
1E
100
AcDbEntity
  8
0
370
    18
100
AcDbLine
 10
118.0997747215851
 20
105.373865457439
 30
0.0
 11
119.6977712370258
 21
105.373865457439
 31
0.0
  0
LINE
  5
9BD
330
1E
100
AcDbEntity
  8
0
370
    18
100
AcDbLine
 10
117.7930195348422
 20
105.373865457439
 30
0.0
 11
118.7856017617719
 21
109.0782327590304
 31
0.0
  0
LINE
  5
9BE
330
1E
100
AcDbEntity
  8
0
370
    18
100
AcDbLine
 10
118.0997747215851
 20
105.373865457439
 30
0.0
 11
120.1225957727263
 21
109.0782327590304
 31
0.0
  0
LINE
  5
9BF
330
1E
100
AcDbEntity
  8
0
370
    18
100
AcDbLine
 10
119.6977712370258
 20
105.373865457439
 30
0.0
 11
119.9863033688219
 21
105.9022508002163
 31
0.0
  0
LINE
  5
9C0
330
1E
100
AcDbEntity
  8
0
370
    18
100
AcDbLine
 10
121.5163980656348
 20
105.373865457439
 30
0.0
 11
121.4896919762679
 21
105.9022508002163
 31
0.0
  0
LINE
  5
9C1
330
1E
100
AcDbEntity
  8
0
370
    18
100
AcDbLine
 10
122.6330346123287
 20
109.0782327590304
 30
0.0
 11
120.1225957727263
 21
109.0782327590304
 31
0.0
  0
LINE
  5
9C2
330
1E
100
AcDbEntity
  8
0
370
    18
100
AcDbLine
 10
121.5163980656348
 20
105.373865457439
 30
0.0
 11
122.8202638107856
 21
105.373865457439
 31
0.0
  0
LINE
  5
9C3
330
1E
100
AcDbEntity
  8
0
370
    18
100
AcDbLine
 10
132.6382666143152
 20
104.7149169239519
 30
0.0
 11
131.6430247713244
 21
101.0006238000914
 31
0.0
  0
LINE
  5
9C4
330
1E
100
AcDbEntity
  8
0
370
    18
100
AcDbLine
 10
124.0928743921733
 20
104.7049911016827
 30
0.0
 11
123.1002921652436
 21
101.0006238000914
 31
0.0
  0
LINE
  5
9C5
330
1E
100
AcDbEntity
  8
0
370
    18
100
AcDbLine
 10
128.3286097657277
 20
104.7049911016827
 30
0.0
 11
127.3360275387976
 21
101.0006238000914
 31
0.0
  0
LINE
  5
9C6
330
1E
100
AcDbEntity
  8
0
370
    18
100
AcDbLine
 10
125.122349060537
 20
103.6858158958505
 30
0.0
 11
124.9983019857878
 21
103.2228659103548
 31
0.0
  0
LINE
  5
9C7
330
1E
100
AcDbEntity
  8
0
370
    18
100
AcDbLine
 10
133.4636976037685
 20
102.9342403414621
 30
0.0
 11
133.7059494582471
 21
103.8383365706039
 31
0.0
  0
LINE
  5
9C8
330
1E
100
AcDbEntity
  8
0
370
    18
100
AcDbLine
 10
129.3580844340913
 20
103.6858158958505
 30
0.0
 11
129.2340373593416
 21
103.2228659103548
 31
0.0
  0
LINE
  5
9C9
330
1E
100
AcDbEntity
  8
0
370
    18
100
AcDbLine
 10
127.3360275387976
 20
101.0006238000914
 30
0.0
 11
131.1313674805481
 21
101.0006238000914
 31
0.0
  0
LINE
  5
9CA
330
1E
100
AcDbEntity
  8
0
370
    18
100
AcDbLine
 10
123.1002921652436
 20
101.0006238000914
 30
0.0
 11
126.8956321069936
 21
101.0006238000914
 31
0.0
  0
LINE
  5
9CB
330
1E
100
AcDbEntity
  8
0
370
    18
100
AcDbLine
 10
126.8956321069936
 20
101.0006238000914
 30
0.0
 11
127.1683744072953
 21
102.0185119221893
 31
0.0
  0
LINE
  5
9CC
330
1E
100
AcDbEntity
  8
0
370
    18
100
AcDbLine
 10
124.6755963072574
 20
102.0185119221893
 30
0.0
 11
127.1786503746615
 21
102.0185119221893
 31
0.0
  0
LINE
  5
9CD
330
1E
100
AcDbEntity
  8
0
370
    18
100
AcDbLine
 10
124.7999079308772
 20
102.4824492175095
 30
0.0
 11
124.6755963072574
 21
102.0185119221893
 31
0.0
  0
LINE
  5
9CE
330
1E
100
AcDbEntity
  8
0
370
    18
100
AcDbLine
 10
124.7999079308772
 20
102.4824492175095
 30
0.0
 11
127.292686030915
 21
102.4824492175095
 31
0.0
  0
LINE
  5
9CF
330
1E
100
AcDbEntity
  8
0
370
    18
100
AcDbLine
 10
127.292686030915
 20
102.4824492175095
 30
0.0
 11
127.4910800858256
 21
103.2228659103548
 31
0.0
  0
LINE
  5
9D0
330
1E
100
AcDbEntity
  8
0
370
    18
100
AcDbLine
 10
127.4910800858256
 20
103.2228659103548
 30
0.0
 11
124.9983019857878
 21
103.2228659103548
 31
0.0
  0
LINE
  5
9D1
330
1E
100
AcDbEntity
  8
0
370
    18
100
AcDbLine
 10
124.7999079308772
 20
102.4824492175095
 30
0.0
 11
124.6858722746237
 21
102.0568623544975
 31
0.0
  0
LINE
  5
9D2
330
1E
100
AcDbEntity
  8
0
370
    18
100
AcDbLine
 10
131.7268154593797
 20
103.2228659103548
 30
0.0
 11
129.2340373593416
 21
103.2228659103548
 31
0.0
  0
LINE
  5
9D3
330
1E
100
AcDbEntity
  8
0
370
    18
100
AcDbLine
 10
128.9113316808115
 20
102.0185119221893
 30
0.0
 11
131.414385748216
 21
102.0185119221893
 31
0.0
  0
LINE
  5
9D4
330
1E
100
AcDbEntity
  8
0
370
    18
100
AcDbLine
 10
129.0356433044311
 20
102.4824492175095
 30
0.0
 11
131.5284214044689
 21
102.4824492175095
 31
0.0
  0
LINE
  5
9D5
330
1E
100
AcDbEntity
  8
0
370
    18
100
AcDbLine
 10
129.0356433044311
 20
102.4824492175095
 30
0.0
 11
128.9113316808115
 21
102.0185119221893
 31
0.0
  0
LINE
  5
9D6
330
1E
100
AcDbEntity
  8
0
370
    18
100
AcDbLine
 10
129.0356433044311
 20
102.4824492175095
 30
0.0
 11
128.9216076481782
 21
102.0568623544975
 31
0.0
  0
LINE
  5
9D7
330
1E
100
AcDbEntity
  8
0
370
    18
100
AcDbLine
 10
131.1313674805481
 20
101.0006238000914
 30
0.0
 11
131.4041097808494
 21
102.0185119221893
 31
0.0
  0
LINE
  5
9D8
330
1E
100
AcDbEntity
  8
0
370
    18
100
AcDbLine
 10
133.3725371628019
 20
102.5940249441334
 30
0.0
 11
132.9482462290981
 21
101.0105496223607
 31
0.0
  0
LINE
  5
9D9
330
1E
100
AcDbEntity
  8
0
370
    18
100
AcDbLine
 10
131.6456843873857
 20
101.0105496223607
 30
0.0
 11
132.9482462290981
 21
101.0105496223607
 31
0.0
  0
LINE
  5
9DA
330
1E
100
AcDbEntity
  8
0
370
    18
100
AcDbLine
 10
131.5284214044689
 20
102.4824492175095
 30
0.0
 11
131.7268154593797
 21
103.2228659103548
 31
0.0
  0
LINE
  5
9DB
330
1E
100
AcDbEntity
  8
0
370
    18
100
AcDbLine
 10
133.3725371628019
 20
102.5940249441334
 30
0.0
 11
134.3760654580745
 21
101.0105496223607
 31
0.0
  0
LINE
  5
9DC
330
1E
100
AcDbEntity
  8
0
370
    18
100
AcDbLine
 10
128.7529334153799
 20
106.391753579537
 30
0.0
 11
131.2559874827842
 21
106.391753579537
 31
0.0
  0
LINE
  5
9DD
330
1E
100
AcDbEntity
  8
0
370
    18
100
AcDbLine
 10
128.8772450389997
 20
106.8556908748575
 30
0.0
 11
128.7529334153799
 21
106.391753579537
 31
0.0
  0
LINE
  5
9DE
330
1E
100
AcDbEntity
  8
0
370
    18
100
AcDbLine
 10
128.8772450389997
 20
106.8556908748575
 30
0.0
 11
128.7632093827464
 21
106.4301040118453
 31
0.0
  0
LINE
  5
9DF
330
1E
100
AcDbEntity
  8
0
370
    18
100
AcDbLine
 10
131.9655514420462
 20
109.0782327590304
 30
0.0
 11
128.1702115002958
 21
109.0782327590304
 31
0.0
  0
LINE
  5
9E0
330
1E
100
AcDbEntity
  8
0
370
    18
100
AcDbLine
 10
132.1239497074777
 20
104.7049911016827
 30
0.0
 11
128.3286097657277
 21
104.7049911016827
 31
0.0
  0
LINE
  5
9E1
330
1E
100
AcDbEntity
  8
0
370
    18
100
AcDbLine
 10
127.1776292733662
 20
105.373865457439
 30
0.0
 11
130.9729692151161
 21
105.373865457439
 31
0.0
  0
LINE
  5
9E2
330
1E
100
AcDbEntity
  8
0
370
    18
100
AcDbLine
 10
127.6151271605749
 20
103.6858158958505
 30
0.0
 11
127.8882143339236
 21
104.7049911016827
 31
0.0
  0
LINE
  5
9E3
330
1E
100
AcDbEntity
  8
0
370
    18
100
AcDbLine
 10
127.6151271605749
 20
103.6858158958505
 30
0.0
 11
125.1120730931706
 21
103.6858158958505
 31
0.0
  0
LINE
  5
9E4
330
1E
100
AcDbEntity
  8
0
370
    18
100
AcDbLine
 10
123.752449901652
 20
109.0782327590304
 30
0.0
 11
123.0997975435164
 21
106.6425009987874
 31
0.0
  0
LINE
  5
9E5
330
1E
100
AcDbEntity
  8
0
370
    18
100
AcDbLine
 10
125.1866456360235
 20
109.0782327590304
 30
0.0
 11
123.752449901652
 21
109.0782327590304
 31
0.0
  0
LINE
  5
9E6
330
1E
100
AcDbEntity
  8
0
370
    18
100
AcDbLine
 10
126.8177349223567
 20
106.2054560093077
 30
0.0
 11
127.5874931324795
 21
109.0782327590304
 31
0.0
  0
LINE
  5
9E7
330
1E
100
AcDbEntity
  8
0
370
    18
100
AcDbLine
 10
127.5874931324795
 20
109.0782327590304
 30
0.0
 11
126.122476733324
 21
109.0782327590304
 31
0.0
  0
LINE
  5
9E8
330
1E
100
AcDbEntity
  8
0
370
    18
100
AcDbLine
 10
125.3911528730833
 20
106.3488949558249
 30
0.0
 11
126.122476733324
 21
109.0782327590304
 31
0.0
  0
ARC
  5
9E9
330
1E
100
AcDbEntity
  8
0
370
    18
100
AcDbCircle
 10
125.0577598159399
 20
106.4382273562487
 30
0.0
 40
0.3451538907744731
100
AcDbArc
 50
270.0
 51
344.9999999999988
  0
LINE
  5
9EA
330
1E
100
AcDbEntity
  8
0
370
    18
100
AcDbLine
 10
125.0577598159399
 20
106.0930734654744
 30
0.0
 11
124.8365879220293
 21
106.0930734654744
 31
0.0
  0
ARC
  5
9EB
330
1E
100
AcDbEntity
  8
0
370
    18
100
AcDbCircle
 10
124.8365879220293
 20
106.4382273562487
 30
0.0
 40
0.3451538907744731
100
AcDbArc
 50
164.9999999999988
 51
270.0
  0
LINE
  5
9EC
330
1E
100
AcDbEntity
  8
0
370
    18
100
AcDbLine
 10
125.1866456360235
 20
109.0782327590304
 30
0.0
 11
124.5031948648858
 21
106.5275597566724
 31
0.0
  0
LINE
  5
9ED
330
1E
100
AcDbEntity
  8
0
370
    18
100
AcDbLine
 10
127.8882143339236
 20
104.7049911016827
 30
0.0
 11
124.0928743921733
 21
104.7049911016827
 31
0.0
  0
ARC
  5
9EE
330
1E
100
AcDbEntity
  8
0
370
    18
100
AcDbCircle
 10
124.9164419442299
 20
112.4901393221238
 30
0.0
 40
7.119253077153191
100
AcDbArc
 50
261.6882763531173
 51
278.5178280220953
  0
ARC
  5
9EF
330
1E
100
AcDbEntity
  8
0
370
    18
100
AcDbCircle
 10
125.8175557509268
 20
106.4734532105785
 30
0.0
 40
1.035461672323419
100
AcDbArc
 50
278.5178280220953
 51
344.9999999999988
  0
LINE
  5
9F0
330
1E
100
AcDbEntity
  8
0
370
    18
100
AcDbLine
 10
128.1702115002958
 20
109.0782327590304
 30
0.0
 11
127.1776292733662
 21
105.373865457439
 31
0.0
  0
LINE
  5
9F1
330
1E
100
AcDbEntity
  8
0
370
    18
100
AcDbLine
 10
131.8508625341292
 20
103.6858158958505
 30
0.0
 11
132.1239497074777
 21
104.7049911016827
 31
0.0
  0
LINE
  5
9F2
330
1E
100
AcDbEntity
  8
0
370
    18
100
AcDbLine
 10
131.8508625341292
 20
103.6858158958505
 30
0.0
 11
129.347808466725
 21
103.6858158958505
 31
0.0
  0
LINE
  5
9F3
330
1E
100
AcDbEntity
  8
0
370
    18
100
AcDbLine
 10
131.5684171939481
 20
107.5961075677024
 30
0.0
 11
129.0756390939103
 21
107.5961075677024
 31
0.0
  0
LINE
  5
9F4
330
1E
100
AcDbEntity
  8
0
370
    18
100
AcDbLine
 10
131.6924642686972
 20
108.0590575531981
 30
0.0
 11
129.1894102012933
 21
108.0590575531981
 31
0.0
  0
LINE
  5
9F5
330
1E
100
AcDbEntity
  8
0
370
    18
100
AcDbLine
 10
128.8772450389997
 20
106.8556908748575
 30
0.0
 11
131.3700231390376
 21
106.8556908748575
 31
0.0
  0
LINE
  5
9F6
330
1E
100
AcDbEntity
  8
0
370
    18
100
AcDbLine
 10
129.1996861686594
 20
108.0590575531981
 30
0.0
 11
129.0756390939103
 21
107.5961075677024
 31
0.0
  0
LINE
  5
9F7
330
1E
100
AcDbEntity
  8
0
370
    18
100
AcDbLine
 10
131.6924642686972
 20
108.0590575531981
 30
0.0
 11
131.9655514420462
 21
109.0782327590304
 31
0.0
  0
LINE
  5
9F8
330
1E
100
AcDbEntity
  8
0
370
    18
100
AcDbLine
 10
131.3700231390376
 20
106.8556908748575
 30
0.0
 11
131.5684171939481
 21
107.5961075677024
 31
0.0
  0
LINE
  5
9F9
330
1E
100
AcDbEntity
  8
0
370
    18
100
AcDbLine
 10
133.3265953279868
 20
107.2975561765404
 30
0.0
 11
133.5688471824658
 21
108.2016524056824
 31
0.0
  0
LINE
  5
9FA
330
1E
100
AcDbEntity
  8
0
370
    18
100
AcDbLine
 10
131.508582111604
 20
105.373865457439
 30
0.0
 11
132.8111439533165
 21
105.373865457439
 31
0.0
  0
LINE
  5
9FB
330
1E
100
AcDbEntity
  8
0
370
    18
100
AcDbLine
 10
130.9729692151161
 20
105.373865457439
 30
0.0
 11
131.2457115154178
 21
106.391753579537
 31
0.0
  0
LINE
  5
9FC
330
1E
100
AcDbEntity
  8
0
370
    18
100
AcDbLine
 10
132.5011643385334
 20
109.0782327590304
 30
0.0
 11
131.508582111604
 21
105.373865457439
 31
0.0
  0
LINE
  5
9FD
330
1E
100
AcDbEntity
  8
0
370
    18
100
AcDbLine
 10
133.23543488702
 20
106.957340779212
 30
0.0
 11
132.8111439533165
 21
105.373865457439
 31
0.0
  0
LINE
  5
9FE
330
1E
100
AcDbEntity
  8
0
370
    18
100
AcDbLine
 10
133.23543488702
 20
106.957340779212
 30
0.0
 11
134.2389631822926
 21
105.373865457439
 31
0.0
  0
LINE
  5
9FF
330
1E
100
AcDbEntity
  8
0
370
    18
100
AcDbLine
 10
134.4929631021563
 20
107.2975561765404
 30
0.0
 11
133.3265953279868
 21
107.2975561765404
 31
0.0
  0
LINE
  5
A00
330
1E
100
AcDbEntity
  8
0
370
    18
100
AcDbLine
 10
146.2237278122647
 20
101.0006238000914
 30
0.0
 11
144.3968460149763
 21
101.0006238000914
 31
0.0
  0
LINE
  5
A01
330
1E
100
AcDbEntity
  8
0
370
    18
100
AcDbLine
 10
145.1645929432496
 20
102.8875013286056
 30
0.0
 11
146.7293151222465
 21
102.8875013286056
 31
0.0
  0
ARC
  5
A02
330
1E
100
AcDbEntity
  8
0
370
    18
100
AcDbCircle
 10
145.4512793671029
 20
94.89641039591535
 30
0.0
 40
8.85764661435673
100
AcDbArc
 50
80.0265067162775
 51
93.02614479233048
  0
ARC
  5
A03
330
1E
100
AcDbEntity
  8
0
370
    18
100
AcDbCircle
 10
145.6158318815485
 20
90.23789501688296
 30
0.0
 40
14.46807838019826
100
AcDbArc
 50
83.51735091136804
 51
95.92334440423654
  0
LINE
  5
A04
330
1E
100
AcDbEntity
  8
0
370
    18
100
AcDbLine
 10
142.1146571086155
 20
101.0006238000914
 30
0.0
 11
143.1072393355451
 21
104.7049911016827
 31
0.0
  0
LINE
  5
A05
330
1E
100
AcDbEntity
  8
0
370
    18
100
AcDbLine
 10
141.3223785448873
 20
102.9528318701516
 30
0.0
 11
141.7918681959868
 21
104.7049911016827
 31
0.0
  0
LINE
  5
A06
330
1E
100
AcDbEntity
  8
0
370
    18
100
AcDbLine
 10
140.6127885301385
 20
104.7049911016827
 30
0.0
 11
141.3223785448873
 21
102.9528318701516
 31
0.0
  0
ARC
  5
A07
330
1E
100
AcDbEntity
  8
0
370
    18
100
AcDbCircle
 10
150.9293494159505
 20
100.881229130997
 30
0.0
 40
8.224997010073714
100
AcDbArc
 50
157.3874044007947
 51
171.0200151799526
  0
LINE
  5
A08
330
1E
100
AcDbEntity
  8
0
370
    18
100
AcDbLine
 10
137.5474609849856
 20
104.7049911016827
 30
0.0
 11
136.554878758056
 21
101.0006238000914
 31
0.0
  0
LINE
  5
A09
330
1E
100
AcDbEntity
  8
0
370
    18
100
AcDbLine
 10
138.8897261157751
 20
104.7049911016827
 30
0.0
 11
137.8971438888456
 21
101.0006238000914
 31
0.0
  0
LINE
  5
A0A
330
1E
100
AcDbEntity
  8
0
370
    18
100
AcDbLine
 10
139.3516026828723
 20
104.7049911016827
 30
0.0
 11
138.3590204559422
 21
101.0006238000914
 31
0.0
  0
LINE
  5
A0B
330
1E
100
AcDbEntity
  8
0
370
    18
100
AcDbLine
 10
136.6769206073959
 20
103.2193663649909
 30
0.0
 11
136.7930693365008
 21
103.6528393232455
 31
0.0
  0
ARC
  5
A0C
330
1E
100
AcDbEntity
  8
0
370
    18
100
AcDbCircle
 10
134.6620256053148
 20
103.4774400721014
 30
0.0
 40
0.5483274067590241
100
AcDbArc
 50
296.5093598874432
 51
350.9662004601515
  0
ARC
  5
A0D
330
1E
100
AcDbEntity
  8
0
370
    18
100
AcDbCircle
 10
150.3533836182222
 20
101.1329715897823
 30
0.0
 40
6.22149298766157
100
AcDbArc
 50
158.0969939507942
 51
170.4856136403676
  0
LINE
  5
A0E
330
1E
100
AcDbEntity
  8
0
370
    18
100
AcDbLine
 10
140.8406123683097
 20
101.0006238000914
 30
0.0
 11
140.1334770618604
 21
102.7617590359326
 31
0.0
  0
LINE
  5
A0F
330
1E
100
AcDbEntity
  8
0
370
    18
100
AcDbLine
 10
135.0815416497072
 20
102.5940249441334
 30
0.0
 11
136.0850699449798
 21
101.0105496223607
 31
0.0
  0
LINE
  5
A10
330
1E
100
AcDbEntity
  8
0
370
    18
100
AcDbLine
 10
135.8619598010457
 20
102.5940249441334
 30
0.0
 11
135.0815416497072
 21
102.5940249441334
 31
0.0
  0
ARC
  5
A11
330
1E
100
AcDbEntity
  8
0
370
    18
100
AcDbCircle
 10
134.6275819784523
 20
103.7024557068324
 30
0.0
 40
0.7682193793950698
100
AcDbArc
 50
270.1852188608381
 51
291.3103783431897
  0
LINE
  5
A12
330
1E
100
AcDbEntity
  8
0
370
    18
100
AcDbLine
 10
136.554878758056
 20
101.0006238000914
 30
0.0
 11
137.8971438888456
 21
101.0006238000914
 31
0.0
  0
ARC
  5
A13
330
1E
100
AcDbEntity
  8
0
370
    18
100
AcDbCircle
 10
135.8619598010457
 20
103.4377344549155
 30
0.0
 40
0.8437095107820451
100
AcDbArc
 50
270.0
 51
345.0438139040567
  0
LINE
  5
A14
330
1E
100
AcDbEntity
  8
0
370
    18
100
AcDbLine
 10
138.3590204559422
 20
101.0006238000914
 30
0.0
 11
139.6615822976548
 21
101.0006238000914
 31
0.0
  0
LINE
  5
A15
330
1E
100
AcDbEntity
  8
0
370
    18
100
AcDbLine
 10
140.1334770618604
 20
102.7617590359326
 30
0.0
 11
139.6615822976548
 21
101.0006238000914
 31
0.0
  0
LINE
  5
A16
330
1E
100
AcDbEntity
  8
0
370
    18
100
AcDbLine
 10
140.8406123683097
 20
101.0006238000914
 30
0.0
 11
142.1146571086155
 21
101.0006238000914
 31
0.0
  0
ARC
  5
A17
330
1E
100
AcDbEntity
  8
0
370
    18
100
AcDbCircle
 10
143.7521759960313
 20
102.0154117657601
 30
0.0
 40
0.9587608077068694
100
AcDbArc
 50
171.0200151799526
 51
262.0635437036931
  0
ARC
  5
A18
330
1E
100
AcDbEntity
  8
0
370
    18
100
AcDbCircle
 10
144.602784499407
 20
108.116897664776
 30
0.0
 40
7.119253077153191
100
AcDbArc
 50
262.0635437036931
 51
268.3423749580197
  0
ARC
  5
A19
330
1E
100
AcDbEntity
  8
0
370
    18
100
AcDbCircle
 10
145.3984338094032
 20
102.1511367693396
 30
0.0
 40
1.150512969248243
100
AcDbArc
 50
270.0
 51
270.0
  0
ARC
  5
A1A
330
1E
100
AcDbEntity
  8
0
370
    18
100
AcDbCircle
 10
143.7713478479194
 20
102.5986233692878
 30
0.0
 40
1.422878199650913
100
AcDbArc
 50
334.2263645027386
 51
11.71383119333146
  0
ARC
  5
A1B
330
1E
100
AcDbEntity
  8
0
370
    18
100
AcDbCircle
 10
144.6382531344946
 20
102.1800369958259
 30
0.0
 40
0.4602051876992975
100
AcDbArc
 50
270.0
 51
334.2263645027495
  0
LINE
  5
A1C
330
1E
100
AcDbEntity
  8
0
370
    18
100
AcDbLine
 10
144.5965629126589
 20
101.7198318081264
 30
0.0
 11
144.6382531344946
 21
101.7198318081264
 31
0.0
  0
ARC
  5
A1D
330
1E
100
AcDbEntity
  8
0
370
    18
100
AcDbCircle
 10
144.5965629126589
 20
102.1033361312092
 30
0.0
 40
0.3835043230827479
100
AcDbArc
 50
171.2985646492626
 51
270.0
  0
LINE
  5
A1E
330
1E
100
AcDbEntity
  8
0
370
    18
100
AcDbLine
 10
140.6127885301385
 20
104.7049911016827
 30
0.0
 11
139.3516026828723
 21
104.7049911016827
 31
0.0
  0
ARC
  5
A1F
330
1E
100
AcDbEntity
  8
0
370
    18
100
AcDbCircle
 10
134.8220092210854
 20
103.4520044036567
 30
0.0
 40
0.386334411403646
100
AcDbArc
 50
350.9662004601515
 51
90.1953042656462
  0
ARC
  5
A20
330
1E
100
AcDbEntity
  8
0
370
    18
100
AcDbCircle
 10
135.978108530151
 20
103.8712074131699
 30
0.0
 40
0.8437095107820451
100
AcDbArc
 50
344.9999529879292
 51
90.0
  0
LINE
  5
A21
330
1E
100
AcDbEntity
  8
0
370
    18
100
AcDbLine
 10
135.7248575252641
 20
106.957340779212
 30
0.0
 11
134.9444393739253
 21
106.957340779212
 31
0.0
  0
ARC
  5
A22
330
1E
100
AcDbEntity
  8
0
370
    18
100
AcDbCircle
 10
134.6849069453035
 20
107.8153202387349
 30
0.0
 40
0.386334411403646
100
AcDbArc
 50
350.9662004601515
 51
90.1953042656462
  0
ARC
  5
A23
330
1E
100
AcDbEntity
  8
0
370
    18
100
AcDbCircle
 10
134.5249233295331
 20
107.8407559071797
 30
0.0
 40
0.5483274067590241
100
AcDbArc
 50
296.5093598874432
 51
350.9662004601515
  0
ARC
  5
A24
330
1E
100
AcDbEntity
  8
0
370
    18
100
AcDbCircle
 10
135.7248575252641
 20
107.8010502899939
 30
0.0
 40
0.8437095107820451
100
AcDbArc
 50
270.0
 51
345.0438139040567
  0
LINE
  5
A25
330
1E
100
AcDbEntity
  8
0
370
    18
100
AcDbLine
 10
136.5398183316143
 20
107.5826822000694
 30
0.0
 11
136.655967060719
 21
108.0161551583238
 31
0.0
  0
ARC
  5
A26
330
1E
100
AcDbEntity
  8
0
370
    18
100
AcDbCircle
 10
135.8410062543693
 20
108.2345232482482
 30
0.0
 40
0.8437095107820451
100
AcDbArc
 50
344.9999529879292
 51
90.0
  0
LINE
  5
A27
330
1E
100
AcDbEntity
  8
0
370
    18
100
AcDbLine
 10
138.8897261157751
 20
104.7049911016827
 30
0.0
 11
137.5474609849856
 21
104.7049911016827
 31
0.0
  0
LINE
  5
A28
330
1E
100
AcDbEntity
  8
0
370
    18
100
AcDbLine
 10
134.9444393739253
 20
106.957340779212
 30
0.0
 11
135.9479676691981
 21
105.373865457439
 31
0.0
  0
ARC
  5
A29
330
1E
100
AcDbEntity
  8
0
370
    18
100
AcDbCircle
 10
145.0079646781206
 20
103.2821420038714
 30
0.0
 40
0.4602051876992975
100
AcDbArc
 50
93.02614479233048
 51
158.0969939507942
  0
LINE
  5
A2A
330
1E
100
AcDbEntity
  8
0
370
    18
100
AcDbLine
 10
143.1072393355451
 20
104.7049911016827
 30
0.0
 11
141.7918681959868
 21
104.7049911016827
 31
0.0
  0
ARC
  5
A2B
330
1E
100
AcDbEntity
  8
0
370
    18
100
AcDbCircle
 10
144.2216999381451
 20
103.6750843583636
 30
0.0
 40
0.9587608077068694
100
AcDbArc
 50
95.92334440423654
 51
157.3874044008002
  0
LINE
  5
A2C
330
1E
100
AcDbEntity
  8
0
370
    18
100
AcDbLine
 10
146.2237278122647
 20
101.0006238000914
 30
0.0
 11
146.7293151222465
 21
102.8875013286056
 31
0.0
  0
LINE
  5
A2D
330
1E
100
AcDbEntity
  8
0
370
    18
100
AcDbLine
 10
146.9853578421825
 20
103.620200098626
 30
0.0
 11
147.2493115644462
 21
104.6134658278497
 31
0.0
  0
LINE
  5
A2E
330
1E
100
AcDbEntity
  8
0
  6
STRICHPUNKT
 62
     7
 48
10.0
370
    18
100
AcDbLine
 10
150.4825272056316
 20
104.1829649999999
 30
0.0
 11
246.0332
 21
104.182965
 31
0.0
  0
LINE
  5
A2F
330
1E
100
AcDbEntity
  8
0
  6
STRICHPUNKT
 62
     7
 48
10.0
370
    18
100
AcDbLine
 10
126.003835
 20
112.6765774152266
 30
0.0
 11
126.003835
 21
199.1829649999999
 31
0.0
  0
VIEWPORT
  5
658
330
1A
100
AcDbEntity
 67
     1
  8
0
  6
Continuous
100
AcDbViewport
 10
0.0
 20
0.0
 30
0.0
 40
291.7032252760743
 41
126.6955490795953
 68
     1
 69
     1
 12
293.5979406517718
 22
53.45861074243103
 13
0.0
 23
0.0
 14
10.0
 24
10.0
 15
10.0
 25
10.0
 16
0.0
 26
0.0
 36
1.0
 17
0.0
 27
0.0
 37
0.0
 42
50.0
 43
0.0
 44
0.0
 45
126.6955490795953
 50
0.0
 51
0.0
 72
   100
 90
    32816
  1

281
     0
 71
     1
 74
     0
110
0.0
120
0.0
130
0.0
111
1.0
121
0.0
131
0.0
112
0.0
122
1.0
132
0.0
 79
     0
146
0.0
  0
VIEWPORT
  5
65A
330
1A
100
AcDbEntity
 67
     1
  8
Defpoints
  6
Continuous
100
AcDbViewport
 10
209.6206398901741
 20
133.4112689419581
 30
0.0
 40
391.7027321426809
 41
268.6405460903194
 68
     2
 69
     2
 12
248.4422278087677
 22
211.4440925775541
 13
0.0
 23
0.0
 14
1.0
 24
1.0
 15
0.0
 25
0.0
 16
0.0
 26
0.0
 36
1.0
 17
0.0
 27
0.0
 37
0.0
 42
50.0
 43
0.0
 44
0.0
 45
410.6717838414509
 50
0.0
 51
0.0
 72
   100
 90
    32800
  1

281
     0
 71
     1
 74
     0
110
0.0
120
0.0
130
0.0
111
1.0
121
0.0
131
0.0
112
0.0
122
1.0
132
0.0
 79
     0
146
0.0
  0
LINE
  5
77B
330
1A
100
AcDbEntity
 67
     1
  8
RAHMEN025
100
AcDbLine
 10
413.0448404831801
 20
274.8723187447708
 30
0.0
 11
-6.95515951681989
 21
274.8723187447708
 31
0.0
  0
LINE
  5
77C
330
1A
100
AcDbEntity
 67
     1
  8
RAHMEN07
100
AcDbLine
 10
408.0448404831801
 20
269.8723187447708
 30
0.0
 11
10.8448404831804
 21
269.8723187447708
 31
0.0
  0
LINE
  5
77D
330
1A
100
AcDbEntity
 67
     1
  8
RAHMEN07
100
AcDbLine
 10
10.8448404831804
 20
-17.12768125522913
 30
0.0
 11
10.8448404831804
 21
269.8723187447708
 31
0.0
  0
LINE
  5
77E
330
1A
100
AcDbEntity
 67
     1
  8
RAHMEN025
100
AcDbLine
 10
-6.95515951681989
 20
274.8723187447708
 30
0.0
 11
-6.95515951681989
 21
-22.12768125522913
 31
0.0
  0
LINE
  5
77F
330
1A
100
AcDbEntity
 67
     1
  8
RAHMEN07
100
AcDbLine
 10
10.8448404831804
 20
-17.12768125522913
 30
0.0
 11
408.0448404831801
 21
-17.12768125522913
 31
0.0
  0
LINE
  5
780
330
1A
100
AcDbEntity
 67
     1
  8
RAHMEN025
100
AcDbLine
 10
-6.95515951681989
 20
-22.12768125522913
 30
0.0
 11
413.0448404831801
 21
-22.12768125522913
 31
0.0
  0
LINE
  5
781
330
1A
100
AcDbEntity
 67
     1
  8
RAHMEN025
100
AcDbLine
 10
413.0448404831801
 20
-22.12768125522913
 30
0.0
 11
413.0448404831801
 21
274.8723187447708
 31
0.0
  0
LINE
  5
782
330
1A
100
AcDbEntity
 67
     1
  8
RAHMEN07
100
AcDbLine
 10
408.0448404831801
 20
-17.12768125522913
 30
0.0
 11
408.0448404831801
 21
269.8723187447708
 31
0.0
  0
TEXT
  5
783
330
1A
100
AcDbEntity
 67
     1
  8
RAHMEN025
100
AcDbText
 10
221.1595704606063
 20
-16.25268125522913
 30
0.0
 40
2.5
  1
Zust.
  7
ISO Proportional
100
AcDbText
  0
LINE
  5
784
330
1A
100
AcDbEntity
 67
     1
  8
RAHMEN025
100
AcDbLine
 10
220.8448404831804
 20
-4.377681255229134
 30
0.0
 11
275.4448404831803
 21
-4.377681255229134
 31
0.0
  0
LINE
  5
785
330
1A
100
AcDbEntity
 67
     1
  8
RAHMEN025
100
AcDbLine
 10
220.8448404831804
 20
-8.627681255229135
 30
0.0
 11
275.4448404831803
 21
-8.627681255229135
 31
0.0
  0
LINE
  5
786
330
1A
100
AcDbEntity
 67
     1
  8
RAHMEN025
100
AcDbLine
 10
220.8448404831804
 20
4.122318744770865
 30
0.0
 11
319.6448404831802
 21
4.122318744770865
 31
0.0
  0
LINE
  5
787
330
1A
100
AcDbEntity
 67
     1
  8
RAHMEN025
100
AcDbLine
 10
220.8448404831804
 20
8.372318744770865
 30
0.0
 11
319.6448404831802
 21
8.372318744770865
 31
0.0
  0
LINE
  5
788
330
1A
100
AcDbEntity
 67
     1
  8
RAHMEN025
100
AcDbLine
 10
220.8448404831804
 20
12.62231874477086
 30
0.0
 11
319.6448404831802
 21
12.62231874477086
 31
0.0
  0
LINE
  5
789
330
1A
100
AcDbEntity
 67
     1
  8
RAHMEN025
100
AcDbLine
 10
220.8448404831804
 20
16.87231874477086
 30
0.0
 11
319.6448404831802
 21
16.87231874477086
 31
0.0
  0
TEXT
  5
78A
330
1A
100
AcDbEntity
 67
     1
  8
RAHMEN025
100
AcDbText
 10
222.4485064382872
 20
33.68481874477086
 30
0.0
 40
2.5
  1
Verwendungsbereich
  7
ISO Proportional
100
AcDbText
  0
LINE
  5
78B
330
1A
100
AcDbEntity
 67
     1
  8
RAHMEN07
100
AcDbLine
 10
220.8448404831804
 20
-17.12768125522913
 30
0.0
 11
408.0448404831801
 21
-17.12768125522913
 31
0.0
  0
LINE
  5
78C
330
1A
100
AcDbEntity
 67
     1
  8
RAHMEN07
100
AcDbLine
 10
220.8448404831804
 20
21.12231874477083
 30
0.0
 11
408.0448404831804
 21
21.12231874477083
 31
0.0
  0
LINE
  5
78D
330
1A
100
AcDbEntity
 67
     1
  8
RAHMEN07
100
AcDbLine
 10
220.8448404831804
 20
-0.1276812552291346
 30
0.0
 11
408.0448404831801
 21
-0.1276812552291346
 31
0.0
  0
LINE
  5
78E
330
1A
100
AcDbEntity
 67
     1
  8
RAHMEN07
100
AcDbLine
 10
220.8448404831804
 20
38.12231874477086
 30
0.0
 11
408.0448404831804
 21
38.12231874477086
 31
0.0
  0
LINE
  5
78F
330
1A
100
AcDbEntity
 67
     1
  8
RAHMEN025
100
AcDbLine
 10
220.8448404831804
 20
-12.87768125522913
 30
0.0
 11
408.0448404831801
 21
-12.87768125522913
 31
0.0
  0
LINE
  5
790
330
1A
100
AcDbEntity
 67
     1
  8
RAHMEN07
100
AcDbLine
 10
220.8448404831804
 20
38.12231874477086
 30
0.0
 11
220.8448404831804
 21
-17.12768125522913
 31
0.0
  0
TEXT
  5
791
330
1A
100
AcDbEntity
 67
     1
  8
RAHMEN025
100
AcDbText
 10
365.5215405271729
 20
-16.25268125522913
 30
0.0
 40
2.5
  1
Ersatz durch:
  7
ISO Proportional
100
AcDbText
  0
TEXT
  5
792
330
1A
100
AcDbEntity
 67
     1
  8
RAHMEN025
100
AcDbText
 10
372.7711003856719
 20
33.68481874477086
 30
0.0
 40
2.5
  1
Gewicht:
  7
ISO Proportional
100
AcDbText
  0
LINE
  5
793
330
1A
100
AcDbEntity
 67
     1
  8
RAHMEN025
100
AcDbLine
 10
319.6448404831804
 20
31.74731874477086
 30
0.0
 11
408.0448404831804
 21
31.74731874477086
 31
0.0
  0
TEXT
  5
794
330
1A
100
AcDbEntity
 67
     1
  8
RAHMEN05
 48
1.5
100
AcDbText
 10
337.3312757144322
 20
6.712743872815423
 30
0.0
 40
5.0
  1
Rüttler RZ 15
 41
0.7
  7
Stil1
100
AcDbText
  0
TEXT
  5
795
330
1A
100
AcDbEntity
 67
     1
  8
RAHMEN025
100
AcDbText
 10
306.2181626345688
 20
17.74731874477086
 30
0.0
 40
2.5
  1
Name
  7
ISO Proportional
100
AcDbText
  0
TEXT
  5
796
330
1A
100
AcDbEntity
 67
     1
  8
RAHMEN025
100
AcDbText
 10
320.4609220414265
 20
16.54813667904309
 30
0.0
 40
2.5
  1
Benennung:
  7
ISO Proportional
100
AcDbText
  0
TEXT
  5
797
330
1A
100
AcDbEntity
 67
     1
  8
RAHMEN025
100
AcDbText
 10
289.6727513380978
 20
17.74731874477086
 30
0.0
 40
2.5
  1
Datum
  7
ISO Proportional
100
AcDbText
  0
LINE
  5
798
330
1A
100
AcDbEntity
 67
     1
  8
RAHMEN025
100
AcDbLine
 10
285.8448404831804
 20
21.12231874477083
 30
0.0
 11
285.8448404831803
 21
-0.1276812552291062
 31
0.0
  0
LINE
  5
799
330
1A
100
AcDbEntity
 67
     1
  8
RAHMEN025
100
AcDbLine
 10
228.6448404831803
 20
21.12231874477086
 30
0.0
 11
228.6448404831803
 21
-17.12768125522913
 31
0.0
  0
LINE
  5
79A
330
1A
100
AcDbEntity
 67
     1
  8
RAHMEN025
100
AcDbLine
 10
254.6448404831804
 20
21.12231874477086
 30
0.0
 11
254.6448404831804
 21
-17.12768125522913
 31
0.0
  0
LINE
  5
79B
330
1A
100
AcDbEntity
 67
     1
  8
RAHMEN025
100
AcDbLine
 10
267.6448404831804
 20
21.12231874477086
 30
0.0
 11
267.6448404831804
 21
-17.12768125522913
 31
0.0
  0
LINE
  5
79C
330
1A
100
AcDbEntity
 67
     1
  8
RAHMEN025
100
AcDbLine
 10
275.4448404831803
 20
38.12231874477086
 30
0.0
 11
275.4448404831803
 21
-17.12768125522913
 31
0.0
  0
LINE
  5
79D
330
1A
100
AcDbEntity
 67
     1
  8
RAHMEN025
100
AcDbLine
 10
319.6448404831804
 20
38.12231874477086
 30
0.0
 11
319.6448404831802
 21
-17.12768125522913
 31
0.0
  0
LINE
  5
79E
330
1A
100
AcDbEntity
 67
     1
  8
RAHMEN025
100
AcDbLine
 10
301.4448404831804
 20
38.12231874477086
 30
0.0
 11
301.4448404831803
 21
-0.1276812552291346
 31
0.0
  0
HATCH
  5
79F
330
1A
100
AcDbEntity
 67
     1
  8
RAHMEN025
370
    13
100
AcDbHatch
 10
0.0
 20
0.0
 30
0.0
210
0.0
220
0.0
230
1.0
  2
ANSI31
 70
     0
 71
     1
 91
       12
 92
        7
 72
     0
 73
     1
 93
       12
 10
277.9653353826045
 20
-7.598704393810947
 10
280.4581134826424
 20
-7.598704393810947
 10
280.6565075375523
 20
-6.858287700965647
 10
278.1637294375145
 20
-6.858287700965647
 10
278.2877765122642
 20
-6.395337715469992
 10
280.780554612302
 20
-6.39533771546999
 10
281.0536417856505
 20
-5.376162509637708
 10
277.2583018439004
 20
-5.376162509637708
 10
276.2657196169703
 20
-9.080529811229068
 10
280.0610595587209
 20
-9.080529811229068
 10
280.3338018590226
 20
-8.06264168913117
 10
277.8410237589846
 20
-8.06264168913117
 97
       12
330
7D4
330
7D5
330
7D6
330
7D7
330
7D8
330
7B3
330
7C7
330
7B4
330
7D9
330
7DA
330
7DB
330
7DC
 92
        7
 72
     0
 73
     1
 93
       10
 10
282.8458335031665
 20
-5.376162509637708
 10
281.5846476558999
 20
-5.376162509637708
 10
280.59206542897
 20
-9.080529811229068
 10
281.8946272706826
 20
-9.080529811229068
 10
282.3665220348885
 20
-7.319394575387912
 10
283.0736573413377
 20
-9.080529811229068
 10
284.3477020816431
 20
-9.080529811229068
 10
285.3402843085727
 20
-5.376162509637708
 10
284.0249131690147
 20
-5.376162509637708
 10
283.5554235179152
 20
-7.128321741168848
 97
       10
330
7DD
330
7B5
330
7C8
330
7B6
330
7B7
330
7C5
330
7B8
330
7EB
330
7EC
330
7D1
 92
        7
 72
     1
 73
     1
 93
       16
 10
286.8666066275968
 20
-6.627338292705069
 42
-0.2918088509345686
 10
287.2692976929127
 20
-6.339448153230133
 42
-0.0567825308446797
 10
289.2709858427076
 20
-6.460953512694386
 42
0.0
 10
289.5349395649713
 20
-5.467687783470758
 42
0.0541842923752296
 10
286.4083859261715
 20
-5.452427410042073
 42
0.2748078422990356
 10
285.6222711841069
 20
-6.037427383932907
 42
0.0595537418813009
 10
285.0907947893836
 20
-7.916089421842317
 42
0.4195581459998819
 10
285.9054233262999
 20
-9.015319459311643
 42
0.0274034260658982
 10
286.6824740155218
 20
-9.080529811229068
 42
0.0
 10
288.50935581279
 20
-9.080529811229068
 42
0.0
 10
289.0149431227717
 20
-7.193652282714822
 42
0.0
 10
287.4502209437745
 20
-7.193652282714822
 42
-0.1650444911529426
 10
287.3383046258338
 20
-8.101221550582126
 42
-0.2878146020947726
 10
286.9238811350192
 20
-8.36132180319403
 42
0.0
 10
286.882190913184
 20
-8.36132180319403
 42
-0.4686158958349675
 10
286.5050283205754
 20
-7.908362857803448
 42
-0.0536408936041017
 97
       16
330
7ED
330
7EE
330
7EF
330
7F0
330
7F1
330
7F2
330
7B9
330
7C9
330
7CA
330
7BA
330
7F3
330
7F4
330
7F5
330
7F6
330
7F7
330
7F8
 92
        7
 72
     0
 73
     1
 93
        4
 10
288.9683812032672
 20
-9.080529811229068
 10
290.3106463340568
 20
-9.080529811229068
 10
291.3032285609864
 20
-5.376162509637708
 10
289.9609634301969
 20
-5.376162509637708
 97
        4
330
7F9
330
7BB
330
7CB
330
7BC
 92
        7
 72
     0
 73
     1
 93
       10
 10
292.5469795070717
 20
-7.319394575387866
 10
293.2541148135214
 20
-9.080529811229068
 10
294.5281595538267
 20
-9.080529811229068
 10
295.5207417807565
 20
-5.376162509637708
 10
294.2053706411985
 20
-5.376162509637708
 10
293.735880990099
 20
-7.1283217411689
 10
293.0262909753502
 20
-5.376162509637708
 10
291.7651051280835
 20
-5.376162509637708
 10
290.7725229011536
 20
-9.080529811229068
 10
292.075084742866
 20
-9.080529811229068
 97
       10
330
7E6
330
7BD
330
7CC
330
7BE
330
7BF
330
7CE
330
7C0
330
80D
330
80E
330
80F
 92
        7
 72
     0
 73
     1
 93
       12
 10
296.904530001131
 20
-6.858287700965647
 10
297.0285770758803
 20
-6.395337715469992
 10
299.5213551759181
 20
-6.39533771546999
 10
299.7944423492668
 20
-5.376162509637708
 10
295.9991024075165
 20
-5.376162509637708
 10
295.0065201805868
 20
-9.080529811229068
 10
298.8018601223369
 20
-9.080529811229068
 10
299.0746024226385
 20
-8.06264168913117
 10
296.5818243226006
 20
-8.06264168913117
 10
296.7061359462204
 20
-7.598704393810947
 10
299.1989140462582
 20
-7.598704393810947
 10
299.3973081011688
 20
-6.858287700965647
 97
       12
330
810
330
811
330
812
330
7C1
330
7CF
330
7C2
330
813
330
814
330
815
330
816
330
817
330
818
 92
        7
 72
     0
 73
     1
 93
       12
 10
301.1402653746849
 20
-6.858287700965647
 10
301.2643124494346
 20
-6.395337715469992
 10
303.7570905494725
 20
-6.395337715469992
 10
304.030177722821
 20
-5.376162509637708
 10
300.2348377810709
 20
-5.376162509637708
 10
299.2422555541408
 20
-9.080529811229068
 10
303.0375954958913
 20
-9.080529811229068
 10
303.3103377961926
 20
-8.06264168913117
 10
300.8175596961548
 20
-8.06264168913117
 10
300.9418713197744
 20
-7.598704393810947
 10
303.4346494198121
 20
-7.598704393810947
 10
303.6330434747229
 20
-6.858287700965647
 97
       12
330
7A0
330
819
330
7A1
330
849
330
7A2
330
7C3
330
7A3
330
832
330
7A4
330
81A
330
7A5
330
84A
 92
        7
 72
     1
 73
     1
 93
       11
 10
305.2787651781451
 20
-7.487128667186949
 42
0.0
 10
306.2822934734177
 20
-9.070603988959746
 42
0.0
 10
307.9912979603231
 20
-9.070603988959745
 42
0.0
 10
306.9877696650504
 20
-7.487128667187008
 42
0.0
 10
307.768187816389
 20
-7.487128667187008
 42
0.3394542588634887
 10
308.5831486227392
 20
-6.861787246329271
 42
0.0
 10
308.6992973518441
 20
-6.428314288074769
 42
0.4931454260311745
 10
307.8843365454939
 20
-5.366236687368555
 42
0.0
 10
304.5444946296585
 20
-5.366236687368555
 42
0.0
 10
303.5519124027289
 20
-9.070603988959746
 42
0.0
 10
304.8544742444414
 20
-9.070603988959746
 42
0.0
 97
       11
330
84B
330
84C
330
84D
330
833
330
83F
330
834
330
835
330
840
330
836
330
84E
330
84F
 92
       22
 72
     1
 73
     1
 93
        6
 10
305.3699256191118
 20
-7.146913269858391
 42
0.0
 10
305.6121774735903
 20
-6.242817040716545
 42
0.0
 10
306.726920339902
 20
-6.242817040716545
 42
-0.462218980900382
 10
307.1097795117427
 20
-6.689810312026279
 42
-0.2421880062400708
 10
306.8129962711101
 20
-7.094390602115566
 42
-0.0940682372986285
 10
306.5313265914795
 20
-7.146913269858401
 42
0.0
 97
        6
330
850
330
851
330
852
330
853
330
854
330
855
 92
        7
 72
     0
 73
     1
 93
        4
 10
310.7959541311184
 20
-5.376162509637708
 10
309.4536890003287
 20
-5.376162509637708
 10
308.4611067733993
 20
-9.080529811229068
 10
309.8033719041887
 20
-9.080529811229068
 97
        4
330
856
330
837
330
841
330
838
 92
        7
 72
     0
 73
     1
 93
       10
 10
312.0397050772031
 20
-7.319394575387455
 10
312.746840383653
 20
-9.080529811229068
 10
314.0208851239588
 20
-9.080529811229068
 10
315.0134673508883
 20
-5.376162509637708
 10
313.69809621133
 20
-5.376162509637708
 10
313.2286065602305
 20
-7.1283217411689
 10
312.5190165454817
 20
-5.376162509637708
 10
311.2578306982155
 20
-5.376162509637708
 10
310.2652484712854
 20
-9.080529811229068
 10
311.567810312998
 20
-9.080529811229068
 97
       10
330
848
330
839
330
842
330
83A
330
83B
330
843
330
83C
330
86B
330
86C
330
86D
 92
        7
 72
     1
 73
     1
 93
       16
 10
316.4872066424151
 20
-6.627338292705012
 42
-0.2918088509345139
 10
316.889897707731
 20
-6.339448153230133
 42
-0.0567825308446765
 10
318.8915858575258
 20
-6.460953512694356
 42
0.0
 10
319.1555395797895
 20
-5.467687783470722
 42
0.0541842923752316
 10
316.0289859409895
 20
-5.452427410042123
 42
0.2748078422989353
 10
315.2428711989255
 20
-6.037427383933206
 42
0.0595537418812928
 10
314.7113948042022
 20
-7.916089421842343
 42
0.4195581459999278
 10
315.5260233411187
 20
-9.015319459311716
 42
0.0274034260658874
 10
316.3030740303403
 20
-9.080529811229068
 42
0.0
 10
318.129955827608
 20
-9.080529811229068
 42
0.0
 10
318.6355431375897
 20
-7.193652282714822
 42
0.0
 10
317.070820958593
 20
-7.193652282714822
 42
-0.1650444911529743
 10
316.9589046406523
 20
-8.1012215505823
 42
-0.287814602094675
 10
316.5444811498378
 20
-8.36132180319403
 42
0.0
 10
316.5027909280021
 20
-8.36132180319403
 42
-0.4686158958349675
 10
316.1256283353935
 20
-7.908362857803448
 42
-0.0536408936041064
 97
       16
330
86E
330
86F
330
870
330
871
330
872
330
873
330
83D
330
844
330
845
330
83E
330
874
330
875
330
876
330
877
330
878
330
879
 75
     0
 76
     1
 52
0.0
 41
0.1
 77
     0
 78
     1
 53
45.0
 43
-1.306922713315429
 44
-91.62610791309532
 45
-0.2245064030267288
 46
0.2245064030267288
 79
     0
 47
0.0661482101908399
 98
       12
 10
277.7669776105271
 20
-7.174112853190393
 10
282.8644800030942
 20
-6.975668045229411
 10
286.3731500671469
 20
-7.240261122510759
 10
290.1466262781902
 20
-6.843371506588681
 10
292.9932840103855
 20
-6.975668045229411
 10
296.3033502231002
 20
-6.843371506588681
 10
300.6064356925055
 20
-6.909519775909046
 10
305.1081265310583
 20
-6.909519775909046
 10
305.1081265310583
 20
-6.909519775909046
 10
309.8084212209491
 20
-6.909519775909046
 10
311.8606620299826
 20
-6.909519775909046
 10
316.2299513128497
 20
-6.644926698627699
  0
LINE
  5
7A0
102
{ACAD_REACTORS
330
79F
102
}
330
1A
100
AcDbEntity
 67
     1
  8
Defpoints
370
    13
100
AcDbLine
 10
303.6330434747229
 20
-6.858287700965647
 30
0.0
 11
301.1402653746849
 21
-6.858287700965647
 31
0.0
  0
LINE
  5
7A1
102
{ACAD_REACTORS
330
79F
102
}
330
1A
100
AcDbEntity
 67
     1
  8
Defpoints
370
    13
100
AcDbLine
 10
303.7570905494725
 20
-6.395337715469992
 30
0.0
 11
301.2540364820682
 21
-6.395337715469992
 31
0.0
  0
LINE
  5
7A2
102
{ACAD_REACTORS
330
79F
102
}
330
1A
100
AcDbEntity
 67
     1
  8
Defpoints
370
    13
100
AcDbLine
 10
304.0301777228209
 20
-5.376162509637708
 30
0.0
 11
300.2348377810709
 21
-5.376162509637708
 31
0.0
  0
LINE
  5
7A3
102
{ACAD_REACTORS
330
79F
102
}
330
1A
100
AcDbEntity
 67
     1
  8
Defpoints
370
    13
100
AcDbLine
 10
299.2422555541408
 20
-9.080529811229068
 30
0.0
 11
303.0375954958913
 21
-9.080529811229068
 31
0.0
  0
LINE
  5
7A4
102
{ACAD_REACTORS
330
79F
102
}
330
1A
100
AcDbEntity
 67
     1
  8
Defpoints
370
    13
100
AcDbLine
 10
300.8175596961548
 20
-8.06264168913117
 30
0.0
 11
303.3206137635592
 21
-8.06264168913117
 31
0.0
  0
LINE
  5
7A5
102
{ACAD_REACTORS
330
79F
102
}
330
1A
100
AcDbEntity
 67
     1
  8
Defpoints
370
    13
100
AcDbLine
 10
300.9418713197744
 20
-7.598704393810947
 30
0.0
 11
303.4346494198122
 21
-7.598704393810947
 31
0.0
  0
HATCH
  5
7A6
330
1A
100
AcDbEntity
 67
     1
  8
RAHMEN025
370
     9
100
AcDbHatch
 10
0.0
 20
0.0
 30
0.0
210
0.0
220
0.0
230
1.0
  2
SOLID
 70
     1
 71
     1
 91
        8
 92
        7
 72
     0
 73
     1
 93
       11
 10
284.1577480015264
 20
-4.707288153881478
 10
285.5574650701
 20
-4.707288153881478
 10
284.8910492781497
 20
-2.903220032471423
 10
286.5500472970298
 20
-1.00292085229006
 10
284.955560987185
 20
-1.00292085229006
 10
283.6594697957409
 20
-2.487528428979203
 10
284.057269196992
 20
-1.00292085229006
 10
282.7150040662024
 20
-1.00292085229006
 10
281.7224218392725
 20
-4.707288153881478
 10
283.064686970062
 20
-4.707288153881478
 10
283.5242256344157
 20
-2.992266510472479
 97
       11
330
7FA
330
7FB
330
7FC
330
7FD
330
7D2
330
7DF
330
7E0
330
7E1
330
7D3
330
7FE
330
7FF
 92
        7
 72
     0
 73
     1
 93
       10
 10
288.1973789717087
 20
-1.00292085229006
 10
286.9361931244421
 20
-1.00292085229006
 10
285.9436108975125
 20
-4.707288153881478
 10
287.2461727392249
 20
-4.707288153881478
 10
287.7180675034302
 20
-2.94615291804024
 10
288.4252028098801
 20
-4.707288153881478
 10
289.6992475501855
 20
-4.707288153881478
 10
290.691829777115
 20
-1.00292085229006
 10
289.3764586375571
 20
-1.00292085229006
 10
288.9069689864576
 20
-2.755080083821273
 97
       10
330
800
330
801
330
802
330
803
330
804
330
805
330
806
330
807
330
808
330
809
 92
        7
 72
     0
 73
     1
 93
        8
 10
290.0060027369283
 20
-4.707288153881478
 10
291.603999252369
 20
-4.707288153881478
 10
291.8925313841651
 20
-4.178902811104194
 10
293.3959199916111
 20
-4.178902811104194
 10
293.4226260809781
 20
-4.707288153881478
 10
294.7264918261288
 20
-4.707288153881478
 10
294.5392626276719
 20
-1.00292085229006
 10
292.0288237880695
 20
-1.00292085229006
 97
        8
330
7E7
330
80A
330
80B
330
80C
330
7E8
330
81D
330
81E
330
81F
 92
       22
 72
     0
 73
     1
 93
        3
 10
293.2685571662672
 20
-1.659003727351819
 10
293.3552804047559
 20
-3.374840421593063
 10
292.3316007840152
 20
-3.374840421593063
 97
        3
330
820
330
7E9
330
7EA
 92
        7
 72
     1
 73
     1
 93
       12
 10
297.0928736513667
 20
-1.00292085229006
 42
0.0
 10
295.6586779169952
 20
-1.00292085229006
 42
0.0
 10
295.0060255588595
 20
-3.438652612533218
 42
0.4488320008137725
 10
295.7935201960669
 20
-4.635488374664696
 42
0.0735650496629369
 10
297.8771533917466
 20
-4.631740748009516
 42
0.2985033964043282
 10
298.7239629377
 20
-3.875697602012859
 42
0.0
 10
299.4937211478228
 20
-1.00292085229006
 42
0.0
 10
298.0287047486672
 20
-1.00292085229006
 42
0.0
 10
297.2973808884265
 20
-3.732258655495478
 42
-0.3394542588632696
 10
296.9639878312833
 20
-3.988080145846112
 42
0.0
 10
296.7428159373725
 20
-3.988080145846112
 42
-0.4931454260315976
 10
296.4094228802291
 20
-3.553593854647893
 42
0.0
 97
       12
330
821
330
822
330
823
330
824
330
825
330
826
330
827
330
828
330
829
330
82A
330
82B
330
82C
 92
        7
 72
     0
 73
     1
 93
       12
 10
299.0838572887095
 20
-4.707288153881478
 10
302.8791972304594
 20
-4.707288153881478
 10
303.151939530761
 20
-3.689400031783463
 10
300.6591614307232
 20
-3.689400031783463
 10
300.7834730543429
 20
-3.225462736463015
 10
303.2762511543809
 20
-3.225462736463015
 10
303.4746452092913
 20
-2.485046043617984
 10
300.9818671092535
 20
-2.485046043617984
 10
301.1059141840026
 20
-2.022096058122286
 10
303.5986922840405
 20
-2.022096058122286
 10
303.8717794573894
 20
-1.00292085229006
 10
300.076439515639
 20
-1.00292085229006
 97
       12
330
7A7
330
82D
330
7A8
330
857
330
7A9
330
82E
330
7AA
330
858
330
7AB
330
82F
330
7AC
330
859
 92
        7
 72
     1
 73
     1
 93
       11
 10
303.4148101269473
 20
-4.707288153881478
 42
0.0
 10
304.7173719686597
 20
-4.707288153881478
 42
0.0
 10
305.1416629023632
 20
-3.123812832108448
 42
0.0
 10
306.1451911976358
 20
-4.707288153881478
 42
0.0
 10
307.8541956845414
 20
-4.707288153881478
 42
0.0
 10
306.8506673892686
 20
-3.123812832108484
 42
0.0
 10
307.6310855406073
 20
-3.123812832108484
 42
0.3394542588635565
 10
308.4460463469576
 20
-2.498471411250555
 42
0.0
 10
308.5621950760623
 20
-2.064998452996245
 42
0.4931454260311626
 10
307.7472342697121
 20
-1.00292085229006
 42
0.0
 10
304.4073923538767
 20
-1.00292085229006
 42
0.0
 97
       11
330
85A
330
85B
330
85C
330
85D
330
85E
330
85F
330
860
330
861
330
862
330
863
330
864
 92
       22
 72
     1
 73
     1
 93
        6
 10
305.4750751978091
 20
-1.879501205638007
 42
0.0
 10
306.5898180642035
 20
-1.879501205638007
 42
-0.4622189808356573
 10
306.9726772359613
 20
-2.326494476948372
 42
-0.2421880062385626
 10
306.6758939953312
 20
-2.73107476703592
 42
-0.0940682372810069
 10
306.3942243157544
 20
-2.783597434780077
 42
0.0
 10
305.23282334333
 20
-2.783597434780077
 42
0.0
 97
        6
330
865
330
866
330
867
330
868
330
869
330
86A
 75
     0
 76
     1
 47
0.0617673955459683
 98
        8
 10
284.1385444502947
 20
-3.178491738844599
 10
288.218466393328
 20
-2.560817609192639
 10
292.0511204777964
 20
-2.499050282364663
 10
292.0511204777964
 20
-2.499050282364663
 10
296.069225076736
 20
-2.560817609192639
 10
300.2727817079564
 20
-2.622584936020501
 10
304.723604679932
 20
-2.251980113680218
 10
304.723604679932
 20
-2.251980113680218
  0
LINE
  5
7A7
102
{ACAD_REACTORS
330
7A6
102
}
330
1A
100
AcDbEntity
 67
     1
  8
RAHMEN025
370
     9
100
AcDbLine
 10
303.4746452092913
 20
-2.485046043617984
 30
0.0
 11
300.9818671092535
 21
-2.485046043617984
 31
0.0
  0
LINE
  5
7A8
102
{ACAD_REACTORS
330
7A6
102
}
330
1A
100
AcDbEntity
 67
     1
  8
RAHMEN025
370
     9
100
AcDbLine
 10
303.5986922840405
 20
-2.022096058122286
 30
0.0
 11
301.0956382166365
 21
-2.022096058122286
 31
0.0
  0
LINE
  5
7A9
102
{ACAD_REACTORS
330
7A6
102
}
330
1A
100
AcDbEntity
 67
     1
  8
RAHMEN025
370
     9
100
AcDbLine
 10
303.8717794573894
 20
-1.00292085229006
 30
0.0
 11
300.076439515639
 21
-1.00292085229006
 31
0.0
  0
LINE
  5
7AA
102
{ACAD_REACTORS
330
7A6
102
}
330
1A
100
AcDbEntity
 67
     1
  8
RAHMEN025
370
     9
100
AcDbLine
 10
299.0838572887094
 20
-4.707288153881478
 30
0.0
 11
302.8791972304594
 21
-4.707288153881478
 31
0.0
  0
LINE
  5
7AB
102
{ACAD_REACTORS
330
7A6
102
}
330
1A
100
AcDbEntity
 67
     1
  8
RAHMEN025
370
     9
100
AcDbLine
 10
300.6591614307231
 20
-3.689400031783463
 30
0.0
 11
303.1622154981274
 21
-3.689400031783463
 31
0.0
  0
LINE
  5
7AC
102
{ACAD_REACTORS
330
7A6
102
}
330
1A
100
AcDbEntity
 67
     1
  8
RAHMEN025
370
     9
100
AcDbLine
 10
300.7834730543429
 20
-3.225462736463015
 30
0.0
 11
303.2762511543809
 21
-3.225462736463015
 31
0.0
  0
HATCH
  5
7AD
330
1A
100
AcDbEntity
 67
     1
  8
RAHMEN025
 62
   154
370
     9
100
AcDbHatch
 10
0.0
 20
0.0
 30
0.0
210
0.0
220
0.0
230
1.0
  2
SOLID
 70
     1
 71
     1
 91
        1
 92
        7
 72
     0
 73
     1
 93
        4
 10
317.3385720799207
 20
-11.89163411927208
 10
317.9341214160788
 20
-9.669013738317174
 10
294.883115497976
 20
-9.669013738317174
 10
294.2875661618181
 20
-11.89163411927208
 97
        1
330
7AE
 75
     0
 76
     1
 47
0.0579061006172788
 98
        1
 10
304.0995603519665
 20
-10.84322540729075
  0
LWPOLYLINE
  5
7AE
102
{ACAD_REACTORS
330
7AD
102
}
330
1A
100
AcDbEntity
 67
     1
  8
RAHMEN025
370
     9
100
AcDbPolyline
 90
        4
 70
     1
 43
0.0
 10
294.8831154979761
 20
-9.669013738317174
 10
294.2875661618181
 20
-11.89163411927208
 10
317.3385720799208
 20
-11.89163411927208
 10
317.9341214160789
 20
-9.669013738317174
  0
LWPOLYLINE
  5
7AF
330
1A
100
AcDbEntity
 67
     1
  8
RAHMEN025
100
AcDbPolyline
 90
        4
 70
     1
 43
0.0
 10
275.4448404831803
 20
-12.87768125522913
 10
319.6448404831802
 20
-12.87768125522913
 10
319.6448404831802
 20
-0.1276812552291346
 10
275.4448404831803
 20
-0.1276812552291346
  0
TEXT
  5
7B0
330
1A
100
AcDbEntity
 67
     1
  8
RAHMEN025
 48
1.5
100
AcDbText
 10
271.7737613727439
 20
-20.96137454292466
 30
0.0
 40
2.5
  1
"Schutzvermerk DIN 34 beachten"
 41
0.8
  7
Stil1
100
AcDbText
  0
TEXT
  5
7B1
330
1A
100
AcDbEntity
 67
     1
  8
RAHMEN025
100
AcDbText
 10
256.4564690639047
 20
-16.25268125522913
 30
0.0
 40
2.5
  1
Datum
  7
ISO Proportional
100
AcDbText
  0
TEXT
  5
7B2
330
1A
100
AcDbEntity
 67
     1
  8
RAHMEN025
100
AcDbText
 10
234.2302795235962
 20
-16.25268125522913
 30
0.0
 40
2.5
  1
Änderung
  7
ISO Proportional
100
AcDbText
  0
LINE
  5
7B3
102
{ACAD_REACTORS
330
79F
102
}
330
1A
100
AcDbEntity
 67
     1
  8
Defpoints
370
    13
100
AcDbLine
 10
277.2583018439005
 20
-5.376162509637708
 30
0.0
 11
276.2657196169703
 21
-9.080529811229068
 31
0.0
  0
LINE
  5
7B4
102
{ACAD_REACTORS
330
79F
102
}
330
1A
100
AcDbEntity
 67
     1
  8
Defpoints
370
    13
100
AcDbLine
 10
280.0610595587208
 20
-9.080529811229068
 30
0.0
 11
280.3338018590225
 21
-8.06264168913117
 31
0.0
  0
LINE
  5
7B5
102
{ACAD_REACTORS
330
79F
102
}
330
1A
100
AcDbEntity
 67
     1
  8
Defpoints
370
    13
100
AcDbLine
 10
281.5846476558998
 20
-5.376162509637708
 30
0.0
 11
280.5920654289701
 21
-9.080529811229068
 31
0.0
  0
LINE
  5
7B6
102
{ACAD_REACTORS
330
79F
102
}
330
1A
100
AcDbEntity
 67
     1
  8
Defpoints
370
    13
100
AcDbLine
 10
282.3665220348885
 20
-7.319394575387889
 30
0.0
 11
281.8946272706826
 21
-9.080529811229068
 31
0.0
  0
LINE
  5
7B7
102
{ACAD_REACTORS
330
79F
102
}
330
1A
100
AcDbEntity
 67
     1
  8
Defpoints
370
    13
100
AcDbLine
 10
283.0736573413377
 20
-9.080529811229068
 30
0.0
 11
282.3665220348885
 21
-7.319394575387889
 31
0.0
  0
LINE
  5
7B8
102
{ACAD_REACTORS
330
79F
102
}
330
1A
100
AcDbEntity
 67
     1
  8
Defpoints
370
    13
100
AcDbLine
 10
284.347702081643
 20
-9.080529811229068
 30
0.0
 11
285.3402843085727
 21
-5.376162509637708
 31
0.0
  0
ARC
  5
7B9
102
{ACAD_REACTORS
330
79F
102
}
330
1A
100
AcDbEntity
 67
     1
  8
Defpoints
370
    13
100
AcDbCircle
 10
286.0378039965564
 20
-8.065741845560424
 30
0.0
 40
0.9587608077068694
100
AcDbArc
 50
171.0200151799534
 51
262.0635437036931
  0
LINE
  5
7BA
102
{ACAD_REACTORS
330
79F
102
}
330
1A
100
AcDbEntity
 67
     1
  8
Defpoints
370
    13
100
AcDbLine
 10
288.5093558127899
 20
-9.080529811229068
 30
0.0
 11
289.0149431227717
 21
-7.193652282714822
 31
0.0
  0
LINE
  5
7BB
102
{ACAD_REACTORS
330
79F
102
}
330
1A
100
AcDbEntity
 67
     1
  8
Defpoints
370
    13
100
AcDbLine
 10
289.9609634301968
 20
-5.376162509637708
 30
0.0
 11
288.9683812032672
 21
-9.080529811229068
 31
0.0
  0
LINE
  5
7BC
102
{ACAD_REACTORS
330
79F
102
}
330
1A
100
AcDbEntity
 67
     1
  8
Defpoints
370
    13
100
AcDbLine
 10
291.3032285609864
 20
-5.376162509637708
 30
0.0
 11
290.3106463340568
 21
-9.080529811229068
 31
0.0
  0
LINE
  5
7BD
102
{ACAD_REACTORS
330
79F
102
}
330
1A
100
AcDbEntity
 67
     1
  8
Defpoints
370
    13
100
AcDbLine
 10
291.7651051280835
 20
-5.376162509637708
 30
0.0
 11
290.7725229011536
 21
-9.080529811229068
 31
0.0
  0
LINE
  5
7BE
102
{ACAD_REACTORS
330
79F
102
}
330
1A
100
AcDbEntity
 67
     1
  8
Defpoints
370
    13
100
AcDbLine
 10
292.5469795070717
 20
-7.319394575387889
 30
0.0
 11
292.075084742866
 21
-9.080529811229068
 31
0.0
  0
LINE
  5
7BF
102
{ACAD_REACTORS
330
79F
102
}
330
1A
100
AcDbEntity
 67
     1
  8
Defpoints
370
    13
100
AcDbLine
 10
293.2541148135214
 20
-9.080529811229068
 30
0.0
 11
292.5469795070717
 21
-7.319394575387889
 31
0.0
  0
LINE
  5
7C0
102
{ACAD_REACTORS
330
79F
102
}
330
1A
100
AcDbEntity
 67
     1
  8
Defpoints
370
    13
100
AcDbLine
 10
294.5281595538267
 20
-9.080529811229068
 30
0.0
 11
295.5207417807565
 21
-5.376162509637708
 31
0.0
  0
LINE
  5
7C1
102
{ACAD_REACTORS
330
79F
102
}
330
1A
100
AcDbEntity
 67
     1
  8
Defpoints
370
    13
100
AcDbLine
 10
295.9991024075165
 20
-5.376162509637708
 30
0.0
 11
295.0065201805868
 21
-9.080529811229068
 31
0.0
  0
LINE
  5
7C2
102
{ACAD_REACTORS
330
79F
102
}
330
1A
100
AcDbEntity
 67
     1
  8
Defpoints
370
    13
100
AcDbLine
 10
298.8018601223369
 20
-9.080529811229068
 30
0.0
 11
299.0746024226385
 21
-8.06264168913117
 31
0.0
  0
LINE
  5
7C3
102
{ACAD_REACTORS
330
79F
102
}
330
1A
100
AcDbEntity
 67
     1
  8
Defpoints
370
    13
100
AcDbLine
 10
300.2348377810709
 20
-5.376162509637708
 30
0.0
 11
299.2422555541408
 21
-9.080529811229068
 31
0.0
  0
TEXT
  5
7C4
330
1A
100
AcDbEntity
 67
     1
  8
RAHMEN025
100
AcDbText
 10
276.697153010574
 20
-16.25268125522913
 30
0.0
 40
2.5
  1
Ursprung
  7
ISO Proportional
100
AcDbText
  0
LINE
  5
7C5
102
{ACAD_REACTORS
330
79F
102
}
330
1A
100
AcDbEntity
 67
     1
  8
Defpoints
370
    13
100
AcDbLine
 10
283.0736573413377
 20
-9.080529811229068
 30
0.0
 11
284.347702081643
 21
-9.080529811229068
 31
0.0
  0
TEXT
  5
7C6
330
1A
100
AcDbEntity
 67
     1
  8
RAHMEN025
100
AcDbText
 10
267.7198723316625
 20
-16.25268125522913
 30
0.0
 40
2.5
  1
Name
  7
ISO Proportional
100
AcDbText
  0
LINE
  5
7C7
102
{ACAD_REACTORS
330
79F
102
}
330
1A
100
AcDbEntity
 67
     1
  8
Defpoints
370
    13
100
AcDbLine
 10
276.2657196169708
 20
-9.080529811229068
 30
0.0
 11
280.0610595587208
 21
-9.080529811229068
 31
0.0
  0
LINE
  5
7C8
102
{ACAD_REACTORS
330
79F
102
}
330
1A
100
AcDbEntity
 67
     1
  8
Defpoints
370
    13
100
AcDbLine
 10
280.5920654289701
 20
-9.080529811229068
 30
0.0
 11
281.8946272706826
 21
-9.080529811229068
 31
0.0
  0
ARC
  5
7C9
102
{ACAD_REACTORS
330
79F
102
}
330
1A
100
AcDbEntity
 67
     1
  8
Defpoints
370
    13
100
AcDbCircle
 10
286.8884124999321
 20
-1.964255946544398
 30
0.0
 40
7.119253077153191
100
AcDbArc
 50
262.0635437036931
 51
271.6576250419802
  0
LINE
  5
7CA
102
{ACAD_REACTORS
330
79F
102
}
330
1A
100
AcDbEntity
 67
     1
  8
Defpoints
370
    13
100
AcDbLine
 10
288.5093558127899
 20
-9.080529811229068
 30
0.0
 11
286.7803114816505
 21
-9.080529811229068
 31
0.0
  0
LINE
  5
7CB
102
{ACAD_REACTORS
330
79F
102
}
330
1A
100
AcDbEntity
 67
     1
  8
Defpoints
370
    13
100
AcDbLine
 10
288.9683812032672
 20
-9.080529811229068
 30
0.0
 11
290.3106463340568
 21
-9.080529811229068
 31
0.0
  0
LINE
  5
7CC
102
{ACAD_REACTORS
330
79F
102
}
330
1A
100
AcDbEntity
 67
     1
  8
Defpoints
370
    13
100
AcDbLine
 10
290.7725229011536
 20
-9.080529811229068
 30
0.0
 11
292.075084742866
 21
-9.080529811229068
 31
0.0
  0
ARC
  5
7CD
330
1A
100
AcDbEntity
 67
     1
  8
Defpoints
100
AcDbCircle
 10
287.6840618099279
 20
-7.930016841980858
 30
0.0
 40
1.150512969248243
100
AcDbArc
 50
270.0
 51
270.0
  0
LINE
  5
7CE
102
{ACAD_REACTORS
330
79F
102
}
330
1A
100
AcDbEntity
 67
     1
  8
Defpoints
370
    13
100
AcDbLine
 10
293.2541148135214
 20
-9.080529811229068
 30
0.0
 11
294.5281595538267
 21
-9.080529811229068
 31
0.0
  0
LINE
  5
7CF
102
{ACAD_REACTORS
330
79F
102
}
330
1A
100
AcDbEntity
 67
     1
  8
Defpoints
370
    13
100
AcDbLine
 10
295.0065201805868
 20
-9.080529811229068
 30
0.0
 11
298.8018601223369
 21
-9.080529811229068
 31
0.0
  0
TEXT
  5
7D0
330
1A
100
AcDbEntity
 67
     1
  8
RAHMEN025
100
AcDbText
 10
275.9437740470645
 20
13.49731874477086
 30
0.0
 40
2.5
  1
Bearb.
  7
ISO Proportional
100
AcDbText
  0
LINE
  5
7D1
102
{ACAD_REACTORS
330
79F
102
}
330
1A
100
AcDbEntity
 67
     1
  8
Defpoints
370
    13
100
AcDbLine
 10
282.8458335031665
 20
-5.376162509637708
 30
0.0
 11
283.5554235179152
 21
-7.128321741168889
 31
0.0
  0
LINE
  5
7D2
102
{ACAD_REACTORS
330
7A6
102
}
330
1A
100
AcDbEntity
 67
     1
  8
RAHMEN025
370
     9
100
AcDbLine
 10
284.057269196992
 20
-1.00292085229006
 30
0.0
 11
282.7150040662024
 21
-1.00292085229006
 31
0.0
  0
LINE
  5
7D3
102
{ACAD_REACTORS
330
7A6
102
}
330
1A
100
AcDbEntity
 67
     1
  8
RAHMEN025
370
     9
100
AcDbLine
 10
283.5242256344157
 20
-2.992266510472546
 30
0.0
 11
284.1528391587464
 21
-4.693999322975486
 31
0.0
  0
LINE
  5
7D4
102
{ACAD_REACTORS
330
79F
102
}
330
1A
100
AcDbEntity
 67
     1
  8
Defpoints
370
    13
100
AcDbLine
 10
280.6565075375524
 20
-6.858287700965647
 30
0.0
 11
278.1637294375145
 21
-6.858287700965647
 31
0.0
  0
LINE
  5
7D5
102
{ACAD_REACTORS
330
79F
102
}
330
1A
100
AcDbEntity
 67
     1
  8
Defpoints
370
    13
100
AcDbLine
 10
278.2877765122642
 20
-6.395337715469992
 30
0.0
 11
278.1637294375145
 21
-6.858287700965647
 31
0.0
  0
LINE
  5
7D6
102
{ACAD_REACTORS
330
79F
102
}
330
1A
100
AcDbEntity
 67
     1
  8
Defpoints
370
    13
100
AcDbLine
 10
280.780554612302
 20
-6.395337715469992
 30
0.0
 11
278.2775005448979
 21
-6.395337715469992
 31
0.0
  0
LINE
  5
7D7
102
{ACAD_REACTORS
330
79F
102
}
330
1A
100
AcDbEntity
 67
     1
  8
Defpoints
370
    13
100
AcDbLine
 10
280.780554612302
 20
-6.395337715469992
 30
0.0
 11
281.0536417856504
 21
-5.376162509637708
 31
0.0
  0
LINE
  5
7D8
102
{ACAD_REACTORS
330
79F
102
}
330
1A
100
AcDbEntity
 67
     1
  8
Defpoints
370
    13
100
AcDbLine
 10
281.0536417856504
 20
-5.376162509637708
 30
0.0
 11
277.2583018439005
 21
-5.376162509637708
 31
0.0
  0
LINE
  5
7D9
102
{ACAD_REACTORS
330
79F
102
}
330
1A
100
AcDbEntity
 67
     1
  8
Defpoints
370
    13
100
AcDbLine
 10
277.8410237589846
 20
-8.06264168913117
 30
0.0
 11
280.3440778263888
 21
-8.06264168913117
 31
0.0
  0
LINE
  5
7DA
102
{ACAD_REACTORS
330
79F
102
}
330
1A
100
AcDbEntity
 67
     1
  8
Defpoints
370
    13
100
AcDbLine
 10
277.9653353826045
 20
-7.598704393810947
 30
0.0
 11
277.8410237589846
 21
-8.06264168913117
 31
0.0
  0
LINE
  5
7DB
102
{ACAD_REACTORS
330
79F
102
}
330
1A
100
AcDbEntity
 67
     1
  8
Defpoints
370
    13
100
AcDbLine
 10
277.9653353826045
 20
-7.598704393810947
 30
0.0
 11
280.4581134826424
 21
-7.598704393810947
 31
0.0
  0
LINE
  5
7DC
102
{ACAD_REACTORS
330
79F
102
}
330
1A
100
AcDbEntity
 67
     1
  8
Defpoints
370
    13
100
AcDbLine
 10
280.4581134826424
 20
-7.598704393810947
 30
0.0
 11
280.6565075375524
 21
-6.858287700965647
 31
0.0
  0
LINE
  5
7DD
102
{ACAD_REACTORS
330
79F
102
}
330
1A
100
AcDbEntity
 67
     1
  8
Defpoints
370
    13
100
AcDbLine
 10
282.8458335031665
 20
-5.376162509637708
 30
0.0
 11
281.5846476558998
 21
-5.376162509637708
 31
0.0
  0
LINE
  5
7DE
330
1A
100
AcDbEntity
 67
     1
  8
Defpoints
100
AcDbLine
 10
277.9653353826045
 20
-7.598704393810947
 30
0.0
 11
277.8512997263508
 21
-8.024291256822949
 31
0.0
  0
LINE
  5
7DF
102
{ACAD_REACTORS
330
7A6
102
}
330
1A
100
AcDbEntity
 67
     1
  8
RAHMEN025
370
     9
100
AcDbLine
 10
282.7150040662024
 20
-1.00292085229006
 30
0.0
 11
281.7224218392725
 21
-4.707288153881478
 31
0.0
  0
LINE
  5
7E0
102
{ACAD_REACTORS
330
7A6
102
}
330
1A
100
AcDbEntity
 67
     1
  8
RAHMEN025
370
     9
100
AcDbLine
 10
281.7224218392725
 20
-4.707288153881478
 30
0.0
 11
283.064686970062
 21
-4.707288153881478
 31
0.0
  0
LINE
  5
7E1
102
{ACAD_REACTORS
330
7A6
102
}
330
1A
100
AcDbEntity
 67
     1
  8
RAHMEN025
370
     9
100
AcDbLine
 10
283.5242256344157
 20
-2.992266510472546
 30
0.0
 11
283.064686970062
 21
-4.707288153881478
 31
0.0
  0
HATCH
  5
7E2
330
1A
100
AcDbEntity
 67
     1
  8
RAHMEN025
 62
   154
370
     9
100
AcDbHatch
 10
0.0
 20
0.0
 30
0.0
210
0.0
220
0.0
230
1.0
  2
SOLID
 70
     1
 71
     1
 91
        1
 92
        7
 72
     0
 73
     1
 93
        4
 10
280.966948197914
 20
-4.647538852576147
 10
281.5624975340722
 20
-2.424918471621182
 10
278.1109586263274
 20
-2.424918471621182
 10
277.5154092901692
 20
-4.647538852576147
 97
        1
330
7E3
 75
     0
 76
     1
 47
0.0587514446152511
 98
        1
 10
279.3189013661598
 20
-3.841553328545813
  0
LWPOLYLINE
  5
7E3
102
{ACAD_REACTORS
330
7E2
102
}
330
1A
100
AcDbEntity
 67
     1
  8
RAHMEN025
 62
   154
370
     9
100
AcDbPolyline
 90
        4
 70
     1
 43
0.0
 10
278.1109586263275
 20
-2.424918471621182
 10
277.5154092901692
 20
-4.647538852576147
 10
280.966948197914
 20
-4.647538852576147
 10
281.5624975340721
 20
-2.424918471621182
  0
TEXT
  5
7E4
330
1A
100
AcDbEntity
 67
     1
  8
RAHMEN025
100
AcDbText
 10
275.9437740470645
 20
4.997318744770865
 30
0.0
 40
2.5
  1
Norm
  7
ISO Proportional
100
AcDbText
  0
TEXT
  5
7E5
330
1A
100
AcDbEntity
 67
     1
  8
RAHMEN025
100
AcDbText
 10
275.9437740470645
 20
9.247318744770865
 30
0.0
 40
2.5
  1
Gepr.
  7
ISO Proportional
100
AcDbText
  0
LINE
  5
7E6
102
{ACAD_REACTORS
330
79F
102
}
330
1A
100
AcDbEntity
 67
     1
  8
Defpoints
370
    13
100
AcDbLine
 10
293.0262909753502
 20
-5.376162509637708
 30
0.0
 11
291.7651051280835
 21
-5.376162509637708
 31
0.0
  0
LINE
  5
7E7
102
{ACAD_REACTORS
330
7A6
102
}
330
1A
100
AcDbEntity
 67
     1
  8
RAHMEN025
370
     9
100
AcDbLine
 10
294.5392626276719
 20
-1.00292085229006
 30
0.0
 11
292.0288237880695
 21
-1.00292085229006
 31
0.0
  0
LINE
  5
7E8
102
{ACAD_REACTORS
330
7A6
102
}
330
1A
100
AcDbEntity
 67
     1
  8
RAHMEN025
370
     9
100
AcDbLine
 10
291.8925313841651
 20
-4.178902811104194
 30
0.0
 11
293.3959199916112
 21
-4.178902811104194
 31
0.0
  0
LINE
  5
7E9
102
{ACAD_REACTORS
330
7A6
102
}
330
1A
100
AcDbEntity
 67
     1
  8
RAHMEN025
370
     9
100
AcDbLine
 10
292.3316007840151
 20
-3.374840421593063
 30
0.0
 11
293.3552804047558
 21
-3.374840421593063
 31
0.0
  0
LINE
  5
7EA
102
{ACAD_REACTORS
330
7A6
102
}
330
1A
100
AcDbEntity
 67
     1
  8
RAHMEN025
370
     9
100
AcDbLine
 10
292.3316007840151
 20
-3.374840421593063
 30
0.0
 11
293.2685571662672
 21
-1.659003727351759
 31
0.0
  0
LINE
  5
7EB
102
{ACAD_REACTORS
330
79F
102
}
330
1A
100
AcDbEntity
 67
     1
  8
Defpoints
370
    13
100
AcDbLine
 10
285.3402843085731
 20
-5.376162509637708
 30
0.0
 11
284.0249131690147
 21
-5.376162509637708
 31
0.0
  0
LINE
  5
7EC
102
{ACAD_REACTORS
330
79F
102
}
330
1A
100
AcDbEntity
 67
     1
  8
Defpoints
370
    13
100
AcDbLine
 10
283.5554235179152
 20
-7.128321741168889
 30
0.0
 11
284.0249131690147
 21
-5.376162509637708
 31
0.0
  0
ARC
  5
7ED
102
{ACAD_REACTORS
330
79F
102
}
330
1A
100
AcDbEntity
 67
     1
  8
Defpoints
370
    13
100
AcDbCircle
 10
287.2935926786455
 20
-6.799011607449045
 30
0.0
 40
0.4602051876992975
100
AcDbArc
 50
93.02614479233048
 51
158.0969939507942
  0
ARC
  5
7EE
102
{ACAD_REACTORS
330
79F
102
}
330
1A
100
AcDbEntity
 67
     1
  8
Defpoints
370
    13
100
AcDbCircle
 10
287.7369073676279
 20
-15.18474321540516
 30
0.0
 40
8.85764661435673
100
AcDbArc
 50
80.0265067162775
 51
93.02614479233048
  0
LINE
  5
7EF
102
{ACAD_REACTORS
330
79F
102
}
330
1A
100
AcDbEntity
 67
     1
  8
Defpoints
370
    13
100
AcDbLine
 10
289.2709858427076
 20
-6.460953512694473
 30
0.0
 11
289.5349395649713
 21
-5.467687783470779
 31
0.0
  0
ARC
  5
7F0
102
{ACAD_REACTORS
330
79F
102
}
330
1A
100
AcDbEntity
 67
     1
  8
Defpoints
370
    13
100
AcDbCircle
 10
287.9014598820732
 20
-19.84325859443752
 30
0.0
 40
14.46807838019826
100
AcDbArc
 50
83.51735091136804
 51
95.92334440423654
  0
ARC
  5
7F1
102
{ACAD_REACTORS
330
79F
102
}
330
1A
100
AcDbEntity
 67
     1
  8
Defpoints
370
    13
100
AcDbCircle
 10
286.5073279386702
 20
-6.406069252956825
 30
0.0
 40
0.9587608077068694
100
AcDbArc
 50
95.92334440423654
 51
157.3874044007997
  0
ARC
  5
7F2
102
{ACAD_REACTORS
330
79F
102
}
330
1A
100
AcDbEntity
 67
     1
  8
Defpoints
370
    13
100
AcDbCircle
 10
293.2149774164751
 20
-9.199924480323517
 30
0.0
 40
8.224997010073714
100
AcDbArc
 50
157.3874044007955
 51
171.0200151799534
  0
LINE
  5
7F3
102
{ACAD_REACTORS
330
79F
102
}
330
1A
100
AcDbEntity
 67
     1
  8
Defpoints
370
    13
100
AcDbLine
 10
287.4502209437748
 20
-7.193652282714822
 30
0.0
 11
289.0149431227717
 21
-7.193652282714822
 31
0.0
  0
ARC
  5
7F4
102
{ACAD_REACTORS
330
79F
102
}
330
1A
100
AcDbEntity
 67
     1
  8
Defpoints
370
    13
100
AcDbCircle
 10
286.0569758484442
 20
-7.482530242032709
 30
0.0
 40
1.422878199650913
100
AcDbArc
 50
334.2263645027383
 51
11.71383119333059
  0
ARC
  5
7F5
102
{ACAD_REACTORS
330
79F
102
}
330
1A
100
AcDbEntity
 67
     1
  8
Defpoints
370
    13
100
AcDbCircle
 10
286.9238811350196
 20
-7.901116615494544
 30
0.0
 40
0.4602051876992975
100
AcDbArc
 50
270.0
 51
334.2263645027491
  0
LINE
  5
7F6
102
{ACAD_REACTORS
330
79F
102
}
330
1A
100
AcDbEntity
 67
     1
  8
Defpoints
370
    13
100
AcDbLine
 10
286.882190913184
 20
-8.36132180319403
 30
0.0
 11
286.9238811350196
 21
-8.36132180319403
 31
0.0
  0
ARC
  5
7F7
102
{ACAD_REACTORS
330
79F
102
}
330
1A
100
AcDbEntity
 67
     1
  8
Defpoints
370
    13
100
AcDbCircle
 10
286.882190913184
 20
-7.977817480111269
 30
0.0
 40
0.3835043230827479
100
AcDbArc
 50
171.2985646492635
 51
270.0
  0
ARC
  5
7F8
102
{ACAD_REACTORS
330
79F
102
}
330
1A
100
AcDbEntity
 67
     1
  8
Defpoints
370
    13
100
AcDbCircle
 10
292.6390116187473
 20
-8.948182021538173
 30
0.0
 40
6.22149298766157
100
AcDbArc
 50
158.0969939507942
 51
170.4856136403678
  0
LINE
  5
7F9
102
{ACAD_REACTORS
330
79F
102
}
330
1A
100
AcDbEntity
 67
     1
  8
Defpoints
370
    13
100
AcDbLine
 10
291.3032285609864
 20
-5.376162509637708
 30
0.0
 11
289.9609634301968
 21
-5.376162509637708
 31
0.0
  0
LINE
  5
7FA
102
{ACAD_REACTORS
330
7A6
102
}
330
1A
100
AcDbEntity
 67
     1
  8
RAHMEN025
370
     9
100
AcDbLine
 10
286.5500472970298
 20
-1.00292085229006
 30
0.0
 11
284.8910492781497
 21
-2.903220032471395
 31
0.0
  0
LINE
  5
7FB
102
{ACAD_REACTORS
330
7A6
102
}
330
1A
100
AcDbEntity
 67
     1
  8
RAHMEN025
370
     9
100
AcDbLine
 10
286.5500472970298
 20
-1.00292085229006
 30
0.0
 11
284.955560987185
 21
-1.00292085229006
 31
0.0
  0
LINE
  5
7FC
102
{ACAD_REACTORS
330
7A6
102
}
330
1A
100
AcDbEntity
 67
     1
  8
RAHMEN025
370
     9
100
AcDbLine
 10
284.955560987185
 20
-1.00292085229006
 30
0.0
 11
283.659469795741
 21
-2.48752842897926
 31
0.0
  0
LINE
  5
7FD
102
{ACAD_REACTORS
330
7A6
102
}
330
1A
100
AcDbEntity
 67
     1
  8
RAHMEN025
370
     9
100
AcDbLine
 10
284.057269196992
 20
-1.00292085229006
 30
0.0
 11
283.659469795741
 21
-2.48752842897926
 31
0.0
  0
LINE
  5
7FE
102
{ACAD_REACTORS
330
7A6
102
}
330
1A
100
AcDbEntity
 67
     1
  8
RAHMEN025
370
     9
100
AcDbLine
 10
284.1168646868061
 20
-4.707288153881478
 30
0.0
 11
285.5574650700999
 21
-4.707288153881478
 31
0.0
  0
LINE
  5
7FF
102
{ACAD_REACTORS
330
7A6
102
}
330
1A
100
AcDbEntity
 67
     1
  8
RAHMEN025
370
     9
100
AcDbLine
 10
284.8910492781497
 20
-2.903220032471395
 30
0.0
 11
285.5574650700999
 21
-4.707288153881478
 31
0.0
  0
LINE
  5
800
102
{ACAD_REACTORS
330
7A6
102
}
330
1A
100
AcDbEntity
 67
     1
  8
RAHMEN025
370
     9
100
AcDbLine
 10
288.1973789717088
 20
-1.00292085229006
 30
0.0
 11
286.9361931244421
 21
-1.00292085229006
 31
0.0
  0
LINE
  5
801
102
{ACAD_REACTORS
330
7A6
102
}
330
1A
100
AcDbEntity
 67
     1
  8
RAHMEN025
370
     9
100
AcDbLine
 10
286.9361931244421
 20
-1.00292085229006
 30
0.0
 11
285.9436108975124
 21
-4.707288153881478
 31
0.0
  0
LINE
  5
802
102
{ACAD_REACTORS
330
7A6
102
}
330
1A
100
AcDbEntity
 67
     1
  8
RAHMEN025
370
     9
100
AcDbLine
 10
285.9436108975124
 20
-4.707288153881478
 30
0.0
 11
287.2461727392249
 21
-4.707288153881478
 31
0.0
  0
LINE
  5
803
102
{ACAD_REACTORS
330
7A6
102
}
330
1A
100
AcDbEntity
 67
     1
  8
RAHMEN025
370
     9
100
AcDbLine
 10
287.7180675034302
 20
-2.94615291804024
 30
0.0
 11
287.2461727392249
 21
-4.707288153881478
 31
0.0
  0
LINE
  5
804
102
{ACAD_REACTORS
330
7A6
102
}
330
1A
100
AcDbEntity
 67
     1
  8
RAHMEN025
370
     9
100
AcDbLine
 10
288.4252028098801
 20
-4.707288153881478
 30
0.0
 11
287.7180675034302
 21
-2.94615291804024
 31
0.0
  0
LINE
  5
805
102
{ACAD_REACTORS
330
7A6
102
}
330
1A
100
AcDbEntity
 67
     1
  8
RAHMEN025
370
     9
100
AcDbLine
 10
288.4252028098801
 20
-4.707288153881478
 30
0.0
 11
289.6992475501854
 21
-4.707288153881478
 31
0.0
  0
LINE
  5
806
102
{ACAD_REACTORS
330
7A6
102
}
330
1A
100
AcDbEntity
 67
     1
  8
RAHMEN025
370
     9
100
AcDbLine
 10
289.6992475501854
 20
-4.707288153881478
 30
0.0
 11
290.6918297771151
 21
-1.00292085229006
 31
0.0
  0
LINE
  5
807
102
{ACAD_REACTORS
330
7A6
102
}
330
1A
100
AcDbEntity
 67
     1
  8
RAHMEN025
370
     9
100
AcDbLine
 10
290.6918297771151
 20
-1.00292085229006
 30
0.0
 11
289.3764586375571
 21
-1.00292085229006
 31
0.0
  0
LINE
  5
808
102
{ACAD_REACTORS
330
7A6
102
}
330
1A
100
AcDbEntity
 67
     1
  8
RAHMEN025
370
     9
100
AcDbLine
 10
288.9069689864576
 20
-2.755080083821212
 30
0.0
 11
289.3764586375571
 21
-1.00292085229006
 31
0.0
  0
LINE
  5
809
102
{ACAD_REACTORS
330
7A6
102
}
330
1A
100
AcDbEntity
 67
     1
  8
RAHMEN025
370
     9
100
AcDbLine
 10
288.1973789717088
 20
-1.00292085229006
 30
0.0
 11
288.9069689864576
 21
-2.755080083821212
 31
0.0
  0
LINE
  5
80A
102
{ACAD_REACTORS
330
7A6
102
}
330
1A
100
AcDbEntity
 67
     1
  8
RAHMEN025
370
     9
100
AcDbLine
 10
290.0060027369283
 20
-4.707288153881478
 30
0.0
 11
292.0288237880695
 21
-1.00292085229006
 31
0.0
  0
LINE
  5
80B
102
{ACAD_REACTORS
330
7A6
102
}
330
1A
100
AcDbEntity
 67
     1
  8
RAHMEN025
370
     9
100
AcDbLine
 10
290.0060027369283
 20
-4.707288153881478
 30
0.0
 11
291.603999252369
 21
-4.707288153881478
 31
0.0
  0
LINE
  5
80C
102
{ACAD_REACTORS
330
7A6
102
}
330
1A
100
AcDbEntity
 67
     1
  8
RAHMEN025
370
     9
100
AcDbLine
 10
291.603999252369
 20
-4.707288153881478
 30
0.0
 11
291.8925313841651
 21
-4.178902811104194
 31
0.0
  0
LINE
  5
80D
102
{ACAD_REACTORS
330
79F
102
}
330
1A
100
AcDbEntity
 67
     1
  8
Defpoints
370
    13
100
AcDbLine
 10
295.5207417807565
 20
-5.376162509637708
 30
0.0
 11
294.2053706411986
 21
-5.376162509637708
 31
0.0
  0
LINE
  5
80E
102
{ACAD_REACTORS
330
79F
102
}
330
1A
100
AcDbEntity
 67
     1
  8
Defpoints
370
    13
100
AcDbLine
 10
293.735880990099
 20
-7.128321741168889
 30
0.0
 11
294.2053706411986
 21
-5.376162509637708
 31
0.0
  0
LINE
  5
80F
102
{ACAD_REACTORS
330
79F
102
}
330
1A
100
AcDbEntity
 67
     1
  8
Defpoints
370
    13
100
AcDbLine
 10
293.0262909753502
 20
-5.376162509637708
 30
0.0
 11
293.735880990099
 21
-7.128321741168889
 31
0.0
  0
LINE
  5
810
102
{ACAD_REACTORS
330
79F
102
}
330
1A
100
AcDbEntity
 67
     1
  8
Defpoints
370
    13
100
AcDbLine
 10
299.5213551759181
 20
-6.395337715469992
 30
0.0
 11
297.0183011085138
 21
-6.395337715469992
 31
0.0
  0
LINE
  5
811
102
{ACAD_REACTORS
330
79F
102
}
330
1A
100
AcDbEntity
 67
     1
  8
Defpoints
370
    13
100
AcDbLine
 10
299.5213551759181
 20
-6.395337715469992
 30
0.0
 11
299.7944423492668
 21
-5.376162509637708
 31
0.0
  0
LINE
  5
812
102
{ACAD_REACTORS
330
79F
102
}
330
1A
100
AcDbEntity
 67
     1
  8
Defpoints
370
    13
100
AcDbLine
 10
299.7944423492668
 20
-5.376162509637708
 30
0.0
 11
295.9991024075165
 21
-5.376162509637708
 31
0.0
  0
LINE
  5
813
102
{ACAD_REACTORS
330
79F
102
}
330
1A
100
AcDbEntity
 67
     1
  8
Defpoints
370
    13
100
AcDbLine
 10
296.5818243226006
 20
-8.06264168913117
 30
0.0
 11
299.0848783900047
 21
-8.06264168913117
 31
0.0
  0
LINE
  5
814
102
{ACAD_REACTORS
330
79F
102
}
330
1A
100
AcDbEntity
 67
     1
  8
Defpoints
370
    13
100
AcDbLine
 10
296.7061359462204
 20
-7.598704393810947
 30
0.0
 11
296.5818243226006
 21
-8.06264168913117
 31
0.0
  0
LINE
  5
815
102
{ACAD_REACTORS
330
79F
102
}
330
1A
100
AcDbEntity
 67
     1
  8
Defpoints
370
    13
100
AcDbLine
 10
296.7061359462204
 20
-7.598704393810947
 30
0.0
 11
299.1989140462582
 21
-7.598704393810947
 31
0.0
  0
LINE
  5
816
102
{ACAD_REACTORS
330
79F
102
}
330
1A
100
AcDbEntity
 67
     1
  8
Defpoints
370
    13
100
AcDbLine
 10
299.1989140462582
 20
-7.598704393810947
 30
0.0
 11
299.3973081011688
 21
-6.858287700965647
 31
0.0
  0
LINE
  5
817
102
{ACAD_REACTORS
330
79F
102
}
330
1A
100
AcDbEntity
 67
     1
  8
Defpoints
370
    13
100
AcDbLine
 10
299.3973081011688
 20
-6.858287700965647
 30
0.0
 11
296.904530001131
 21
-6.858287700965647
 31
0.0
  0
LINE
  5
818
102
{ACAD_REACTORS
330
79F
102
}
330
1A
100
AcDbEntity
 67
     1
  8
Defpoints
370
    13
100
AcDbLine
 10
297.0285770758803
 20
-6.395337715469992
 30
0.0
 11
296.904530001131
 21
-6.858287700965647
 31
0.0
  0
LINE
  5
819
102
{ACAD_REACTORS
330
79F
102
}
330
1A
100
AcDbEntity
 67
     1
  8
Defpoints
370
    13
100
AcDbLine
 10
301.2643124494346
 20
-6.395337715469992
 30
0.0
 11
301.1402653746849
 21
-6.858287700965647
 31
0.0
  0
LINE
  5
81A
102
{ACAD_REACTORS
330
79F
102
}
330
1A
100
AcDbEntity
 67
     1
  8
Defpoints
370
    13
100
AcDbLine
 10
300.9418713197744
 20
-7.598704393810947
 30
0.0
 11
300.8175596961548
 21
-8.06264168913117
 31
0.0
  0
LINE
  5
81B
330
1A
100
AcDbEntity
 67
     1
  8
Defpoints
100
AcDbLine
 10
300.9418713197744
 20
-7.598704393810947
 30
0.0
 11
300.8278356635214
 21
-8.024291256822949
 31
0.0
  0
LINE
  5
81C
330
1A
100
AcDbEntity
 67
     1
  8
Defpoints
100
AcDbLine
 10
296.7061359462204
 20
-7.598704393810947
 30
0.0
 11
296.5921002899669
 21
-8.024291256822949
 31
0.0
  0
LINE
  5
81D
102
{ACAD_REACTORS
330
7A6
102
}
330
1A
100
AcDbEntity
 67
     1
  8
RAHMEN025
370
     9
100
AcDbLine
 10
293.4226260809781
 20
-4.707288153881478
 30
0.0
 11
293.3959199916112
 21
-4.178902811104194
 31
0.0
  0
LINE
  5
81E
102
{ACAD_REACTORS
330
7A6
102
}
330
1A
100
AcDbEntity
 67
     1
  8
RAHMEN025
370
     9
100
AcDbLine
 10
293.4226260809781
 20
-4.707288153881478
 30
0.0
 11
294.7264918261288
 21
-4.707288153881478
 31
0.0
  0
LINE
  5
81F
102
{ACAD_REACTORS
330
7A6
102
}
330
1A
100
AcDbEntity
 67
     1
  8
RAHMEN025
370
     9
100
AcDbLine
 10
294.7265896703823
 20
-4.709224022090253
 30
0.0
 11
294.5392626276719
 21
-1.00292085229006
 31
0.0
  0
LINE
  5
820
102
{ACAD_REACTORS
330
7A6
102
}
330
1A
100
AcDbEntity
 67
     1
  8
RAHMEN025
370
     9
100
AcDbLine
 10
293.3552804047558
 20
-3.374840421593063
 30
0.0
 11
293.2685571662672
 21
-1.659003727351759
 31
0.0
  0
LINE
  5
821
102
{ACAD_REACTORS
330
7A6
102
}
330
1A
100
AcDbEntity
 67
     1
  8
RAHMEN025
370
     9
100
AcDbLine
 10
297.0928736513667
 20
-1.00292085229006
 30
0.0
 11
295.6586779169952
 21
-1.00292085229006
 31
0.0
  0
LINE
  5
822
102
{ACAD_REACTORS
330
7A6
102
}
330
1A
100
AcDbEntity
 67
     1
  8
RAHMEN025
370
     9
100
AcDbLine
 10
295.6586779169952
 20
-1.00292085229006
 30
0.0
 11
295.0060255588596
 21
-3.438652612533047
 31
0.0
  0
ARC
  5
823
102
{ACAD_REACTORS
330
7A6
102
}
330
1A
100
AcDbEntity
 67
     1
  8
RAHMEN025
370
     9
100
AcDbCircle
 10
295.9321173842572
 20
-3.686798169265443
 30
0.0
 40
0.9587608077068694
100
AcDbArc
 50
164.9999999999992
 51
261.6882763531173
  0
ARC
  5
824
102
{ACAD_REACTORS
330
7A6
102
}
330
1A
100
AcDbEntity
 67
     1
  8
RAHMEN025
370
     9
100
AcDbCircle
 10
296.8226699595731
 20
2.408985710803307
 30
0.0
 40
7.119253077153191
100
AcDbArc
 50
261.6882763531173
 51
278.5178280220953
  0
ARC
  5
825
102
{ACAD_REACTORS
330
7A6
102
}
330
1A
100
AcDbEntity
 67
     1
  8
RAHMEN025
370
     9
100
AcDbCircle
 10
297.72378376627
 20
-3.60770040074189
 30
0.0
 40
1.035461672323419
100
AcDbArc
 50
278.5178280220953
 51
344.9999999999992
  0
LINE
  5
826
102
{ACAD_REACTORS
330
7A6
102
}
330
1A
100
AcDbEntity
 67
     1
  8
RAHMEN025
370
     9
100
AcDbLine
 10
298.7239629377
 20
-3.875697602012778
 30
0.0
 11
299.4937211478228
 21
-1.00292085229006
 31
0.0
  0
LINE
  5
827
102
{ACAD_REACTORS
330
7A6
102
}
330
1A
100
AcDbEntity
 67
     1
  8
RAHMEN025
370
     9
100
AcDbLine
 10
299.4937211478228
 20
-1.00292085229006
 30
0.0
 11
298.0287047486672
 21
-1.00292085229006
 31
0.0
  0
LINE
  5
828
102
{ACAD_REACTORS
330
7A6
102
}
330
1A
100
AcDbEntity
 67
     1
  8
RAHMEN025
370
     9
100
AcDbLine
 10
297.2973808884265
 20
-3.732258655495527
 30
0.0
 11
298.0287047486672
 21
-1.00292085229006
 31
0.0
  0
ARC
  5
829
102
{ACAD_REACTORS
330
7A6
102
}
330
1A
100
AcDbEntity
 67
     1
  8
RAHMEN025
370
     9
100
AcDbCircle
 10
296.9639878312832
 20
-3.642926255071756
 30
0.0
 40
0.3451538907744731
100
AcDbArc
 50
270.0
 51
344.9999999999992
  0
LINE
  5
82A
102
{ACAD_REACTORS
330
7A6
102
}
330
1A
100
AcDbEntity
 67
     1
  8
RAHMEN025
370
     9
100
AcDbLine
 10
296.9639878312832
 20
-3.988080145846112
 30
0.0
 11
296.7428159373725
 21
-3.988080145846112
 31
0.0
  0
ARC
  5
82B
102
{ACAD_REACTORS
330
7A6
102
}
330
1A
100
AcDbEntity
 67
     1
  8
RAHMEN025
370
     9
100
AcDbCircle
 10
296.7428159373725
 20
-3.642926255071756
 30
0.0
 40
0.3451538907744731
100
AcDbArc
 50
164.9999999999992
 51
270.0
  0
LINE
  5
82C
102
{ACAD_REACTORS
330
7A6
102
}
330
1A
100
AcDbEntity
 67
     1
  8
RAHMEN025
370
     9
100
AcDbLine
 10
297.0928736513667
 20
-1.00292085229006
 30
0.0
 11
296.409422880229
 21
-3.553593854648056
 31
0.0
  0
LINE
  5
82D
102
{ACAD_REACTORS
330
7A6
102
}
330
1A
100
AcDbEntity
 67
     1
  8
RAHMEN025
370
     9
100
AcDbLine
 10
301.1059141840026
 20
-2.022096058122286
 30
0.0
 11
300.9818671092535
 21
-2.485046043617984
 31
0.0
  0
LINE
  5
82E
102
{ACAD_REACTORS
330
7A6
102
}
330
1A
100
AcDbEntity
 67
     1
  8
RAHMEN025
370
     9
100
AcDbLine
 10
300.076439515639
 20
-1.00292085229006
 30
0.0
 11
299.0838572887094
 21
-4.707288153881478
 31
0.0
  0
LINE
  5
82F
102
{ACAD_REACTORS
330
7A6
102
}
330
1A
100
AcDbEntity
 67
     1
  8
RAHMEN025
370
     9
100
AcDbLine
 10
300.7834730543429
 20
-3.225462736463015
 30
0.0
 11
300.6591614307231
 21
-3.689400031783463
 31
0.0
  0
LINE
  5
830
330
1A
100
AcDbEntity
 67
     1
  8
RAHMEN025
370
     9
100
AcDbLine
 10
300.7834730543429
 20
-3.225462736463015
 30
0.0
 11
300.6694373980896
 21
-3.651049599475214
 31
0.0
  0
TEXT
  5
831
330
1A
100
AcDbEntity
 67
     1
  8
RAHMEN025
 48
1.5
100
AcDbText
 10
286.8052199360702
 20
13.40919624003552
 30
0.0
 40
2.5
  1
10.10.2006
 41
0.65
  7
Stil1
100
AcDbText
  0
LINE
  5
832
102
{ACAD_REACTORS
330
79F
102
}
330
1A
100
AcDbEntity
 67
     1
  8
Defpoints
370
    13
100
AcDbLine
 10
303.0375954958913
 20
-9.080529811229068
 30
0.0
 11
303.3103377961926
 21
-8.06264168913117
 31
0.0
  0
LINE
  5
833
102
{ACAD_REACTORS
330
79F
102
}
330
1A
100
AcDbEntity
 67
     1
  8
Defpoints
370
    13
100
AcDbLine
 10
304.5444946296585
 20
-5.366236687368555
 30
0.0
 11
303.5492527866677
 21
-9.080529811229068
 31
0.0
  0
LINE
  5
834
102
{ACAD_REACTORS
330
79F
102
}
330
1A
100
AcDbEntity
 67
     1
  8
Defpoints
370
    13
100
AcDbLine
 10
305.2787651781451
 20
-7.487128667187008
 30
0.0
 11
304.8544742444414
 21
-9.070603988959746
 31
0.0
  0
LINE
  5
835
102
{ACAD_REACTORS
330
79F
102
}
330
1A
100
AcDbEntity
 67
     1
  8
Defpoints
370
    13
100
AcDbLine
 10
305.2787651781451
 20
-7.487128667187008
 30
0.0
 11
306.2822934734177
 21
-9.070603988959746
 31
0.0
  0
LINE
  5
836
102
{ACAD_REACTORS
330
79F
102
}
330
1A
100
AcDbEntity
 67
     1
  8
Defpoints
370
    13
100
AcDbLine
 10
306.9877696650504
 20
-7.487128667187008
 30
0.0
 11
307.9912979603231
 21
-9.070603988959746
 31
0.0
  0
LINE
  5
837
102
{ACAD_REACTORS
330
79F
102
}
330
1A
100
AcDbEntity
 67
     1
  8
Defpoints
370
    13
100
AcDbLine
 10
309.4536890003288
 20
-5.376162509637708
 30
0.0
 11
308.4611067733993
 21
-9.080529811229068
 31
0.0
  0
LINE
  5
838
102
{ACAD_REACTORS
330
79F
102
}
330
1A
100
AcDbEntity
 67
     1
  8
Defpoints
370
    13
100
AcDbLine
 10
310.7959541311184
 20
-5.376162509637708
 30
0.0
 11
309.8033719041888
 21
-9.080529811229068
 31
0.0
  0
LINE
  5
839
102
{ACAD_REACTORS
330
79F
102
}
330
1A
100
AcDbEntity
 67
     1
  8
Defpoints
370
    13
100
AcDbLine
 10
311.2578306982155
 20
-5.376162509637708
 30
0.0
 11
310.2652484712854
 21
-9.080529811229068
 31
0.0
  0
LINE
  5
83A
102
{ACAD_REACTORS
330
79F
102
}
330
1A
100
AcDbEntity
 67
     1
  8
Defpoints
370
    13
100
AcDbLine
 10
312.0397050772036
 20
-7.319394575387889
 30
0.0
 11
311.567810312998
 21
-9.080529811229068
 31
0.0
  0
LINE
  5
83B
102
{ACAD_REACTORS
330
79F
102
}
330
1A
100
AcDbEntity
 67
     1
  8
Defpoints
370
    13
100
AcDbLine
 10
312.7468403836529
 20
-9.080529811229068
 30
0.0
 11
312.0397050772036
 21
-7.319394575387889
 31
0.0
  0
LINE
  5
83C
102
{ACAD_REACTORS
330
79F
102
}
330
1A
100
AcDbEntity
 67
     1
  8
Defpoints
370
    13
100
AcDbLine
 10
314.0208851239587
 20
-9.080529811229068
 30
0.0
 11
315.0134673508883
 21
-5.376162509637708
 31
0.0
  0
ARC
  5
83D
102
{ACAD_REACTORS
330
79F
102
}
330
1A
100
AcDbEntity
 67
     1
  8
Defpoints
370
    13
100
AcDbCircle
 10
315.6584040113746
 20
-8.065741845560424
 30
0.0
 40
0.9587608077068694
100
AcDbArc
 50
171.0200151799534
 51
262.0635437036931
  0
LINE
  5
83E
102
{ACAD_REACTORS
330
79F
102
}
330
1A
100
AcDbEntity
 67
     1
  8
Defpoints
370
    13
100
AcDbLine
 10
318.129955827608
 20
-9.080529811229068
 30
0.0
 11
318.6355431375897
 21
-7.193652282714822
 31
0.0
  0
LINE
  5
83F
102
{ACAD_REACTORS
330
79F
102
}
330
1A
100
AcDbEntity
 67
     1
  8
Defpoints
370
    13
100
AcDbLine
 10
303.551912402729
 20
-9.070603988959746
 30
0.0
 11
304.8544742444414
 21
-9.070603988959746
 31
0.0
  0
LINE
  5
840
102
{ACAD_REACTORS
330
79F
102
}
330
1A
100
AcDbEntity
 67
     1
  8
Defpoints
370
    13
100
AcDbLine
 10
306.2822934734177
 20
-9.070603988959746
 30
0.0
 11
307.9912979603231
 21
-9.070603988959746
 31
0.0
  0
LINE
  5
841
102
{ACAD_REACTORS
330
79F
102
}
330
1A
100
AcDbEntity
 67
     1
  8
Defpoints
370
    13
100
AcDbLine
 10
308.4611067733993
 20
-9.080529811229068
 30
0.0
 11
309.8033719041888
 21
-9.080529811229068
 31
0.0
  0
LINE
  5
842
102
{ACAD_REACTORS
330
79F
102
}
330
1A
100
AcDbEntity
 67
     1
  8
Defpoints
370
    13
100
AcDbLine
 10
310.2652484712854
 20
-9.080529811229068
 30
0.0
 11
311.567810312998
 21
-9.080529811229068
 31
0.0
  0
LINE
  5
843
102
{ACAD_REACTORS
330
79F
102
}
330
1A
100
AcDbEntity
 67
     1
  8
Defpoints
370
    13
100
AcDbLine
 10
312.7468403836529
 20
-9.080529811229068
 30
0.0
 11
314.0208851239587
 21
-9.080529811229068
 31
0.0
  0
ARC
  5
844
102
{ACAD_REACTORS
330
79F
102
}
330
1A
100
AcDbEntity
 67
     1
  8
Defpoints
370
    13
100
AcDbCircle
 10
316.5090125147502
 20
-1.964255946544398
 30
0.0
 40
7.119253077153191
100
AcDbArc
 50
262.0635437036931
 51
268.3423749580197
  0
LINE
  5
845
102
{ACAD_REACTORS
330
79F
102
}
330
1A
100
AcDbEntity
 67
     1
  8
Defpoints
370
    13
100
AcDbLine
 10
318.129955827608
 20
-9.080529811229068
 30
0.0
 11
316.3030740303196
 21
-9.080529811229068
 31
0.0
  0
ARC
  5
846
330
1A
100
AcDbEntity
 67
     1
  8
Defpoints
100
AcDbCircle
 10
317.3046618247464
 20
-7.930016841980858
 30
0.0
 40
1.150512969248243
100
AcDbArc
 50
270.0
 51
270.0
  0
TEXT
  5
847
330
1A
100
AcDbEntity
 67
     1
  8
RAHMEN025
100
AcDbText
 10
321.3215405271729
 20
-16.25268125522913
 30
0.0
 40
2.5
  1
Ersatz für:
  7
ISO Proportional
100
AcDbText
  0
LINE
  5
848
102
{ACAD_REACTORS
330
79F
102
}
330
1A
100
AcDbEntity
 67
     1
  8
Defpoints
370
    13
100
AcDbLine
 10
312.5190165454817
 20
-5.376162509637708
 30
0.0
 11
311.2578306982155
 21
-5.376162509637708
 31
0.0
  0
LINE
  5
849
102
{ACAD_REACTORS
330
79F
102
}
330
1A
100
AcDbEntity
 67
     1
  8
Defpoints
370
    13
100
AcDbLine
 10
303.7570905494725
 20
-6.395337715469992
 30
0.0
 11
304.0301777228209
 21
-5.376162509637708
 31
0.0
  0
LINE
  5
84A
102
{ACAD_REACTORS
330
79F
102
}
330
1A
100
AcDbEntity
 67
     1
  8
Defpoints
370
    13
100
AcDbLine
 10
303.4346494198122
 20
-7.598704393810947
 30
0.0
 11
303.6330434747229
 21
-6.858287700965647
 31
0.0
  0
LINE
  5
84B
102
{ACAD_REACTORS
330
79F
102
}
330
1A
100
AcDbEntity
 67
     1
  8
Defpoints
370
    13
100
AcDbLine
 10
308.5831486227391
 20
-6.861787246329583
 30
0.0
 11
308.6992973518441
 21
-6.428314288074972
 31
0.0
  0
ARC
  5
84C
102
{ACAD_REACTORS
330
79F
102
}
330
1A
100
AcDbEntity
 67
     1
  8
Defpoints
370
    13
100
AcDbCircle
 10
307.8843365454942
 20
-6.209946198150518
 30
0.0
 40
0.8437095107820451
100
AcDbArc
 50
344.9999529879285
 51
90.0
  0
LINE
  5
84D
102
{ACAD_REACTORS
330
79F
102
}
330
1A
100
AcDbEntity
 67
     1
  8
Defpoints
370
    13
100
AcDbLine
 10
307.8843365454942
 20
-5.366236687368555
 30
0.0
 11
304.5444946296585
 21
-5.366236687368555
 31
0.0
  0
LINE
  5
84E
102
{ACAD_REACTORS
330
79F
102
}
330
1A
100
AcDbEntity
 67
     1
  8
Defpoints
370
    13
100
AcDbLine
 10
307.768187816389
 20
-7.487128667187008
 30
0.0
 11
306.9877696650504
 21
-7.487128667187008
 31
0.0
  0
ARC
  5
84F
102
{ACAD_REACTORS
330
79F
102
}
330
1A
100
AcDbEntity
 67
     1
  8
Defpoints
370
    13
100
AcDbCircle
 10
307.768187816389
 20
-6.643419156404931
 30
0.0
 40
0.8437095107820451
100
AcDbArc
 50
270.0
 51
345.0438139040562
  0
LINE
  5
850
102
{ACAD_REACTORS
330
79F
102
}
330
1A
100
AcDbEntity
 67
     1
  8
Defpoints
370
    13
100
AcDbLine
 10
306.7269203399131
 20
-6.242817040716545
 30
0.0
 11
305.6121774735903
 21
-6.242817040716545
 31
0.0
  0
ARC
  5
851
102
{ACAD_REACTORS
330
79F
102
}
330
1A
100
AcDbEntity
 67
     1
  8
Defpoints
370
    13
100
AcDbCircle
 10
306.7282372364286
 20
-6.629149207663772
 30
0.0
 40
0.386334411403646
100
AcDbArc
 50
350.9662004601523
 51
90.1953042656462
  0
ARC
  5
852
102
{ACAD_REACTORS
330
79F
102
}
330
1A
100
AcDbEntity
 67
     1
  8
Defpoints
370
    13
100
AcDbCircle
 10
306.568253620658
 20
-6.603713539219057
 30
0.0
 40
0.5483274067590241
100
AcDbArc
 50
296.5093598874432
 51
350.9662004601523
  0
ARC
  5
853
102
{ACAD_REACTORS
330
79F
102
}
330
1A
100
AcDbEntity
 67
     1
  8
Defpoints
370
    13
100
AcDbCircle
 10
306.5338099937955
 20
-6.378697904488063
 30
0.0
 40
0.7682193793950698
100
AcDbArc
 50
270.1852188608381
 51
291.3103783431897
  0
LINE
  5
854
102
{ACAD_REACTORS
330
79F
102
}
330
1A
100
AcDbEntity
 67
     1
  8
Defpoints
370
    13
100
AcDbLine
 10
306.5362933932811
 20
-7.146913269858401
 30
0.0
 11
305.3699256191117
 21
-7.146913269858401
 31
0.0
  0
LINE
  5
855
102
{ACAD_REACTORS
330
79F
102
}
330
1A
100
AcDbEntity
 67
     1
  8
Defpoints
370
    13
100
AcDbLine
 10
305.3699256191117
 20
-7.146913269858401
 30
0.0
 11
305.6121774735903
 21
-6.242817040716545
 31
0.0
  0
LINE
  5
856
102
{ACAD_REACTORS
330
79F
102
}
330
1A
100
AcDbEntity
 67
     1
  8
Defpoints
370
    13
100
AcDbLine
 10
310.7959541311184
 20
-5.376162509637708
 30
0.0
 11
309.4536890003288
 21
-5.376162509637708
 31
0.0
  0
LINE
  5
857
102
{ACAD_REACTORS
330
7A6
102
}
330
1A
100
AcDbEntity
 67
     1
  8
RAHMEN025
370
     9
100
AcDbLine
 10
303.5986922840405
 20
-2.022096058122286
 30
0.0
 11
303.8717794573894
 21
-1.00292085229006
 31
0.0
  0
LINE
  5
858
102
{ACAD_REACTORS
330
7A6
102
}
330
1A
100
AcDbEntity
 67
     1
  8
RAHMEN025
370
     9
100
AcDbLine
 10
302.8791972304594
 20
-4.707288153881478
 30
0.0
 11
303.151939530761
 21
-3.689400031783463
 31
0.0
  0
LINE
  5
859
102
{ACAD_REACTORS
330
7A6
102
}
330
1A
100
AcDbEntity
 67
     1
  8
RAHMEN025
370
     9
100
AcDbLine
 10
303.2762511543809
 20
-3.225462736463015
 30
0.0
 11
303.4746452092913
 21
-2.485046043617984
 31
0.0
  0
ARC
  5
85A
102
{ACAD_REACTORS
330
7A6
102
}
330
1A
100
AcDbEntity
 67
     1
  8
RAHMEN025
370
     9
100
AcDbCircle
 10
307.7472342697125
 20
-1.84663036307225
 30
0.0
 40
0.8437095107820451
100
AcDbArc
 50
344.9999529879285
 51
90.0
  0
LINE
  5
85B
102
{ACAD_REACTORS
330
7A6
102
}
330
1A
100
AcDbEntity
 67
     1
  8
RAHMEN025
370
     9
100
AcDbLine
 10
307.7472342697125
 20
-1.00292085229006
 30
0.0
 11
304.4073923538767
 21
-1.00292085229006
 31
0.0
  0
LINE
  5
85C
102
{ACAD_REACTORS
330
7A6
102
}
330
1A
100
AcDbEntity
 67
     1
  8
RAHMEN025
370
     9
100
AcDbLine
 10
304.4073923538767
 20
-1.00292085229006
 30
0.0
 11
303.4148101269472
 21
-4.707288153881478
 31
0.0
  0
LINE
  5
85D
102
{ACAD_REACTORS
330
7A6
102
}
330
1A
100
AcDbEntity
 67
     1
  8
RAHMEN025
370
     9
100
AcDbLine
 10
303.4148101269472
 20
-4.707288153881478
 30
0.0
 11
304.7173719686597
 21
-4.707288153881478
 31
0.0
  0
LINE
  5
85E
102
{ACAD_REACTORS
330
7A6
102
}
330
1A
100
AcDbEntity
 67
     1
  8
RAHMEN025
370
     9
100
AcDbLine
 10
305.1416629023632
 20
-3.123812832108484
 30
0.0
 11
304.7173719686597
 21
-4.707288153881478
 31
0.0
  0
LINE
  5
85F
102
{ACAD_REACTORS
330
7A6
102
}
330
1A
100
AcDbEntity
 67
     1
  8
RAHMEN025
370
     9
100
AcDbLine
 10
305.1416629023632
 20
-3.123812832108484
 30
0.0
 11
306.1451911976358
 21
-4.707288153881478
 31
0.0
  0
LINE
  5
860
102
{ACAD_REACTORS
330
7A6
102
}
330
1A
100
AcDbEntity
 67
     1
  8
RAHMEN025
370
     9
100
AcDbLine
 10
306.1451911976358
 20
-4.707288153881478
 30
0.0
 11
307.8541956845414
 21
-4.707288153881478
 31
0.0
  0
LINE
  5
861
102
{ACAD_REACTORS
330
7A6
102
}
330
1A
100
AcDbEntity
 67
     1
  8
RAHMEN025
370
     9
100
AcDbLine
 10
306.8506673892686
 20
-3.123812832108484
 30
0.0
 11
307.8541956845414
 21
-4.707288153881478
 31
0.0
  0
LINE
  5
862
102
{ACAD_REACTORS
330
7A6
102
}
330
1A
100
AcDbEntity
 67
     1
  8
RAHMEN025
370
     9
100
AcDbLine
 10
307.6310855406073
 20
-3.123812832108484
 30
0.0
 11
306.8506673892686
 21
-3.123812832108484
 31
0.0
  0
ARC
  5
863
102
{ACAD_REACTORS
330
7A6
102
}
330
1A
100
AcDbEntity
 67
     1
  8
RAHMEN025
370
     9
100
AcDbCircle
 10
307.6310855406073
 20
-2.280103321326521
 30
0.0
 40
0.8437095107820451
100
AcDbArc
 50
270.0
 51
345.0438139040562
  0
LINE
  5
864
102
{ACAD_REACTORS
330
7A6
102
}
330
1A
100
AcDbEntity
 67
     1
  8
RAHMEN025
370
     9
100
AcDbLine
 10
308.4460463469575
 20
-2.498471411251045
 30
0.0
 11
308.5621950760622
 21
-2.064998452996661
 31
0.0
  0
LINE
  5
865
102
{ACAD_REACTORS
330
7A6
102
}
330
1A
100
AcDbEntity
 67
     1
  8
RAHMEN025
370
     9
100
AcDbLine
 10
306.5898180641314
 20
-1.879501205638007
 30
0.0
 11
305.475075197809
 21
-1.879501205638007
 31
0.0
  0
ARC
  5
866
102
{ACAD_REACTORS
330
7A6
102
}
330
1A
100
AcDbEntity
 67
     1
  8
RAHMEN025
370
     9
100
AcDbCircle
 10
306.5911349606467
 20
-2.265833372585518
 30
0.0
 40
0.386334411403646
100
AcDbArc
 50
350.9662004601523
 51
90.1953042656462
  0
ARC
  5
867
102
{ACAD_REACTORS
330
7A6
102
}
330
1A
100
AcDbEntity
 67
     1
  8
RAHMEN025
370
     9
100
AcDbCircle
 10
306.4311513448764
 20
-2.240397704140718
 30
0.0
 40
0.5483274067590241
100
AcDbArc
 50
296.5093598874432
 51
350.9662004601523
  0
ARC
  5
868
102
{ACAD_REACTORS
330
7A6
102
}
330
1A
100
AcDbEntity
 67
     1
  8
RAHMEN025
370
     9
100
AcDbCircle
 10
306.3967077180136
 20
-2.015382069409554
 30
0.0
 40
0.7682193793950698
100
AcDbArc
 50
270.1852188608381
 51
291.3103783431897
  0
LINE
  5
869
102
{ACAD_REACTORS
330
7A6
102
}
330
1A
100
AcDbEntity
 67
     1
  8
RAHMEN025
370
     9
100
AcDbLine
 10
306.3991911174995
 20
-2.783597434780077
 30
0.0
 11
305.23282334333
 21
-2.783597434780077
 31
0.0
  0
LINE
  5
86A
102
{ACAD_REACTORS
330
7A6
102
}
330
1A
100
AcDbEntity
 67
     1
  8
RAHMEN025
370
     9
100
AcDbLine
 10
305.23282334333
 20
-2.783597434780077
 30
0.0
 11
305.475075197809
 21
-1.879501205638007
 31
0.0
  0
LINE
  5
86B
102
{ACAD_REACTORS
330
79F
102
}
330
1A
100
AcDbEntity
 67
     1
  8
Defpoints
370
    13
100
AcDbLine
 10
315.0134673508883
 20
-5.376162509637708
 30
0.0
 11
313.69809621133
 21
-5.376162509637708
 31
0.0
  0
LINE
  5
86C
102
{ACAD_REACTORS
330
79F
102
}
330
1A
100
AcDbEntity
 67
     1
  8
Defpoints
370
    13
100
AcDbLine
 10
313.2286065602305
 20
-7.128321741168889
 30
0.0
 11
313.69809621133
 21
-5.376162509637708
 31
0.0
  0
LINE
  5
86D
102
{ACAD_REACTORS
330
79F
102
}
330
1A
100
AcDbEntity
 67
     1
  8
Defpoints
370
    13
100
AcDbLine
 10
312.5190165454817
 20
-5.376162509637708
 30
0.0
 11
313.2286065602305
 21
-7.128321741168889
 31
0.0
  0
ARC
  5
86E
102
{ACAD_REACTORS
330
79F
102
}
330
1A
100
AcDbEntity
 67
     1
  8
Defpoints
370
    13
100
AcDbCircle
 10
316.9141926934638
 20
-6.799011607449045
 30
0.0
 40
0.4602051876992975
100
AcDbArc
 50
93.02614479233048
 51
158.0969939507942
  0
ARC
  5
86F
102
{ACAD_REACTORS
330
79F
102
}
330
1A
100
AcDbEntity
 67
     1
  8
Defpoints
370
    13
100
AcDbCircle
 10
317.3575073824462
 20
-15.18474321540516
 30
0.0
 40
8.85764661435673
100
AcDbArc
 50
80.0265067162775
 51
93.02614479233048
  0
LINE
  5
870
102
{ACAD_REACTORS
330
79F
102
}
330
1A
100
AcDbEntity
 67
     1
  8
Defpoints
370
    13
100
AcDbLine
 10
318.8915858575257
 20
-6.460953512694473
 30
0.0
 11
319.1555395797895
 21
-5.467687783470779
 31
0.0
  0
ARC
  5
871
102
{ACAD_REACTORS
330
79F
102
}
330
1A
100
AcDbEntity
 67
     1
  8
Defpoints
370
    13
100
AcDbCircle
 10
317.5220598968917
 20
-19.84325859443752
 30
0.0
 40
14.46807838019826
100
AcDbArc
 50
83.51735091136804
 51
95.92334440423654
  0
ARC
  5
872
102
{ACAD_REACTORS
330
79F
102
}
330
1A
100
AcDbEntity
 67
     1
  8
Defpoints
370
    13
100
AcDbCircle
 10
316.1279279534884
 20
-6.406069252956825
 30
0.0
 40
0.9587608077068694
100
AcDbArc
 50
95.92334440423654
 51
157.3874044007997
  0
ARC
  5
873
102
{ACAD_REACTORS
330
79F
102
}
330
1A
100
AcDbEntity
 67
     1
  8
Defpoints
370
    13
100
AcDbCircle
 10
322.8355774312938
 20
-9.199924480323517
 30
0.0
 40
8.224997010073714
100
AcDbArc
 50
157.3874044007955
 51
171.0200151799534
  0
LINE
  5
874
102
{ACAD_REACTORS
330
79F
102
}
330
1A
100
AcDbEntity
 67
     1
  8
Defpoints
370
    13
100
AcDbLine
 10
317.0708209585928
 20
-7.193652282714822
 30
0.0
 11
318.6355431375897
 21
-7.193652282714822
 31
0.0
  0
ARC
  5
875
102
{ACAD_REACTORS
330
79F
102
}
330
1A
100
AcDbEntity
 67
     1
  8
Defpoints
370
    13
100
AcDbCircle
 10
315.6775758632627
 20
-7.482530242032709
 30
0.0
 40
1.422878199650913
100
AcDbArc
 50
334.2263645027383
 51
11.71383119333059
  0
ARC
  5
876
102
{ACAD_REACTORS
330
79F
102
}
330
1A
100
AcDbEntity
 67
     1
  8
Defpoints
370
    13
100
AcDbCircle
 10
316.5444811498379
 20
-7.901116615494544
 30
0.0
 40
0.4602051876992975
100
AcDbArc
 50
270.0
 51
334.2263645027491
  0
LINE
  5
877
102
{ACAD_REACTORS
330
79F
102
}
330
1A
100
AcDbEntity
 67
     1
  8
Defpoints
370
    13
100
AcDbLine
 10
316.5027909280021
 20
-8.36132180319403
 30
0.0
 11
316.5444811498379
 21
-8.36132180319403
 31
0.0
  0
ARC
  5
878
102
{ACAD_REACTORS
330
79F
102
}
330
1A
100
AcDbEntity
 67
     1
  8
Defpoints
370
    13
100
AcDbCircle
 10
316.5027909280021
 20
-7.977817480111269
 30
0.0
 40
0.3835043230827479
100
AcDbArc
 50
171.2985646492635
 51
270.0
  0
ARC
  5
879
102
{ACAD_REACTORS
330
79F
102
}
330
1A
100
AcDbEntity
 67
     1
  8
Defpoints
370
    13
100
AcDbCircle
 10
322.2596116335654
 20
-8.948182021538173
 30
0.0
 40
6.22149298766157
100
AcDbArc
 50
158.0969939507942
 51
170.4856136403678
  0
TEXT
  5
87A
330
1A
100
AcDbEntity
 67
     1
  8
RAHMEN025
 48
1.5
100
AcDbText
 10
303.331116880858
 20
13.40919624003552
 30
0.0
 40
2.5
  1
Hornung
 41
0.8
  7
Stil1
100
AcDbText
  0
TEXT
  5
87B
330
1A
100
AcDbEntity
 67
     1
  8
RAHMEN05
 48
1.5
100
AcDbText
 10
345.7156182092274
 20
-9.086814605376247
 30
0.0
 40
5.0
  1
514008
 41
0.8
  7
Stil1
100
AcDbText
  0
LINE
  5
87C
330
1A
100
AcDbEntity
 67
     1
  8
RAHMEN025
100
AcDbLine
 10
363.8448404831802
 20
-12.87768125522913
 30
0.0
 11
363.8448404831802
 21
-17.12768125522922
 31
0.0
  0
TEXT
  5
87D
330
1A
100
AcDbEntity
 67
     1
  8
RAHMEN025
100
AcDbText
 10
277.0485064382872
 20
33.68481874477086
 30
0.0
 40
2.5
  1
Zul. Abw.
  7
ISO Proportional
100
AcDbText
  0
TEXT
  5
87E
330
1A
100
AcDbEntity
 67
     1
  8
RAHMEN025
 48
1.5
100
AcDbText
 10
277.6952698711817
 20
24.00453440917511
 30
0.0
 40
2.5
  1
DIN ISO 2768-m
 41
0.65
  7
Stil1
100
AcDbText
  0
TEXT
  5
87F
330
1A
100
AcDbEntity
 67
     1
  8
RAHMEN025
100
AcDbText
 10
320.4103449951614
 20
25.55778908489904
 30
0.0
 40
2.5
  1
Werkstoff:
  7
ISO Proportional
100
AcDbText
  0
TEXT
  5
880
330
1A
100
AcDbEntity
 67
     1
  8
RAHMEN025
100
AcDbText
 10
320.7711003856719
 20
33.68481874477086
 30
0.0
 40
2.5
  1
Maßstab:
  7
ISO Proportional
100
AcDbText
  0
TEXT
  5
881
330
1A
100
AcDbEntity
 67
     1
  8
RAHMEN025
100
AcDbText
 10
302.8909386363365
 20
33.68481874477086
 30
0.0
 40
2.5
  1
Oberfl.
  7
ISO Proportional
100
AcDbText
  0
TEXT
  5
882
330
1A
100
AcDbEntity
 67
     1
  8
RAHMEN025
 62
     6
 48
1.5
370
    35
100
AcDbText
 10
342.4972622327225
 20
24.93141723544536
 30
0.0
 40
3.5
  1
%
 41
0.8
  7
Stil1
100
AcDbText
  0
TEXT
  5
883
330
1A
100
AcDbEntity
 67
     1
  8
RAHMEN025
 62
     6
 48
1.5
370
    35
100
AcDbText
 10
342.4972622327225
 20
33.66808038738454
 30
0.0
 40
2.5
  1
%
 41
0.8
  7
Stil1
100
AcDbText
  0
LINE
  5
884
330
1A
100
AcDbEntity
 67
     1
  8
RAHMEN025
100
AcDbLine
 10
371.6448404831804
 20
38.12231874477081
 30
0.0
 11
371.6448404831804
 21
31.74731874477086
 31
0.0
  0
LINE
  5
885
330
1A
100
AcDbEntity
 67
     1
  8
RAHMEN025
100
AcDbLine
 10
395.0448404831803
 20
-0.1276812552291631
 30
0.0
 11
395.0448404831803
 21
-12.87768125522913
 31
0.0
  0
TEXT
  5
886
330
1A
100
AcDbEntity
 67
     1
  8
RAHMEN025
100
AcDbText
 10
395.9570999665022
 20
-11.87189041967519
 30
0.0
 40
2.5
  1
Blätter
  7
ISO Proportional
100
AcDbText
  0
LINE
  5
887
330
1A
100
AcDbEntity
 67
     1
  8
RAHMEN025
100
AcDbLine
 10
395.0448404831801
 20
-8.627681255229135
 30
0.0
 11
408.0448404831801
 21
-8.627681255229135
 31
0.0
  0
TEXT
  5
888
330
1A
100
AcDbEntity
 67
     1
  8
RAHMEN025
100
AcDbText
 10
395.9532999743027
 20
-3.495486805135413
 30
0.0
 40
2.5
  1
Blatt
  7
ISO Proportional
100
AcDbText
  0
TEXT
  5
889
330
1A
100
AcDbEntity
 67
     1
  8
RAHMEN025
 62
     6
 48
1.5
370
    35
100
AcDbText
 10
388.4672883102646
 20
33.66808038738454
 30
0.0
 40
2.5
  1
ca. 5,9 kg
 41
0.8
  7
Stil1
100
AcDbText
  0
ENDSEC
  0
SECTION
  2
OBJECTS
  0
DICTIONARY
  5
C
330
0
100
AcDbDictionary
281
     1
  3
ACAD_GROUP
350
D
  3
ACAD_IMAGE_VARS
350
AB8
  3
ACAD_LAYOUT
350
19
  3
ACAD_MLINESTYLE
350
16
  3
ACAD_PLOTSETTINGS
350
18
  3
ACAD_PLOTSTYLENAME
350
E
  3
ACAD_SCALELIST
350
A73
  3
AcDbVariableDictionary
350
2A8
  3
APPDATA
350
AB6
  3
DWGPROPS
350
ADE
  0
DICTIONARY
  5
45F
330
2
100
AcDbDictionary
280
     1
281
     1
  3
ACAD_LAYERFILTERS
360
460
  3
ACAD_LAYERSTATES
360
46F
  0
DICTIONARY
  5
D
102
{ACAD_REACTORS
330
C
102
}
330
C
100
AcDbDictionary
281
     1
  0
RASTERVARIABLES
  5
AB8
102
{ACAD_REACTORS
330
C
102
}
330
C
100
AcDbRasterVariables
 90
        0
 70
     1
 71
     1
 72
     0
  0
DICTIONARY
  5
19
102
{ACAD_REACTORS
330
C
102
}
330
C
100
AcDbDictionary
281
     1
  3
Layout1
350
1D
  3
Model
350
21
  0
DICTIONARY
  5
16
102
{ACAD_REACTORS
330
C
102
}
330
C
100
AcDbDictionary
281
     1
  3
Standard
350
17
  0
DICTIONARY
  5
18
102
{ACAD_REACTORS
330
C
102
}
330
C
100
AcDbDictionary
281
     1
  0
ACDBDICTIONARYWDFLT
  5
E
102
{ACAD_REACTORS
330
C
102
}
330
C
100
AcDbDictionary
281
     1
  3
Normal
350
F
100
AcDbDictionaryWithDefault
340
F
  0
DICTIONARY
  5
A73
102
{ACAD_REACTORS
330
C
102
}
330
C
100
AcDbDictionary
281
     1
  3
A0
350
A74
  3
A1
350
A75
  3
A2
350
A76
  3
A3
350
A77
  3
A4
350
A78
  3
A5
350
A79
  3
A6
350
A7A
  3
A7
350
A7B
  3
A8
350
A7C
  3
A9
350
A7D
  3
B0
350
A7E
  3
B1
350
A7F
  3
B2
350
A80
  3
B3
350
A81
  3
B4
350
A82
  3
B5
350
A83
  3
B6
350
A84
  3
B7
350
A85
  3
B8
350
A86
  3
B9
350
A87
  3
C0
350
A88
  3
C1
350
A89
  3
C2
350
A8A
  3
C3
350
A8B
  3
C4
350
A8C
  3
C5
350
A8D
  3
C6
350
A8E
  3
C7
350
A8F
  3
C8
350
A90
  3
C9
350
A91
  3
D0
350
A92
  3
D1
350
A93
  3
D2
350
A94
  0
DICTIONARY
  5
2A8
102
{ACAD_REACTORS
330
C
102
}
330
C
100
AcDbDictionary
281
     1
  3
DIMASSOC
350
2A9
  0
DICTIONARY
  5
AB6
102
{ACAD_REACTORS
330
C
102
}
330
C
100
AcDbDictionary
281
     1
  0
XRECORD
  5
ADE
102
{ACAD_REACTORS
330
C
102
}
330
C
100
AcDbXrecord
280
     1
  1
DWGPROPS COOKIE
  2

  3

  4

  6

  7

  8
theodor.kuschma
  9

300
=
301
=
302
=
303
=
304
=
305
=
306
=
307
=
308
=
309
=
 40
0.0
 41
2453936.262184792
 42
2456966.597989283
  1

 90
        0
  0
DICTIONARY
  5
460
102
{ACAD_REACTORS
330
45F
102
}
330
45F
100
AcDbDictionary
280
     1
281
     1
  0
DICTIONARY
  5
46F
102
{ACAD_REACTORS
330
45F
102
}
330
45F
100
AcDbDictionary
281
     1
  0
LAYOUT
  5
1D
102
{ACAD_REACTORS
330
19
102
}
330
19
100
AcDbPlotSettings
  1

  2
DesignJet 600 C2847A.pc3
  4
ISO_A3_(420.00_x_297.00_MM)
  6

 40
5.793749809265136
 41
17.79375076293945
 42
5.79376220703125
 43
17.79376220703125
 44
420.0
 45
297.0
 46
0.0
 47
0.0
 48
0.0
 49
0.0
140
0.0
141
0.0
142
1.0
143
1.0
 70
   688
 72
     1
 73
     0
 74
     5
  7

 75
     0
147
1.0
148
0.0
149
0.0
100
AcDbLayout
  1
Layout1
 70
     0
 71
     1
 10
-5.793749809265136
 20
-17.79375076293945
 11
414.2062501907348
 21
279.2062492370605
 12
0.0
 22
0.0
 32
0.0
 14
-6.95515951681989
 24
-22.12768125522913
 34
0.0
 15
413.0448404831801
 25
274.8723187447708
 35
0.0
146
0.0
 13
0.0
 23
0.0
 33
0.0
 16
1.0
 26
0.0
 36
0.0
 17
0.0
 27
1.0
 37
0.0
 76
     0
330
1A
331
658
  0
LAYOUT
  5
21
102
{ACAD_REACTORS
330
19
102
}
330
19
100
AcDbPlotSettings
  1

  2
DesignJet 600 C2847A.pc3
  4
ISO_A3_(420.00_x_297.00_MM)
  6

 40
5.793749809265136
 41
17.79375076293945
 42
5.79376220703125
 43
17.79376220703125
 44
420.0
 45
297.0
 46
0.0
 47
0.0
 48
-183.1866574829782
 49
-140.2594990078907
140
628.145916524685
141
530.3362946261984
142
1.0
143
2.565278350903932
 70
 11952
 72
     1
 73
     0
 74
     4
  7

 75
     0
147
0.3898212447969351
148
183.1866574829782
149
140.2594990078907
100
AcDbLayout
  1
Model
 70
     1
 71
     0
 10
0.0
 20
0.0
 11
12.0
 21
9.0
 12
0.0
 22
0.0
 32
0.0
 14
0.0
 24
0.0
 34
0.0
 15
0.0
 25
0.0
 35
0.0
146
0.0
 13
0.0
 23
0.0
 33
0.0
 16
1.0
 26
0.0
 36
0.0
 17
0.0
 27
1.0
 37
0.0
 76
     0
330
1E
331
A38
  0
MLINESTYLE
  5
17
102
{ACAD_REACTORS
330
16
102
}
330
16
100
AcDbMlineStyle
  2
STANDARD
 70
     0
  3

 62
   256
 51
90.0
 52
90.0
 71
     2
 49
0.5
 62
   256
  6
BYLAYER
 49
-0.5
 62
   256
  6
BYLAYER
  0
ACDBPLACEHOLDER
  5
F
102
{ACAD_REACTORS
330
E
102
}
330
E
  0
SCALE
  5
A74
102
{ACAD_REACTORS
330
A73
102
}
330
A73
100
AcDbScale
 70
     0
300
1:1
140
1.0
141
1.0
290
     1
  0
SCALE
  5
A75
102
{ACAD_REACTORS
330
A73
102
}
330
A73
100
AcDbScale
 70
     0
300
1:2
140
1.0
141
2.0
290
     0
  0
SCALE
  5
A76
102
{ACAD_REACTORS
330
A73
102
}
330
A73
100
AcDbScale
 70
     0
300
1:4
140
1.0
141
4.0
290
     0
  0
SCALE
  5
A77
102
{ACAD_REACTORS
330
A73
102
}
330
A73
100
AcDbScale
 70
     0
300
1:5
140
1.0
141
5.0
290
     0
  0
SCALE
  5
A78
102
{ACAD_REACTORS
330
A73
102
}
330
A73
100
AcDbScale
 70
     0
300
1:8
140
1.0
141
8.0
290
     0
  0
SCALE
  5
A79
102
{ACAD_REACTORS
330
A73
102
}
330
A73
100
AcDbScale
 70
     0
300
1:10
140
1.0
141
10.0
290
     0
  0
SCALE
  5
A7A
102
{ACAD_REACTORS
330
A73
102
}
330
A73
100
AcDbScale
 70
     0
300
1:16
140
1.0
141
16.0
290
     0
  0
SCALE
  5
A7B
102
{ACAD_REACTORS
330
A73
102
}
330
A73
100
AcDbScale
 70
     0
300
1:20
140
1.0
141
20.0
290
     0
  0
SCALE
  5
A7C
102
{ACAD_REACTORS
330
A73
102
}
330
A73
100
AcDbScale
 70
     0
300
1:30
140
1.0
141
30.0
290
     0
  0
SCALE
  5
A7D
102
{ACAD_REACTORS
330
A73
102
}
330
A73
100
AcDbScale
 70
     0
300
1:40
140
1.0
141
40.0
290
     0
  0
SCALE
  5
A7E
102
{ACAD_REACTORS
330
A73
102
}
330
A73
100
AcDbScale
 70
     0
300
1:50
140
1.0
141
50.0
290
     0
  0
SCALE
  5
A7F
102
{ACAD_REACTORS
330
A73
102
}
330
A73
100
AcDbScale
 70
     0
300
1:100
140
1.0
141
100.0
290
     0
  0
SCALE
  5
A80
102
{ACAD_REACTORS
330
A73
102
}
330
A73
100
AcDbScale
 70
     0
300
2:1
140
2.0
141
1.0
290
     0
  0
SCALE
  5
A81
102
{ACAD_REACTORS
330
A73
102
}
330
A73
100
AcDbScale
 70
     0
300
4:1
140
4.0
141
1.0
290
     0
  0
SCALE
  5
A82
102
{ACAD_REACTORS
330
A73
102
}
330
A73
100
AcDbScale
 70
     0
300
8:1
140
8.0
141
1.0
290
     0
  0
SCALE
  5
A83
102
{ACAD_REACTORS
330
A73
102
}
330
A73
100
AcDbScale
 70
     0
300
10:1
140
10.0
141
1.0
290
     0
  0
SCALE
  5
A84
102
{ACAD_REACTORS
330
A73
102
}
330
A73
100
AcDbScale
 70
     0
300
100:1
140
100.0
141
1.0
290
     0
  0
SCALE
  5
A85
102
{ACAD_REACTORS
330
A73
102
}
330
A73
100
AcDbScale
 70
     0
300
1/128" = 1'-0"
140
0.0078125
141
12.0
290
     0
  0
SCALE
  5
A86
102
{ACAD_REACTORS
330
A73
102
}
330
A73
100
AcDbScale
 70
     0
300
1/64" = 1'-0"
140
0.015625
141
12.0
290
     0
  0
SCALE
  5
A87
102
{ACAD_REACTORS
330
A73
102
}
330
A73
100
AcDbScale
 70
     0
300
1/32" = 1'-0"
140
0.03125
141
12.0
290
     0
  0
SCALE
  5
A88
102
{ACAD_REACTORS
330
A73
102
}
330
A73
100
AcDbScale
 70
     0
300
1/16" = 1'-0"
140
0.0625
141
12.0
290
     0
  0
SCALE
  5
A89
102
{ACAD_REACTORS
330
A73
102
}
330
A73
100
AcDbScale
 70
     0
300
3/32" = 1'-0"
140
0.09375
141
12.0
290
     0
  0
SCALE
  5
A8A
102
{ACAD_REACTORS
330
A73
102
}
330
A73
100
AcDbScale
 70
     0
300
1/8" = 1'-0"
140
0.125
141
12.0
290
     0
  0
SCALE
  5
A8B
102
{ACAD_REACTORS
330
A73
102
}
330
A73
100
AcDbScale
 70
     0
300
3/16" = 1'-0"
140
0.1875
141
12.0
290
     0
  0
SCALE
  5
A8C
102
{ACAD_REACTORS
330
A73
102
}
330
A73
100
AcDbScale
 70
     0
300
1/4" = 1'-0"
140
0.25
141
12.0
290
     0
  0
SCALE
  5
A8D
102
{ACAD_REACTORS
330
A73
102
}
330
A73
100
AcDbScale
 70
     0
300
3/8" = 1'-0"
140
0.375
141
12.0
290
     0
  0
SCALE
  5
A8E
102
{ACAD_REACTORS
330
A73
102
}
330
A73
100
AcDbScale
 70
     0
300
1/2" = 1'-0"
140
0.5
141
12.0
290
     0
  0
SCALE
  5
A8F
102
{ACAD_REACTORS
330
A73
102
}
330
A73
100
AcDbScale
 70
     0
300
3/4" = 1'-0"
140
0.75
141
12.0
290
     0
  0
SCALE
  5
A90
102
{ACAD_REACTORS
330
A73
102
}
330
A73
100
AcDbScale
 70
     0
300
1" = 1'-0"
140
1.0
141
12.0
290
     0
  0
SCALE
  5
A91
102
{ACAD_REACTORS
330
A73
102
}
330
A73
100
AcDbScale
 70
     0
300
1-1/2" = 1'-0"
140
1.5
141
12.0
290
     0
  0
SCALE
  5
A92
102
{ACAD_REACTORS
330
A73
102
}
330
A73
100
AcDbScale
 70
     0
300
3" = 1'-0"
140
3.0
141
12.0
290
     0
  0
SCALE
  5
A93
102
{ACAD_REACTORS
330
A73
102
}
330
A73
100
AcDbScale
 70
     0
300
6" = 1'-0"
140
6.0
141
12.0
290
     0
  0
SCALE
  5
A94
102
{ACAD_REACTORS
330
A73
102
}
330
A73
100
AcDbScale
 70
     0
300
1'-0" = 1'-0"
140
12.0
141
12.0
290
     0
  0
DICTIONARYVAR
  5
2A9
102
{ACAD_REACTORS
330
2A8
102
}
330
2A8
100
DictionaryVariables
280
     0
  1
1
  0
ENDSEC
  0
EOF
