  0
SECTION
  2
HEADER
  9
$ACADVER
  1
AC1015
  9
$ACADMAINTVER
 70
     6
  9
$DWGCODEPAGE
  3
ANSI_1252
  9
$INSBASE
 10
0.0
 20
0.0
 30
0.0
  9
$EXTMIN
 10
4471.975977388551
 20
4843.391129228982
 30
0.0
  9
$EXTMAX
 10
5016.894869135611
 20
5264.076990904767
 30
10.73625718604242
  9
$LIMMIN
 10
0.0
 20
0.0
  9
$LIMMAX
 10
420.0
 20
297.0
  9
$ORTHOMODE
 70
     1
  9
$REGENMODE
 70
     1
  9
$FILLMODE
 70
     1
  9
$QTEXTMODE
 70
     0
  9
$MIRRTEXT
 70
     1
  9
$LTSCALE
 40
1.0
  9
$ATTMODE
 70
     1
  9
$TEXTSIZE
 40
2.5
  9
$TRACEWID
 40
1.0
  9
$TEXTSTYLE
  7
Stil2
  9
$CLAYER
  8
Ruettler
  9
$CELTYPE
  6
ByLayer
  9
$CECOLOR
 62
   256
  9
$CELTSCALE
 40
1.0
  9
$DISPSILH
 70
     0
  9
$DIMSCALE
 40
1.0
  9
$DIMASZ
 40
5.0
  9
$DIMEXO
 40
0.0
  9
$DIMDLI
 40
0.0
  9
$DIMRND
 40
0.0
  9
$DIMDLE
 40
0.0
  9
$DIMEXE
 40
2.0
  9
$DIMTP
 40
0.0
  9
$DIMTM
 40
0.0
  9
$DIMTXT
 40
5.0
  9
$DIMCEN
 40
2.5
  9
$DIMTSZ
 40
0.0
  9
$DIMTOL
 70
     0
  9
$DIMLIM
 70
     0
  9
$DIMTIH
 70
     0
  9
$DIMTOH
 70
     0
  9
$DIMSE1
 70
     0
  9
$DIMSE2
 70
     0
  9
$DIMTAD
 70
     1
  9
$DIMZIN
 70
     8
  9
$DIMBLK
  1

  9
$DIMASO
 70
     1
  9
$DIMSHO
 70
     1
  9
$DIMPOST
  1

  9
$DIMAPOST
  1

  9
$DIMALT
 70
     0
  9
$DIMALTD
 70
     3
  9
$DIMALTF
 40
0.03937007874016
  9
$DIMLFAC
 40
1.0
  9
$DIMTOFL
 70
     1
  9
$DIMTVP
 40
0.0
  9
$DIMTIX
 70
     0
  9
$DIMSOXD
 70
     0
  9
$DIMSAH
 70
     0
  9
$DIMBLK1
  1

  9
$DIMBLK2
  1

  9
$DIMSTYLE
  2
Stil 5
  9
$DIMCLRD
 70
     7
  9
$DIMCLRE
 70
     7
  9
$DIMCLRT
 70
   256
  9
$DIMTFAC
 40
1.0
  9
$DIMGAP
 40
2.0
  9
$DIMJUST
 70
     0
  9
$DIMSD1
 70
     0
  9
$DIMSD2
 70
     0
  9
$DIMTOLJ
 70
     0
  9
$DIMTZIN
 70
     8
  9
$DIMALTZ
 70
     0
  9
$DIMALTTZ
 70
     0
  9
$DIMUPT
 70
     1
  9
$DIMDEC
 70
     2
  9
$DIMTDEC
 70
     2
  9
$DIMALTU
 70
     2
  9
$DIMALTTD
 70
     3
  9
$DIMTXSTY
  7
Stil1
  9
$DIMAUNIT
 70
     0
  9
$DIMADEC
 70
     1
  9
$DIMALTRND
 40
0.0
  9
$DIMAZIN
 70
     2
  9
$DIMDSEP
 70
    44
  9
$DIMATFIT
 70
     3
  9
$DIMFRAC
 70
     0
  9
$DIMLDRBLK
  1

  9
$DIMLUNIT
 70
     2
  9
$DIMLWD
 70
    25
  9
$DIMLWE
 70
    25
  9
$DIMTMOVE
 70
     0
  9
$LUNITS
 70
     2
  9
$LUPREC
 70
     4
  9
$SKETCHINC
 40
1.0
  9
$FILLETRAD
 40
0.5
  9
$AUNITS
 70
     0
  9
$AUPREC
 70
     0
  9
$MENU
  1
.
  9
$ELEVATION
 40
0.0
  9
$PELEVATION
 40
0.0
  9
$THICKNESS
 40
0.0
  9
$LIMCHECK
 70
     0
  9
$CHAMFERA
 40
10.0
  9
$CHAMFERB
 40
10.0
  9
$CHAMFERC
 40
20.0
  9
$CHAMFERD
 40
0.0
  9
$SKPOLY
 70
     0
  9
$TDCREATE
 40
2453808.513277593
  9
$TDUCREATE
 40
2453808.471610926
  9
$TDUPDATE
 40
2456967.494793924
  9
$TDUUPDATE
 40
2456967.453127257
  9
$TDINDWG
 40
1.0332826852
  9
$TDUSRTIMER
 40
2456967.452710486
  9
$USRTIMER
 70
     1
  9
$ANGBASE
 50
0.0
  9
$ANGDIR
 70
     0
  9
$PDMODE
 70
     0
  9
$PDSIZE
 40
0.0
  9
$PLINEWID
 40
0.0
  9
$SPLFRAME
 70
     0
  9
$SPLINETYPE
 70
     6
  9
$SPLINESEGS
 70
     8
  9
$HANDSEED
  5
97C5
  9
$SURFTAB1
 70
     6
  9
$SURFTAB2
 70
     6
  9
$SURFTYPE
 70
     6
  9
$SURFU
 70
     6
  9
$SURFV
 70
     6
  9
$UCSBASE
  2

  9
$UCSNAME
  2

  9
$UCSORG
 10
0.0
 20
0.0
 30
0.0
  9
$UCSXDIR
 10
1.0
 20
0.0
 30
0.0
  9
$UCSYDIR
 10
0.0
 20
1.0
 30
0.0
  9
$UCSORTHOREF
  2

  9
$UCSORTHOVIEW
 70
     0
  9
$UCSORGTOP
 10
0.0
 20
0.0
 30
0.0
  9
$UCSORGBOTTOM
 10
0.0
 20
0.0
 30
0.0
  9
$UCSORGLEFT
 10
0.0
 20
0.0
 30
0.0
  9
$UCSORGRIGHT
 10
0.0
 20
0.0
 30
0.0
  9
$UCSORGFRONT
 10
0.0
 20
0.0
 30
0.0
  9
$UCSORGBACK
 10
0.0
 20
0.0
 30
0.0
  9
$PUCSBASE
  2

  9
$PUCSNAME
  2

  9
$PUCSORG
 10
0.0
 20
0.0
 30
0.0
  9
$PUCSXDIR
 10
1.0
 20
0.0
 30
0.0
  9
$PUCSYDIR
 10
0.0
 20
1.0
 30
0.0
  9
$PUCSORTHOREF
  2

  9
$PUCSORTHOVIEW
 70
     0
  9
$PUCSORGTOP
 10
0.0
 20
0.0
 30
0.0
  9
$PUCSORGBOTTOM
 10
0.0
 20
0.0
 30
0.0
  9
$PUCSORGLEFT
 10
0.0
 20
0.0
 30
0.0
  9
$PUCSORGRIGHT
 10
0.0
 20
0.0
 30
0.0
  9
$PUCSORGFRONT
 10
0.0
 20
0.0
 30
0.0
  9
$PUCSORGBACK
 10
0.0
 20
0.0
 30
0.0
  9
$USERI1
 70
     0
  9
$USERI2
 70
     0
  9
$USERI3
 70
     0
  9
$USERI4
 70
     0
  9
$USERI5
 70
     0
  9
$USERR1
 40
0.0
  9
$USERR2
 40
0.0
  9
$USERR3
 40
0.0
  9
$USERR4
 40
0.0
  9
$USERR5
 40
0.0
  9
$WORLDVIEW
 70
     1
  9
$SHADEDGE
 70
     3
  9
$SHADEDIF
 70
    70
  9
$TILEMODE
 70
     0
  9
$MAXACTVP
 70
    64
  9
$PINSBASE
 10
0.0
 20
0.0
 30
0.0
  9
$PLIMCHECK
 70
     0
  9
$PEXTMIN
 10
0.0
 20
0.0
 30
0.0
  9
$PEXTMAX
 10
0.0
 20
0.0
 30
0.0
  9
$PLIMMIN
 10
-7.5
 20
-20.0
  9
$PLIMMAX
 10
412.5
 20
277.0
  9
$UNITMODE
 70
     0
  9
$VISRETAIN
 70
     1
  9
$PLINEGEN
 70
     0
  9
$PSLTSCALE
 70
     1
  9
$TREEDEPTH
 70
  3020
  9
$CMLSTYLE
  2
Standard
  9
$CMLJUST
 70
     0
  9
$CMLSCALE
 40
20.0
  9
$PROXYGRAPHICS
 70
     1
  9
$MEASUREMENT
 70
     1
  9
$CELWEIGHT
370
    -1
  9
$ENDCAPS
280
     0
  9
$JOINSTYLE
280
     0
  9
$LWDISPLAY
290
     0
  9
$INSUNITS
 70
     4
  9
$HYPERLINKBASE
  1

  9
$STYLESHEET
  1

  9
$XEDIT
290
     1
  9
$CEPSNTYPE
380
     0
  9
$PSTYLEMODE
290
     1
  9
$FINGERPRINTGUID
  2
{0A48E88A-525A-4CAB-B467-202E6A9975EA}
  9
$VERSIONGUID
  2
{DA1437F9-0A7F-4016-A730-66F0F1582DAF}
  9
$EXTNAMES
290
     1
  9
$PSVPSCALE
 40
0.0
  9
$OLESTARTUP
290
     0
  0
ENDSEC
  0
SECTION
  2
CLASSES
  0
CLASS
  1
ACDBDICTIONARYWDFLT
  2
AcDbDictionaryWithDefault
  3
ObjectDBX Classes
 90
        0
280
     0
281
     0
  0
CLASS
  1
ACDBPLACEHOLDER
  2
AcDbPlaceHolder
  3
ObjectDBX Classes
 90
        0
280
     0
281
     0
  0
CLASS
  1
LAYOUT
  2
AcDbLayout
  3
ObjectDBX Classes
 90
        0
280
     0
281
     0
  0
CLASS
  1
DICTIONARYVAR
  2
AcDbDictionaryVar
  3
ObjectDBX Classes
 90
        0
280
     0
281
     0
  0
CLASS
  1
DIMASSOC
  2
AcDbDimAssoc
  3
"AcDbDimAssoc|Product Desc:     AcDim ARX App For Dimension|Company:          Autodesk, Inc.|WEB Address:      www.autodesk.com"
 90
        0
280
     0
281
     0
  0
CLASS
  1
TABLESTYLE
  2
AcDbTableStyle
  3
ObjectDBX Classes
 90
     4095
280
     0
281
     0
  0
CLASS
  1
SORTENTSTABLE
  2
AcDbSortentsTable
  3
ObjectDBX Classes
 90
        0
280
     0
281
     0
  0
CLASS
  1
SCALE
  2
AcDbScale
  3
ObjectDBX Classes
 90
     1153
280
     0
281
     0
  0
CLASS
  1
VISUALSTYLE
  2
AcDbVisualStyle
  3
ObjectDBX Classes
 90
     4095
280
     0
281
     0
  0
CLASS
  1
MATERIAL
  2
AcDbMaterial
  3
ObjectDBX Classes
 90
     1153
280
     0
281
     0
  0
CLASS
  1
MLEADERSTYLE
  2
AcDbMLeaderStyle
  3
ACDB_MLEADERSTYLE_CLASS
 90
     4095
280
     0
281
     0
  0
CLASS
  1
SUN
  2
AcDbSun
  3
SCENEOE
 90
     1153
280
     0
281
     0
  0
CLASS
  1
RASTERVARIABLES
  2
AcDbRasterVariables
  3
ISM
 90
        0
280
     0
281
     0
  0
ENDSEC
  0
SECTION
  2
TABLES
  0
TABLE
  2
VPORT
  5
8
330
0
100
AcDbSymbolTable
 70
     1
  0
VPORT
  5
96EF
330
8
100
AcDbSymbolTableRecord
100
AcDbViewportTableRecord
  2
*Active
 70
     0
 10
0.0
 20
0.0
 11
1.0
 21
1.0
 12
4744.637265879182
 22
5053.714199257173
 13
0.0
 23
0.0
 14
10.0
 24
10.0
 15
10.0
 25
10.0
 16
0.0
 26
0.0
 36
1.0
 17
0.0
 27
0.0
 37
0.0
 40
426.1046019156674
 41
1.762081784386616
 42
50.0
 43
0.0
 44
0.0
 50
0.0
 51
0.0
 71
     0
 72
   100
 73
     1
 74
     3
 75
     0
 76
     0
 77
     0
 78
     0
281
     0
 65
     1
110
0.0
120
0.0
130
0.0
111
1.0
121
0.0
131
0.0
112
0.0
122
1.0
132
0.0
 79
     0
146
0.0
  0
ENDTAB
  0
TABLE
  2
LTYPE
  5
5
330
0
100
AcDbSymbolTable
 70
     5
  0
LTYPE
  5
14
330
5
100
AcDbSymbolTableRecord
100
AcDbLinetypeTableRecord
  2
ByBlock
 70
     0
  3

 72
    65
 73
     0
 40
0.0
  0
LTYPE
  5
15
330
5
100
AcDbSymbolTableRecord
100
AcDbLinetypeTableRecord
  2
ByLayer
 70
     0
  3

 72
    65
 73
     0
 40
0.0
  0
LTYPE
  5
16
330
5
100
AcDbSymbolTableRecord
100
AcDbLinetypeTableRecord
  2
Continuous
 70
     0
  3
Solid line
 72
    65
 73
     0
 40
0.0
  0
LTYPE
  5
242
330
5
100
AcDbSymbolTableRecord
100
AcDbLinetypeTableRecord
  2
VERDECKT
 70
     0
  3
Verdeckt __ __ __ __ __ __ __ __ __ __ __ __ __
 72
    65
 73
     2
 40
9.524999999999999
 49
6.349999999999999
 74
     0
 49
-3.174999999999999
 74
     0
  0
LTYPE
  5
245
330
5
100
AcDbSymbolTableRecord
100
AcDbLinetypeTableRecord
  2
STRICHPUNKT
 70
     0
  3
__ . __ . __ . __ . __ . __ . __ . __ . __ . __
 72
    65
 73
     4
 40
1.0
 49
0.5
 74
     0
 49
-0.25
 74
     0
 49
0.0
 74
     0
 49
-0.25
 74
     0
  0
LTYPE
  5
4DB0
330
5
100
AcDbSymbolTableRecord
100
AcDbLinetypeTableRecord
  2
STRICHPUNKTA
 70
     0
  3
__ . __ . __
 72
    65
 73
     4
 40
3.599999999999999
 49
2.399999999999999
 74
     0
 49
-0.6
 74
     0
 49
0.0
 74
     0
 49
-0.6
 74
     0
  0
LTYPE
  5
767D
330
5
100
AcDbSymbolTableRecord
100
AcDbLinetypeTableRecord
  2
GESTRICHELT
 70
     0
  3
__ __ __ __ __ __ __ __ __ __ __ __ __ __ __ __
 72
    65
 73
     2
 40
0.75
 49
0.5
 74
     0
 49
-0.25
 74
     0
  0
ENDTAB
  0
TABLE
  2
LAYER
  5
2
102
{ACAD_XDICTIONARY
360
2B
102
}
330
0
100
AcDbSymbolTable
 70
     7
  0
LAYER
  5
10
330
2
100
AcDbSymbolTableRecord
100
AcDbLayerTableRecord
  2
0
 70
     0
 62
     7
  6
Continuous
370
    25
390
F
  0
LAYER
  5
36
330
2
100
AcDbSymbolTableRecord
100
AcDbLayerTableRecord
  2
Defpoints
 70
     0
 62
     7
  6
Continuous
290
     0
370
    -3
390
F
  0
LAYER
  5
37
330
2
100
AcDbSymbolTableRecord
100
AcDbLayerTableRecord
  2
RAHMEN07
 70
     0
 62
     5
  6
Continuous
370
    50
390
F
  0
LAYER
  5
38
330
2
100
AcDbSymbolTableRecord
100
AcDbLayerTableRecord
  2
RAHMEN025
 70
     0
 62
     7
  6
Continuous
370
    25
390
F
  0
LAYER
  5
39
330
2
100
AcDbSymbolTableRecord
100
AcDbLayerTableRecord
  2
RAHMEN05
 70
     0
 62
     6
  6
Continuous
370
    50
390
F
  0
LAYER
  5
4DB1
330
2
100
AcDbSymbolTableRecord
100
AcDbLayerTableRecord
  2
Ruettler
 70
     0
 62
    62
  6
Continuous
370
    35
390
F
  0
LAYER
  5
7680
330
2
100
AcDbSymbolTableRecord
100
AcDbLayerTableRecord
  2
BEMASSUNG
 70
     0
 62
     2
  6
Continuous
370
    35
390
F
  0
ENDTAB
  0
TABLE
  2
STYLE
  5
3
330
0
100
AcDbSymbolTable
 70
     5
  0
STYLE
  5
11
330
3
100
AcDbSymbolTableRecord
100
AcDbTextStyleTableRecord
  2
Standard
 70
     0
 40
0.0
 41
1.0
 50
0.0
 71
     0
 42
2.5
  3
txt
  4

  0
STYLE
  5
3B
330
3
100
AcDbSymbolTableRecord
100
AcDbTextStyleTableRecord
  2
Stil1
 70
     0
 40
0.0
 41
1.0
 50
0.0
 71
     0
 42
2.5
  3
romans.shx
  4
bigfont.shx
  0
STYLE
  5
3C
330
3
100
AcDbSymbolTableRecord
100
AcDbTextStyleTableRecord
  2
Stil2
 70
     0
 40
0.0
 41
1.0
 50
0.0
 71
     0
 42
2.5
  3
italict.shx
  4
bigfont.shx
  0
STYLE
  5
3D
330
3
100
AcDbSymbolTableRecord
100
AcDbTextStyleTableRecord
  2
ISO Proportional
 70
     0
 40
0.0
 41
1.0
 50
0.0
 71
     0
 42
2.5
  3
isocp.shx
  4

  0
STYLE
  5
3E
330
3
100
AcDbSymbolTableRecord
100
AcDbTextStyleTableRecord
  2
NORM
 70
     0
 40
0.0
 41
1.0
 50
0.0
 71
     0
 42
30.0
  3
SIMPLEX
  4

  0
ENDTAB
  0
TABLE
  2
VIEW
  5
6
330
0
100
AcDbSymbolTable
 70
     0
  0
ENDTAB
  0
TABLE
  2
UCS
  5
7
330
0
100
AcDbSymbolTable
 70
     0
  0
ENDTAB
  0
TABLE
  2
APPID
  5
9
330
0
100
AcDbSymbolTable
 70
     2
  0
APPID
  5
12
330
9
100
AcDbSymbolTableRecord
100
AcDbRegAppTableRecord
  2
ACAD
 70
     0
  0
APPID
  5
9133
330
9
100
AcDbSymbolTableRecord
100
AcDbRegAppTableRecord
  2
ACAD_EXEMPT_FROM_CAD_STANDARDS
 70
     0
  0
ENDTAB
  0
TABLE
  2
DIMSTYLE
  5
A
330
0
100
AcDbSymbolTable
 70
     3
100
AcDbDimStyleTable
  0
DIMSTYLE
105
2254
330
A
100
AcDbSymbolTableRecord
100
AcDbDimStyleTableRecord
  2
Stil 5
 70
     0
 41
5.0
 42
0.0
 43
0.0
 44
2.0
 73
     0
 74
     0
 77
     1
 78
     8
 79
     2
140
5.0
141
2.5
143
0.03937007874016
147
2.0
171
     3
172
     1
176
     7
177
     7
271
     2
178
   256
179
     1
271
     2
272
     2
274
     3
278
    44
283
     0
284
     8
288
     1
340
3B
371
    25
372
    25
  0
DIMSTYLE
105
904E
330
A
100
AcDbSymbolTableRecord
100
AcDbDimStyleTableRecord
  2
Stil 1
 70
     0
 41
40.0
 42
0.0
 43
0.0
 44
20.0
 73
     0
 74
     0
 77
     1
 78
     8
 79
     2
140
40.0
141
2.5
143
0.03937007874016
147
15.0
171
     3
172
     1
176
     7
177
     7
271
     2
178
   256
179
     1
271
     2
272
     2
274
     3
278
    44
283
     0
284
     8
288
     1
340
3B
371
    25
372
    25
  0
DIMSTYLE
105
9313
330
A
100
AcDbSymbolTableRecord
100
AcDbDimStyleTableRecord
  2
Stil 3
 70
     0
 41
20.0
 42
0.0
 43
0.0
 44
10.0
 73
     0
 74
     0
 77
     1
 78
     8
 79
     2
140
20.0
141
2.5
143
0.03937007874016
147
10.0
171
     3
172
     1
176
     7
177
     7
271
     2
178
   256
179
     1
271
     2
272
     2
274
     3
278
    44
283
     0
284
     8
288
     1
340
3B
371
    25
372
    25
  0
ENDTAB
  0
TABLE
  2
BLOCK_RECORD
  5
1
330
0
100
AcDbSymbolTable
 70
     0
  0
BLOCK_RECORD
  5
1F
102
{ACAD_XDICTIONARY
360
9125
102
}
330
1
100
AcDbSymbolTableRecord
100
AcDbBlockTableRecord
  2
*Model_Space
340
22
  0
BLOCK_RECORD
  5
9775
330
1
100
AcDbSymbolTableRecord
100
AcDbBlockTableRecord
  2
*Paper_Space
340
9776
  0
ENDTAB
  0
ENDSEC
  0
SECTION
  2
BLOCKS
  0
BLOCK
  5
20
330
1F
100
AcDbEntity
  8
0
100
AcDbBlockBegin
  2
*Model_Space
 70
     0
 10
0.0
 20
0.0
 30
0.0
  3
*Model_Space
  1
*Model_Space
  0
ENDBLK
  5
21
330
1F
100
AcDbEntity
  8
0
100
AcDbBlockEnd
  0
BLOCK
  5
9777
330
9775
100
AcDbEntity
 67
     1
  8
0
100
AcDbBlockBegin
  2
*Paper_Space
 70
     0
 10
0.0
 20
0.0
 30
0.0
  3
*Paper_Space
  1
*Paper_Space
  0
ENDBLK
  5
9778
330
9775
100
AcDbEntity
 67
     1
  8
0
100
AcDbBlockEnd
  0
ENDSEC
  0
SECTION
  2
ENTITIES
  0
MTEXT
  5
5B09
330
1F
100
AcDbEntity
  8
0
100
AcDbMText
 10
6295.025897025948
 20
5120.615354699073
 30
0.0
 40
5.0
 41
0.0
 71
     1
 72
     1
  1

  7
NORM
 73
     1
 44
1.0
  0
MTEXT
  5
5B0B
330
1F
100
AcDbEntity
  8
0
100
AcDbMText
 10
6295.025897025948
 20
5120.615354699073
 30
0.0
 40
5.0
 41
0.0
 71
     1
 72
     1
  1

  7
NORM
 73
     1
 44
1.0
  0
MTEXT
  5
5D7E
330
1F
100
AcDbEntity
  8
0
100
AcDbMText
 10
7117.39356439892
 20
5038.867315101687
 30
0.0
 40
5.0
 41
0.0
 71
     1
 72
     1
  1

  7
NORM
 73
     1
 44
1.0
  0
LINE
  5
88B3
330
1F
100
AcDbEntity
  8
Ruettler
370
    30
100
AcDbLine
 10
4581.936482664618
 20
5247.822693516659
 30
0.0
 11
4694.936482664618
 21
5247.822693516659
 31
0.0
  0
LINE
  5
88B4
330
1F
100
AcDbEntity
  8
Ruettler
  6
STRICHPUNKTA
 62
     7
 48
5.0
370
    15
100
AcDbLine
 10
4645.936482664618
 20
5263.812558850353
 30
0.0
 11
4645.936482664618
 21
5236.534119790085
 31
0.0
  0
LINE
  5
88B7
330
1F
100
AcDbEntity
  8
Ruettler
370
    30
100
AcDbLine
 10
4581.936482664618
 20
5247.822693516659
 30
0.0
 11
4581.936482664618
 21
5240.322693516659
 31
0.0
  0
LINE
  5
88B8
330
1F
100
AcDbEntity
  8
Ruettler
  6
STRICHPUNKTA
 62
     7
 48
5.0
370
    15
100
AcDbLine
 10
4474.830141864893
 20
5230.822693516659
 30
0.0
 11
4591.063498634487
 21
5230.822693516659
 31
0.0
  0
LINE
  5
88B9
330
1F
100
AcDbEntity
  8
Ruettler
370
    30
100
AcDbLine
 10
4701.724117066638
 20
5211.822693516658
 30
0.0
 11
4711.936482664619
 21
5211.822693516658
 31
0.0
  0
LINE
  5
88BE
330
1F
100
AcDbEntity
  8
Ruettler
370
    30
100
AcDbLine
 10
4694.936482664618
 20
5247.822693516659
 30
0.0
 11
4695.726173116785
 21
5217.665631826811
 31
0.0
  0
ARC
  5
88C3
330
1F
100
AcDbEntity
  8
Ruettler
370
    30
100
AcDbCircle
 10
4580.936482664617
 20
5213.822693516658
 30
0.0
 40
1.0
100
AcDbArc
 50
270.0
 51
0.0
  0
LINE
  5
88CE
330
1F
100
AcDbEntity
  8
Ruettler
  6
STRICHPUNKTA
 62
     7
 48
5.0
370
    15
100
AcDbLine
 10
4923.894869135611
 20
5264.076990904767
 30
0.0
 11
4923.894869135611
 21
5073.298006255729
 31
0.0
  0
LINE
  5
88CF
330
1F
100
AcDbEntity
  8
Ruettler
370
    30
100
AcDbLine
 10
4873.894869135611
 20
5247.822693516659
 30
0.0
 11
4973.894869135611
 21
5247.822693516659
 31
0.0
  0
LINE
  5
88D0
330
1F
100
AcDbEntity
  8
Ruettler
370
    30
100
AcDbLine
 10
4973.894869135611
 20
5247.822693516659
 30
0.0
 11
4974.644363231714
 21
5204.884205508375
 31
10.73625718604242
  0
LINE
  5
88D1
330
1F
100
AcDbEntity
  8
Ruettler
370
    30
100
AcDbLine
 10
4873.894869135611
 20
5247.822693516659
 30
0.0
 11
4873.145375039507
 21
5204.884205508375
 31
10.73625718604241
  0
LINE
  5
88D2
330
1F
100
AcDbEntity
  8
Ruettler
370
    30
100
AcDbLine
 10
4908.894869135611
 20
5247.822693516659
 30
0.0
 11
4908.661225322854
 21
5234.437248448556
 31
3.346871011691546
  0
LINE
  5
88D3
330
1F
100
AcDbEntity
  8
Ruettler
370
    30
100
AcDbLine
 10
4938.894869135611
 20
5247.822693516659
 30
0.0
 11
4939.128512948368
 21
5234.437248448556
 31
3.346871011691631
  0
LINE
  5
88D8
330
1F
100
AcDbEntity
  8
Ruettler
  6
STRICHPUNKTA
 62
     7
 48
5.0
370
    15
100
AcDbLine
 10
4898.304695586823
 20
5230.822693516659
 30
0.0
 11
4952.637125791571
 21
5230.822693516659
 31
0.0
  0
LINE
  5
88D9
330
1F
100
AcDbEntity
  8
Ruettler
  6
STRICHPUNKTA
 62
     7
 48
5.0
370
    15
100
AcDbLine
 10
4496.728905513924
 20
5147.822693516658
 30
0.0
 11
4795.144059815312
 21
5147.822693516658
 31
0.0
  0
LINE
  5
88DA
330
1F
100
AcDbEntity
  8
Ruettler
370
    30
100
AcDbLine
 10
4711.936482664619
 20
5211.822693516658
 30
0.0
 11
4711.936482664619
 21
5206.322693516659
 31
0.0
  0
LINE
  5
88E8
330
1F
100
AcDbEntity
  8
Ruettler
370
    30
100
AcDbLine
 10
4645.936482664618
 20
5087.822693516659
 30
0.0
 11
4673.436482664618
 21
5087.822693516659
 31
0.0
  0
LINE
  5
88E9
330
1F
100
AcDbEntity
  8
Ruettler
370
    30
100
AcDbLine
 10
4579.936482664617
 20
5211.322693516659
 30
0.0
 11
4580.936482664617
 21
5211.322693516659
 31
0.0
  0
LINE
  5
88EB
330
1F
100
AcDbEntity
  8
Ruettler
370
    30
100
AcDbLine
 10
4674.936482664618
 20
5086.322693516659
 30
0.0
 11
4674.936482664618
 21
5085.822693516658
 31
0.0
  0
LINE
  5
88EE
330
1F
100
AcDbEntity
  8
Ruettler
370
    30
100
AcDbLine
 10
4706.936482664618
 20
5084.322693516658
 30
0.0
 11
4706.936482664618
 21
5081.822693516659
 31
0.0
  0
LINE
  5
88F0
330
1F
100
AcDbEntity
  8
Ruettler
370
    30
100
AcDbLine
 10
4674.936482664618
 20
5081.822693516659
 30
0.0
 11
4706.936482664618
 21
5081.822693516659
 31
0.0
  0
LINE
  5
88F1
330
1F
100
AcDbEntity
  8
Ruettler
370
    30
100
AcDbLine
 10
4676.436482664618
 20
5084.322693516658
 30
0.0
 11
4711.936482664618
 21
5084.322693516658
 31
0.0
  0
ARC
  5
88F6
330
1F
100
AcDbEntity
  8
Ruettler
370
    30
100
AcDbCircle
 10
4701.724117066638
 20
5217.822693516659
 30
0.0
 40
6.0
100
AcDbArc
 50
181.4999999999897
 51
270.0
  0
ARC
  5
88F7
330
1F
100
AcDbEntity
  8
Ruettler
  6
STRICHPUNKTA
 62
     7
 48
5.0
370
    15
100
AcDbCircle
 10
4923.894869135605
 20
5147.822693516658
 30
0.0
 40
69.0
100
AcDbArc
 50
124.7992269427483
 51
145.2007730572531
  0
ARC
  5
88F9
330
1F
100
AcDbEntity
  8
Ruettler
370
    30
100
AcDbCircle
 10
4972.685237037483
 20
5196.613061418524
 30
0.0
 40
8.5
100
AcDbArc
 50
357.4483570194794
 51
92.5516429805203
  0
LINE
  5
88FA
330
1F
100
AcDbEntity
  8
Ruettler
370
    30
100
AcDbLine
 10
4973.65507610448
 20
5205.057551467316
 30
0.0
 11
4951.431203793936
 21
5205.833626189486
 31
0.0
  0
LINE
  5
88FB
330
1F
100
AcDbEntity
  8
Ruettler
370
    30
100
AcDbLine
 10
4981.129727086273
 20
5197.582900485522
 30
0.0
 11
4981.905801808444
 21
5175.359028174961
 31
0.0
  0
ARC
  5
88FC
330
1F
100
AcDbEntity
  8
Ruettler
370
    30
100
AcDbCircle
 10
4923.894869135605
 20
5147.822693516658
 30
0.0
 40
63.5
100
AcDbArc
 50
67.70395832285789
 51
112.2960416771421
  0
ARC
  5
88FD
330
1F
100
AcDbEntity
  8
Ruettler
370
    30
100
AcDbCircle
 10
4875.104501233739
 20
5196.613061418525
 30
0.0
 40
8.5
100
AcDbArc
 50
87.44835701947974
 51
182.5516429805204
  0
LINE
  5
88FE
330
1F
100
AcDbEntity
  8
Ruettler
370
    30
100
AcDbLine
 10
4874.134662166741
 20
5205.057551467316
 30
0.0
 11
4896.358534477273
 21
5205.833626189486
 31
0.0
  0
LINE
  5
88FF
330
1F
100
AcDbEntity
  8
Ruettler
370
    30
100
AcDbLine
 10
4866.660011184947
 20
5197.582900485522
 30
0.0
 11
4865.883936462779
 21
5175.35902817499
 31
0.0
  0
LINE
  5
8900
330
1F
100
AcDbEntity
  8
Ruettler
  6
STRICHPUNKTA
 62
     7
 48
5.0
370
    15
100
AcDbLine
 10
4883.779527823242
 20
5187.938034829022
 30
0.0
 11
4866.429474644224
 21
5205.288088008039
 31
0.0
  0
ARC
  5
8901
330
1F
100
AcDbEntity
  8
Ruettler
370
    30
100
AcDbCircle
 10
4875.104501233739
 20
5099.032325614781
 30
0.0
 40
8.5
100
AcDbArc
 50
177.4483570194795
 51
272.5516429805202
  0
LINE
  5
8902
330
1F
100
AcDbEntity
  8
Ruettler
370
    30
100
AcDbLine
 10
4866.660011184947
 20
5098.062486547783
 30
0.0
 11
4865.883936462777
 21
5120.286358858328
 31
0.0
  0
LINE
  5
8903
330
1F
100
AcDbEntity
  8
Ruettler
370
    30
100
AcDbLine
 10
4874.134662166741
 20
5090.58783556599
 30
0.0
 11
4896.358534477303
 21
5089.811760843819
 31
0.0
  0
ARC
  5
8905
330
1F
100
AcDbEntity
  8
Ruettler
370
    30
100
AcDbCircle
 10
4972.685237037482
 20
5099.032325614781
 30
0.0
 40
8.5
100
AcDbArc
 50
267.4483570194797
 51
2.551642980520471
  0
LINE
  5
8906
330
1F
100
AcDbEntity
  8
Ruettler
370
    30
100
AcDbLine
 10
4973.65507610448
 20
5090.58783556599
 30
0.0
 11
4951.431203793906
 21
5089.811760843819
 31
0.0
  0
ARC
  5
8908
330
1F
100
AcDbEntity
  8
Ruettler
370
    30
100
AcDbCircle
 10
4923.894869135605
 20
5147.822693516658
 30
0.0
 40
63.5
100
AcDbArc
 50
157.7039583228563
 51
202.2960416771436
  0
ARC
  5
8909
330
1F
100
AcDbEntity
  8
Ruettler
370
    30
100
AcDbCircle
 10
4923.894869135605
 20
5147.822693516658
 30
0.0
 40
63.5
100
AcDbArc
 50
247.7039583229009
 51
292.2960416770991
  0
ARC
  5
890A
330
1F
100
AcDbEntity
  8
Ruettler
370
    30
100
AcDbCircle
 10
4923.894869135605
 20
5147.822693516658
 30
0.0
 40
63.5
100
AcDbArc
 50
337.7039583229023
 51
16.13080421308145
  0
LINE
  5
890B
330
1F
100
AcDbEntity
  8
Ruettler
  6
STRICHPUNKTA
 62
     7
 48
5.0
370
    15
100
AcDbLine
 10
5000.894869135611
 20
5141.314763970807
 30
0.0
 11
5000.894869135611
 21
5073.298006255729
 31
0.0
  0
LINE
  5
890C
330
1F
100
AcDbEntity
  8
Ruettler
370
    30
100
AcDbLine
 10
5016.894869135611
 20
5125.322693516658
 30
0.0
 11
5016.894869135611
 21
5081.822693516659
 31
0.0
  0
LINE
  5
890D
330
1F
100
AcDbEntity
  8
Ruettler
370
    30
100
AcDbLine
 10
4830.894869135611
 20
5125.322693516658
 30
0.0
 11
4830.894869135611
 21
5081.822693516659
 31
0.0
  0
LINE
  5
890E
330
1F
100
AcDbEntity
  8
Ruettler
370
    30
100
AcDbLine
 10
4830.894869135611
 20
5081.822693516659
 30
0.0
 11
4866.394869135611
 21
5081.822693516659
 31
0.0
  0
LINE
  5
890F
330
1F
100
AcDbEntity
  8
Ruettler
370
    30
100
AcDbLine
 10
4869.394869135611
 20
5085.322693516658
 30
0.0
 11
4912.669896975284
 21
5085.322693516658
 31
0.0
  0
LINE
  5
8910
330
1F
100
AcDbEntity
  8
Ruettler
370
    30
100
AcDbLine
 10
4866.394869135611
 20
5082.322693516658
 30
0.0
 11
4866.394869135611
 21
5081.822693516659
 31
0.0
  0
LINE
  5
8911
330
1F
100
AcDbEntity
  8
Ruettler
370
    30
100
AcDbLine
 10
4981.39486913561
 20
5081.822693516659
 30
0.0
 11
5010.894869135611
 21
5081.822693516659
 31
0.0
  0
LINE
  5
8912
330
1F
100
AcDbEntity
  8
Ruettler
370
    30
100
AcDbLine
 10
4989.894869135611
 20
5131.822693516658
 30
0.0
 11
4994.394869135611
 21
5131.822693516658
 31
0.0
  0
LINE
  5
8913
330
1F
100
AcDbEntity
  8
Ruettler
370
    30
100
AcDbLine
 10
4835.894869135611
 20
5131.822693516658
 30
0.0
 11
4857.894869135611
 21
5131.822693516658
 31
0.0
  0
LINE
  5
8914
330
1F
100
AcDbEntity
  8
Ruettler
370
    30
100
AcDbLine
 10
5011.894869135611
 20
5131.822693516658
 30
0.0
 11
5011.894869135611
 21
5131.238773299759
 31
0.0
  0
LINE
  5
8915
330
1F
100
AcDbEntity
  8
Ruettler
370
    30
100
AcDbLine
 10
4834.89486913561
 20
5129.322693516659
 30
0.0
 11
4835.894869135611
 21
5129.322693516659
 31
0.0
  0
LINE
  5
8917
330
1F
100
AcDbEntity
  8
Ruettler
370
    30
100
AcDbLine
 10
4700.936482664618
 20
5084.322693516658
 30
0.0
 11
4700.936482664618
 21
5081.822693516659
 31
0.0
  0
LINE
  5
8918
330
1F
100
AcDbEntity
  8
Ruettler
370
    30
100
AcDbLine
 10
4680.936482664618
 20
5084.322693516658
 30
0.0
 11
4680.936482664618
 21
5081.822693516659
 31
0.0
  0
LINE
  5
8924
330
1F
100
AcDbEntity
  8
Ruettler
370
    30
100
AcDbLine
 10
4580.936482664617
 20
5212.822693516659
 30
0.0
 11
4580.936482664617
 21
5211.322693516659
 31
0.0
  0
ARC
  5
892C
330
1F
100
AcDbEntity
  8
Ruettler
370
    30
100
AcDbCircle
 10
4701.724117066638
 20
5217.822693516658
 30
0.0
 40
6.0
100
AcDbArc
 50
181.4999999999897
 51
270.0
  0
LINE
  5
892E
330
1F
100
AcDbEntity
  8
Ruettler
370
    30
100
AcDbLine
 10
4711.936482664618
 20
5089.322693516659
 30
0.0
 11
4711.936482664617
 21
5084.322693516658
 31
0.0
  0
LINE
  5
893B
330
1F
100
AcDbEntity
  8
Ruettler
370
    30
100
AcDbLine
 10
4688.936482664618
 20
5247.822693516659
 30
0.0
 11
4694.936482664618
 21
5247.822693516659
 31
0.0
  0
LINE
  5
893C
330
1F
100
AcDbEntity
  8
Ruettler
370
    30
100
AcDbLine
 10
4581.936482664618
 20
5240.322693516659
 30
0.0
 11
4581.936482664618
 21
5221.322693516659
 31
0.0
  0
LINE
  5
893D
330
1F
100
AcDbEntity
  8
Ruettler
370
    30
100
AcDbLine
 10
4581.936482664618
 20
5221.322693516659
 30
0.0
 11
4581.936482664618
 21
5213.822693516658
 31
0.0
  0
LINE
  5
8940
330
1F
100
AcDbEntity
  8
Ruettler
370
    30
100
AcDbLine
 10
4860.394869135605
 20
5147.822693516658
 30
0.0
 11
4860.394869135605
 21
5129.614594273107
 31
0.0
  0
LINE
  5
8941
330
1F
100
AcDbEntity
  8
Ruettler
370
    30
100
AcDbLine
 10
4835.894869135611
 20
5131.822693516658
 30
0.0
 11
4835.894869135611
 21
5131.647248836994
 31
0.0
  0
LINE
  5
8942
330
1F
100
AcDbEntity
  8
Ruettler
370
    30
100
AcDbLine
 10
4857.894869135611
 20
5131.822693516658
 30
0.0
 11
4857.894869135611
 21
5131.66438112149
 31
0.0
  0
ARC
  5
8943
330
1F
100
AcDbEntity
  8
Ruettler
370
    30
100
AcDbCircle
 10
4858.89486913561
 20
5133.322693516658
 30
0.0
 40
4.0
100
AcDbArc
 50
270.0
 51
292.024312836978
  0
LINE
  5
8944
330
1F
100
AcDbEntity
  8
Ruettler
370
    30
100
AcDbLine
 10
4860.394869135605
 20
5122.822693516659
 30
0.0
 11
4861.932610605592
 21
5122.822693516659
 31
0.0
  0
ARC
  5
8945
330
1F
100
AcDbEntity
  8
Ruettler
370
    30
100
AcDbCircle
 10
4861.932610605592
 20
5118.822693516658
 30
0.0
 40
4.0
100
AcDbArc
 50
2.000000000004016
 51
90.0
  0
ARC
  5
8946
330
1F
100
AcDbEntity
  8
Ruettler
370
    30
100
AcDbCircle
 10
4834.89486913561
 20
5125.322693516658
 30
0.0
 40
4.0
100
AcDbArc
 50
103.342363797098
 51
180.0
  0
LINE
  5
8947
330
1F
100
AcDbEntity
  8
Ruettler
370
    30
100
AcDbLine
 10
4834.314892267213
 20
5129.322693516659
 30
0.0
 11
4858.89486913561
 21
5129.322693516659
 31
0.0
  0
ARC
  5
8948
330
1F
100
AcDbEntity
  8
Ruettler
370
    30
100
AcDbCircle
 10
4834.89486913561
 20
5126.822693516658
 30
0.0
 40
2.5
100
AcDbArc
 50
90.0
 51
90.0
  0
ARC
  5
8949
330
1F
100
AcDbEntity
  8
Ruettler
370
    30
100
AcDbCircle
 10
4833.394869135611
 20
5131.647248836994
 30
0.0
 40
2.5
100
AcDbArc
 50
283.342363797098
 51
0.0
  0
LINE
  5
894A
330
1F
100
AcDbEntity
  8
Ruettler
370
    30
100
AcDbLine
 10
4860.394869135605
 20
5129.614594273108
 30
0.0
 11
4860.394869135605
 21
5122.822693516659
 31
0.0
  0
ARC
  5
894B
330
1F
100
AcDbEntity
  8
Ruettler
370
    30
100
AcDbCircle
 10
4856.394869135606
 20
5133.322693516658
 30
0.0
 40
4.0
100
AcDbArc
 50
326.4426902383159
 51
0.0
  0
ARC
  5
894C
330
1F
100
AcDbEntity
  8
Ruettler
370
    30
100
AcDbCircle
 10
4858.89486913561
 20
5131.66438112149
 30
0.0
 40
1.0
100
AcDbArc
 50
180.0
 51
326.4426902383159
  0
LINE
  5
894D
330
1F
100
AcDbEntity
  8
Ruettler
370
    30
100
AcDbLine
 10
4935.119841295926
 20
5085.322693516658
 30
0.0
 11
4978.394869135611
 21
5085.322693516658
 31
0.0
  0
ARC
  5
894E
330
1F
100
AcDbEntity
  8
Ruettler
370
    30
100
AcDbCircle
 10
4988.894869135611
 20
5131.66438112149
 30
0.0
 40
1.0
100
AcDbArc
 50
213.557309761684
 51
0.0
  0
LINE
  5
894F
330
1F
100
AcDbEntity
  8
Ruettler
370
    30
100
AcDbLine
 10
4989.894869135611
 20
5131.822693516658
 30
0.0
 11
4989.894869135611
 21
5131.66438112149
 31
0.0
  0
ARC
  5
8950
330
1F
100
AcDbEntity
  8
Ruettler
370
    30
100
AcDbCircle
 10
4978.394869135611
 20
5082.322693516658
 30
0.0
 40
3.0
100
AcDbArc
 50
0.0
 51
90.0
  0
ARC
  5
8951
330
1F
100
AcDbEntity
  8
Ruettler
370
    30
100
AcDbCircle
 10
5012.89486913561
 20
5125.322693516658
 30
0.0
 40
4.0
100
AcDbArc
 50
0.0
 51
80.40593177312194
  0
ARC
  5
8952
330
1F
100
AcDbEntity
  8
Ruettler
370
    30
100
AcDbCircle
 10
5013.894869135611
 20
5131.238773299759
 30
0.0
 40
2.0
100
AcDbArc
 50
180.0
 51
260.4059317731219
  0
LINE
  5
8953
330
1F
100
AcDbEntity
  8
Ruettler
370
    30
100
AcDbLine
 10
4994.394869135611
 20
5131.822693516658
 30
0.0
 11
5007.394869135611
 21
5131.822693516658
 31
0.0
  0
LINE
  5
8954
330
1F
100
AcDbEntity
  8
Ruettler
370
    30
100
AcDbLine
 10
5007.394869135611
 20
5131.822693516658
 30
0.0
 11
5011.894869135611
 21
5131.822693516658
 31
0.0
  0
LINE
  5
8955
330
1F
100
AcDbEntity
  8
Ruettler
370
    30
100
AcDbLine
 10
5010.894869135611
 20
5081.822693516659
 30
0.0
 11
5016.894869135611
 21
5081.822693516659
 31
0.0
  0
ARC
  5
8956
330
1F
100
AcDbEntity
  8
Ruettler
370
    30
100
AcDbCircle
 10
4923.894869135605
 20
5147.822693516658
 30
0.0
 40
63.5
100
AcDbArc
 50
19.05598926175807
 51
22.29604167709758
  0
ARC
  5
8957
330
1F
100
AcDbEntity
  8
Ruettler
370
    30
100
AcDbCircle
 10
4923.894869135605
 20
5147.822693516658
 30
0.0
 40
63.5
100
AcDbArc
 50
16.13080421308145
 51
19.05598926175807
  0
ARC
  5
8958
330
1F
100
AcDbEntity
  8
Ruettler
370
    30
100
AcDbCircle
 10
4869.394869135611
 20
5082.322693516658
 30
0.0
 40
3.0
100
AcDbArc
 50
90.0
 51
180.0
  0
LINE
  5
895D
330
1F
100
AcDbEntity
  8
Ruettler
370
    30
100
AcDbLine
 10
4674.936482664618
 20
5085.822693516658
 30
0.0
 11
4674.936482664618
 21
5081.822693516659
 31
0.0
  0
ARC
  5
895E
330
1F
100
AcDbEntity
  8
Ruettler
370
    30
100
AcDbCircle
 10
4676.436482664618
 20
5085.822693516658
 30
0.0
 40
1.5
100
AcDbArc
 50
180.0
 51
270.0
  0
ARC
  5
895F
330
1F
100
AcDbEntity
  8
Ruettler
370
    30
100
AcDbCircle
 10
4673.436482664618
 20
5086.322693516659
 30
0.0
 40
1.5
100
AcDbArc
 50
0.0
 51
90.0
  0
LINE
  5
8960
330
1F
100
AcDbEntity
  8
Ruettler
  6
STRICHPUNKTA
 62
     7
 48
5.0
370
    15
100
AcDbLine
 10
4846.894869135611
 20
5139.549468378037
 30
0.0
 11
4846.894869135611
 21
5073.298006255729
 31
0.0
  0
LINE
  5
8961
330
1F
100
AcDbEntity
  8
Ruettler
  6
STRICHPUNKTA
 62
     7
 48
5.0
370
    15
100
AcDbLine
 10
4923.898189088891
 20
5147.822693516658
 30
0.0
 11
4995.325917562291
 21
5147.822693516658
 31
0.0
  0
LINE
  5
8962
330
1F
100
AcDbEntity
  8
Ruettler
370
    30
100
AcDbLine
 10
4987.394869135616
 20
5129.614594273108
 30
0.0
 11
4987.394869135616
 21
5122.822693516659
 31
0.0
  0
ARC
  5
8963
330
1F
100
AcDbEntity
  8
Ruettler
370
    30
100
AcDbCircle
 10
4988.894869135611
 20
5131.66438112149
 30
0.0
 40
1.0
100
AcDbArc
 50
213.557309761684
 51
0.0
  0
ARC
  5
8964
330
1F
100
AcDbEntity
  8
Ruettler
370
    30
100
AcDbCircle
 10
4991.394869135616
 20
5133.322693516658
 30
0.0
 40
4.0
100
AcDbArc
 50
180.0
 51
213.557309761684
  0
LINE
  5
8965
330
1F
100
AcDbEntity
  8
Ruettler
370
    30
100
AcDbLine
 10
4987.394869135616
 20
5147.822693516658
 30
0.0
 11
4987.394869135616
 21
5129.614594273107
 31
0.0
  0
ARC
  5
8966
330
1F
100
AcDbEntity
  8
Ruettler
370
    30
100
AcDbCircle
 10
4985.857127665629
 20
5118.822693516658
 30
0.0
 40
4.0
100
AcDbArc
 50
90.0
 51
177.9999999999959
  0
LINE
  5
8967
330
1F
100
AcDbEntity
  8
Ruettler
370
    30
100
AcDbLine
 10
4981.129727086273
 20
5098.062486547783
 30
0.0
 11
4981.905801808444
 21
5120.286358858357
 31
0.0
  0
LINE
  5
8968
330
1F
100
AcDbEntity
  8
Ruettler
370
    30
100
AcDbLine
 10
4987.394869135616
 20
5122.822693516659
 30
0.0
 11
4985.857127665629
 21
5122.822693516659
 31
0.0
  0
LINE
  5
8969
330
1F
100
AcDbEntity
  8
Ruettler
  6
STRICHPUNKTA
 62
     7
 48
5.0
370
    15
100
AcDbLine
 10
4923.89154918233
 20
5147.822693516658
 30
0.0
 11
4852.470460615491
 21
5147.822693516658
 31
0.0
  0
ARC
  5
896A
330
1F
100
AcDbEntity
  8
Ruettler
370
    30
100
AcDbCircle
 10
4991.899710078635
 20
5119.937363891331
 30
0.0
 40
10.0
100
AcDbArc
 50
157.7039583229024
 51
177.9999999999959
  0
ARC
  5
896B
330
1F
100
AcDbEntity
  8
Ruettler
370
    30
100
AcDbCircle
 10
4855.890028192586
 20
5119.937363891303
 30
0.0
 40
10.0
100
AcDbArc
 50
2.000000000004016
 51
22.29604167714363
  0
ARC
  5
896C
330
1F
100
AcDbEntity
  8
Ruettler
370
    30
100
AcDbCircle
 10
4951.780198760932
 20
5079.817852573627
 30
0.0
 40
10.0
100
AcDbArc
 50
92.00000000000365
 51
112.296041677099
  0
ARC
  5
896D
330
1F
100
AcDbEntity
  8
Ruettler
370
    30
100
AcDbCircle
 10
4896.009539510277
 20
5079.817852573628
 30
0.0
 40
10.0
100
AcDbArc
 50
67.70395832290096
 51
87.99999999999636
  0
ARC
  5
896E
330
1F
100
AcDbEntity
  8
Ruettler
370
    30
100
AcDbCircle
 10
4855.890028192587
 20
5175.708023142015
 30
0.0
 40
10.0
100
AcDbArc
 50
337.7039583228563
 51
357.9999999999959
  0
ARC
  5
896F
330
1F
100
AcDbEntity
  8
Ruettler
370
    30
100
AcDbCircle
 10
4896.009539510249
 20
5215.827534459676
 30
0.0
 40
10.0
100
AcDbArc
 50
272.0000000000035
 51
292.2960416771413
  0
ARC
  5
8970
330
1F
100
AcDbEntity
  8
Ruettler
370
    30
100
AcDbCircle
 10
4951.78019876096
 20
5215.827534459677
 30
0.0
 40
10.0
100
AcDbArc
 50
247.7039583228578
 51
267.9999999999963
  0
ARC
  5
8971
330
1F
100
AcDbEntity
  8
Ruettler
370
    30
100
AcDbCircle
 10
4991.899710078635
 20
5175.708023141986
 30
0.0
 40
10.0
100
AcDbArc
 50
182.000000000004
 51
202.2960416771436
  0
LINE
  5
8972
330
1F
100
AcDbEntity
  8
Ruettler
370
    30
100
AcDbLine
 10
5013.474846004008
 20
5129.322693516659
 30
0.0
 11
4988.894869135611
 21
5129.322693516659
 31
0.0
  0
ARC
  5
8973
330
1F
100
AcDbEntity
  8
Ruettler
370
    30
100
AcDbCircle
 10
4988.894869135611
 20
5133.322693516658
 30
0.0
 40
4.0
100
AcDbArc
 50
247.9756871630219
 51
270.0
  0
CIRCLE
  5
8974
330
1F
100
AcDbEntity
  8
Ruettler
370
    30
100
AcDbCircle
 10
4875.104501233733
 20
5196.61306141853
 30
0.0
 40
6.5
  0
LINE
  5
8975
330
1F
100
AcDbEntity
  8
Ruettler
370
    30
100
AcDbLine
 10
4873.949800695354
 20
5199.61306141853
 30
0.0
 11
4876.259201772112
 21
5199.61306141853
 31
0.0
  0
LINE
  5
8976
330
1F
100
AcDbEntity
  8
Ruettler
370
    30
100
AcDbLine
 10
4871.92907475319
 20
5197.11306141853
 30
0.0
 11
4873.083775291569
 21
5199.11306141853
 31
0.0
  0
LINE
  5
8977
330
1F
100
AcDbEntity
  8
Ruettler
370
    30
100
AcDbLine
 10
4873.083775291569
 20
5194.11306141853
 30
0.0
 11
4871.92907475319
 21
5196.113061418529
 31
0.0
  0
LINE
  5
8978
330
1F
100
AcDbEntity
  8
Ruettler
370
    30
100
AcDbLine
 10
4876.259201772112
 20
5193.613061418529
 30
0.0
 11
4873.949800695354
 21
5193.61306141853
 31
0.0
  0
LINE
  5
8979
330
1F
100
AcDbEntity
  8
Ruettler
370
    30
100
AcDbLine
 10
4878.279927714276
 20
5196.113061418529
 30
0.0
 11
4877.125227175897
 21
5194.11306141853
 31
0.0
  0
LINE
  5
897A
330
1F
100
AcDbEntity
  8
Ruettler
370
    30
100
AcDbLine
 10
4877.125227175897
 20
5199.113061418529
 30
0.0
 11
4878.279927714276
 21
5197.11306141853
 31
0.0
  0
ARC
  5
897B
330
1F
100
AcDbEntity
  8
Ruettler
370
    30
100
AcDbCircle
 10
4872.795100156975
 20
5196.613061418529
 30
0.0
 40
1.0
100
AcDbArc
 50
149.9999999999883
 51
210.0000000000116
  0
ARC
  5
897C
330
1F
100
AcDbEntity
  8
Ruettler
370
    30
100
AcDbCircle
 10
4873.949800695354
 20
5198.61306141853
 30
0.0
 40
1.0
100
AcDbArc
 50
90.0
 51
149.9999999999883
  0
ARC
  5
897D
330
1F
100
AcDbEntity
  8
Ruettler
370
    30
100
AcDbCircle
 10
4876.259201772112
 20
5198.61306141853
 30
0.0
 40
1.0
100
AcDbArc
 50
30.00000000001164
 51
90.0
  0
ARC
  5
897E
330
1F
100
AcDbEntity
  8
Ruettler
370
    30
100
AcDbCircle
 10
4877.413902310491
 20
5196.613061418529
 30
0.0
 40
1.0
100
AcDbArc
 50
329.9999999999883
 51
30.00000000001164
  0
ARC
  5
897F
330
1F
100
AcDbEntity
  8
Ruettler
370
    30
100
AcDbCircle
 10
4876.259201772112
 20
5194.613061418529
 30
0.0
 40
1.0
100
AcDbArc
 50
270.0
 51
329.9999999999883
  0
ARC
  5
8980
330
1F
100
AcDbEntity
  8
Ruettler
370
    30
100
AcDbCircle
 10
4873.949800695354
 20
5194.613061418531
 30
0.0
 40
1.0
100
AcDbArc
 50
210.0000000000116
 51
270.0
  0
CIRCLE
  5
8981
330
1F
100
AcDbEntity
  8
Ruettler
370
    30
100
AcDbCircle
 10
4875.104501233733
 20
5196.61306141853
 30
0.0
 40
3.378210492830248
  0
CIRCLE
  5
8982
330
1F
100
AcDbEntity
  8
Ruettler
370
    30
100
AcDbCircle
 10
4875.104501233733
 20
5099.032325614776
 30
0.0
 40
3.378210492830248
  0
ARC
  5
8983
330
1F
100
AcDbEntity
  8
Ruettler
370
    30
100
AcDbCircle
 10
4877.104501233732
 20
5097.877625076396
 30
0.0
 40
1.0
100
AcDbArc
 50
300.0000000000084
 51
0.0
  0
ARC
  5
8984
330
1F
100
AcDbEntity
  8
Ruettler
370
    30
100
AcDbCircle
 10
4877.104501233732
 20
5100.187026153155
 30
0.0
 40
1.0
100
AcDbArc
 50
0.0
 51
59.9999999999916
  0
ARC
  5
8985
330
1F
100
AcDbEntity
  8
Ruettler
370
    30
100
AcDbCircle
 10
4875.104501233733
 20
5101.341726691534
 30
0.0
 40
1.0
100
AcDbArc
 50
59.9999999999916
 51
120.0000000000083
  0
ARC
  5
8986
330
1F
100
AcDbEntity
  8
Ruettler
370
    30
100
AcDbCircle
 10
4873.104501233733
 20
5100.187026153155
 30
0.0
 40
1.0
100
AcDbArc
 50
120.0000000000083
 51
180.0
  0
ARC
  5
8987
330
1F
100
AcDbEntity
  8
Ruettler
370
    30
100
AcDbCircle
 10
4873.104501233733
 20
5097.877625076396
 30
0.0
 40
1.0
100
AcDbArc
 50
180.0
 51
239.9999999999916
  0
ARC
  5
8988
330
1F
100
AcDbEntity
  8
Ruettler
370
    30
100
AcDbCircle
 10
4875.104501233733
 20
5096.722924538017
 30
0.0
 40
1.0
100
AcDbArc
 50
239.9999999999916
 51
300.0000000000084
  0
LINE
  5
8989
330
1F
100
AcDbEntity
  8
Ruettler
370
    30
100
AcDbLine
 10
4872.604501233733
 20
5101.053051556939
 30
0.0
 11
4874.604501233733
 21
5102.207752095318
 31
0.0
  0
LINE
  5
898A
330
1F
100
AcDbEntity
  8
Ruettler
370
    30
100
AcDbLine
 10
4875.604501233732
 20
5102.207752095318
 30
0.0
 11
4877.604501233733
 21
5101.053051556939
 31
0.0
  0
LINE
  5
898B
330
1F
100
AcDbEntity
  8
Ruettler
370
    30
100
AcDbLine
 10
4878.104501233733
 20
5100.187026153155
 30
0.0
 11
4878.104501233733
 21
5097.877625076396
 31
0.0
  0
LINE
  5
898C
330
1F
100
AcDbEntity
  8
Ruettler
370
    30
100
AcDbLine
 10
4877.604501233733
 20
5097.011599672612
 30
0.0
 11
4875.604501233732
 21
5095.856899134233
 31
0.0
  0
LINE
  5
898D
330
1F
100
AcDbEntity
  8
Ruettler
370
    30
100
AcDbLine
 10
4874.604501233733
 20
5095.856899134233
 30
0.0
 11
4872.604501233733
 21
5097.011599672612
 31
0.0
  0
LINE
  5
898E
330
1F
100
AcDbEntity
  8
Ruettler
370
    30
100
AcDbLine
 10
4872.104501233732
 20
5097.877625076396
 30
0.0
 11
4872.104501233732
 21
5100.187026153155
 31
0.0
  0
CIRCLE
  5
898F
330
1F
100
AcDbEntity
  8
Ruettler
370
    30
100
AcDbCircle
 10
4875.104501233733
 20
5099.032325614776
 30
0.0
 40
6.5
  0
CIRCLE
  5
8990
330
1F
100
AcDbEntity
  8
Ruettler
370
    30
100
AcDbCircle
 10
4972.685237037487
 20
5099.032325614776
 30
0.0
 40
3.378210492830248
  0
ARC
  5
8991
330
1F
100
AcDbEntity
  8
Ruettler
370
    30
100
AcDbCircle
 10
4973.839937575867
 20
5101.032325614776
 30
0.0
 40
1.0
100
AcDbArc
 50
30.00000000001164
 51
90.0
  0
ARC
  5
8992
330
1F
100
AcDbEntity
  8
Ruettler
370
    30
100
AcDbCircle
 10
4971.530536499108
 20
5101.032325614776
 30
0.0
 40
1.0
100
AcDbArc
 50
90.0
 51
149.9999999999883
  0
ARC
  5
8993
330
1F
100
AcDbEntity
  8
Ruettler
370
    30
100
AcDbCircle
 10
4970.375835960729
 20
5099.032325614776
 30
0.0
 40
1.0
100
AcDbArc
 50
149.9999999999883
 51
210.0000000000116
  0
ARC
  5
8994
330
1F
100
AcDbEntity
  8
Ruettler
370
    30
100
AcDbCircle
 10
4971.530536499108
 20
5097.032325614776
 30
0.0
 40
1.0
100
AcDbArc
 50
210.0000000000116
 51
270.0
  0
ARC
  5
8995
330
1F
100
AcDbEntity
  8
Ruettler
370
    30
100
AcDbCircle
 10
4973.839937575867
 20
5097.032325614776
 30
0.0
 40
1.0
100
AcDbArc
 50
270.0
 51
329.9999999999883
  0
ARC
  5
8996
330
1F
100
AcDbEntity
  8
Ruettler
370
    30
100
AcDbCircle
 10
4974.994638114246
 20
5099.032325614776
 30
0.0
 40
1.0
100
AcDbArc
 50
329.9999999999883
 51
30.00000000001164
  0
LINE
  5
8997
330
1F
100
AcDbEntity
  8
Ruettler
370
    30
100
AcDbLine
 10
4970.664511095324
 20
5096.532325614776
 30
0.0
 11
4969.509810556945
 21
5098.532325614776
 31
0.0
  0
LINE
  5
8998
330
1F
100
AcDbEntity
  8
Ruettler
370
    30
100
AcDbLine
 10
4969.509810556945
 20
5099.532325614775
 30
0.0
 11
4970.664511095324
 21
5101.532325614776
 31
0.0
  0
LINE
  5
8999
330
1F
100
AcDbEntity
  8
Ruettler
370
    30
100
AcDbLine
 10
4971.530536499108
 20
5102.032325614776
 30
0.0
 11
4973.839937575867
 21
5102.032325614776
 31
0.0
  0
LINE
  5
899A
330
1F
100
AcDbEntity
  8
Ruettler
370
    30
100
AcDbLine
 10
4974.705962979651
 20
5101.532325614776
 30
0.0
 11
4975.86066351803
 21
5099.532325614775
 31
0.0
  0
LINE
  5
899B
330
1F
100
AcDbEntity
  8
Ruettler
370
    30
100
AcDbLine
 10
4975.86066351803
 20
5098.532325614776
 30
0.0
 11
4974.705962979651
 21
5096.532325614776
 31
0.0
  0
LINE
  5
899C
330
1F
100
AcDbEntity
  8
Ruettler
370
    30
100
AcDbLine
 10
4973.839937575867
 20
5096.032325614776
 30
0.0
 11
4971.530536499108
 21
5096.032325614776
 31
0.0
  0
CIRCLE
  5
899D
330
1F
100
AcDbEntity
  8
Ruettler
370
    30
100
AcDbCircle
 10
4972.685237037487
 20
5099.032325614776
 30
0.0
 40
6.5
  0
CIRCLE
  5
899E
330
1F
100
AcDbEntity
  8
Ruettler
370
    30
100
AcDbCircle
 10
4972.685237037487
 20
5196.613061418529
 30
0.0
 40
3.378210492830248
  0
ARC
  5
899F
330
1F
100
AcDbEntity
  8
Ruettler
370
    30
100
AcDbCircle
 10
4970.685237037487
 20
5197.767761956909
 30
0.0
 40
1.0
100
AcDbArc
 50
120.0000000000083
 51
180.0
  0
ARC
  5
89A0
330
1F
100
AcDbEntity
  8
Ruettler
370
    30
100
AcDbCircle
 10
4970.685237037487
 20
5195.458360880151
 30
0.0
 40
1.0
100
AcDbArc
 50
180.0
 51
239.9999999999916
  0
ARC
  5
89A1
330
1F
100
AcDbEntity
  8
Ruettler
370
    30
100
AcDbCircle
 10
4972.685237037487
 20
5194.303660341772
 30
0.0
 40
1.0
100
AcDbArc
 50
239.9999999999916
 51
300.0000000000084
  0
ARC
  5
89A2
330
1F
100
AcDbEntity
  8
Ruettler
370
    30
100
AcDbCircle
 10
4974.685237037487
 20
5195.458360880151
 30
0.0
 40
1.0
100
AcDbArc
 50
300.0000000000084
 51
0.0
  0
ARC
  5
89A3
330
1F
100
AcDbEntity
  8
Ruettler
370
    30
100
AcDbCircle
 10
4974.685237037487
 20
5197.767761956909
 30
0.0
 40
1.0
100
AcDbArc
 50
0.0
 51
59.9999999999916
  0
ARC
  5
89A4
330
1F
100
AcDbEntity
  8
Ruettler
370
    30
100
AcDbCircle
 10
4972.685237037487
 20
5198.922462495289
 30
0.0
 40
1.0
100
AcDbArc
 50
59.9999999999916
 51
120.0000000000083
  0
LINE
  5
89A5
330
1F
100
AcDbEntity
  8
Ruettler
370
    30
100
AcDbLine
 10
4975.185237037488
 20
5194.592335476366
 30
0.0
 11
4973.185237037487
 21
5193.437634937987
 31
0.0
  0
LINE
  5
89A6
330
1F
100
AcDbEntity
  8
Ruettler
370
    30
100
AcDbLine
 10
4972.185237037487
 20
5193.437634937987
 30
0.0
 11
4970.185237037487
 21
5194.592335476366
 31
0.0
  0
LINE
  5
89A7
330
1F
100
AcDbEntity
  8
Ruettler
370
    30
100
AcDbLine
 10
4969.685237037487
 20
5195.458360880151
 30
0.0
 11
4969.685237037487
 21
5197.767761956909
 31
0.0
  0
LINE
  5
89A8
330
1F
100
AcDbEntity
  8
Ruettler
370
    30
100
AcDbLine
 10
4970.185237037487
 20
5198.633787360694
 30
0.0
 11
4972.185237037487
 21
5199.788487899072
 31
0.0
  0
LINE
  5
89A9
330
1F
100
AcDbEntity
  8
Ruettler
370
    30
100
AcDbLine
 10
4973.185237037487
 20
5199.788487899072
 30
0.0
 11
4975.185237037488
 21
5198.633787360694
 31
0.0
  0
LINE
  5
89AA
330
1F
100
AcDbEntity
  8
Ruettler
370
    30
100
AcDbLine
 10
4975.685237037487
 20
5197.767761956909
 30
0.0
 11
4975.685237037487
 21
5195.458360880151
 31
0.0
  0
CIRCLE
  5
89AB
330
1F
100
AcDbEntity
  8
Ruettler
370
    30
100
AcDbCircle
 10
4972.685237037487
 20
5196.613061418529
 30
0.0
 40
6.5
  0
CIRCLE
  5
89AC
330
1F
100
AcDbEntity
  8
Ruettler
370
    30
100
AcDbCircle
 10
4924.044145029337
 20
5230.762128168716
 30
0.0
 40
6.5
  0
CIRCLE
  5
89AD
330
1F
100
AcDbEntity
  8
Ruettler
370
    30
100
AcDbCircle
 10
4923.894869135611
 20
5230.822693516659
 30
0.0
 40
8.0
  0
CIRCLE
  5
89AE
330
1F
100
AcDbEntity
  8
Ruettler
370
    30
100
AcDbCircle
 10
4923.894869135611
 20
5230.822693516659
 30
0.0
 40
12.5
  0
LINE
  5
89AF
330
1F
100
AcDbEntity
  8
Ruettler
370
    30
100
AcDbLine
 10
4916.67799077074
 20
5245.822693516658
 30
0.0
 11
4931.11174750048
 21
5245.822693516658
 31
0.0
  0
LINE
  5
89B0
330
1F
100
AcDbEntity
  8
Ruettler
370
    30
100
AcDbLine
 10
4907.296048896409
 20
5232.072693516659
 30
0.0
 11
4914.512927261279
 21
5244.572693516659
 31
0.0
  0
LINE
  5
89B1
330
1F
100
AcDbEntity
  8
Ruettler
370
    30
100
AcDbLine
 10
4914.512927261279
 20
5217.072693516659
 30
0.0
 11
4907.296048896409
 21
5229.572693516658
 31
0.0
  0
LINE
  5
89B2
330
1F
100
AcDbEntity
  8
Ruettler
370
    30
100
AcDbLine
 10
4931.111747500481
 20
5215.822693516659
 30
0.0
 11
4916.67799077074
 21
5215.822693516659
 31
0.0
  0
LINE
  5
89B3
330
1F
100
AcDbEntity
  8
Ruettler
370
    30
100
AcDbLine
 10
4940.493689374812
 20
5229.572693516658
 30
0.0
 11
4933.276811009942
 21
5217.072693516659
 31
0.0
  0
LINE
  5
89B4
330
1F
100
AcDbEntity
  8
Ruettler
370
    30
100
AcDbLine
 10
4933.276811009942
 20
5244.572693516659
 30
0.0
 11
4940.493689374812
 21
5232.072693516659
 31
0.0
  0
ARC
  5
89B5
330
1F
100
AcDbEntity
  8
Ruettler
370
    30
100
AcDbCircle
 10
4916.67799077074
 20
5243.322693516659
 30
0.0
 40
2.5
100
AcDbArc
 50
90.0
 51
149.9999999999883
  0
ARC
  5
89B6
330
1F
100
AcDbEntity
  8
Ruettler
370
    30
100
AcDbCircle
 10
4931.11174750048
 20
5243.322693516659
 30
0.0
 40
2.5
100
AcDbArc
 50
30.00000000001164
 51
90.0
  0
ARC
  5
89B7
330
1F
100
AcDbEntity
  8
Ruettler
370
    30
100
AcDbCircle
 10
4938.32862586535
 20
5230.822693516659
 30
0.0
 40
2.5
100
AcDbArc
 50
329.9999999999883
 51
30.00000000001164
  0
ARC
  5
89B8
330
1F
100
AcDbEntity
  8
Ruettler
370
    30
100
AcDbCircle
 10
4931.111747500481
 20
5218.322693516658
 30
0.0
 40
2.5
100
AcDbArc
 50
270.0
 51
329.9999999999883
  0
ARC
  5
89B9
330
1F
100
AcDbEntity
  8
Ruettler
370
    30
100
AcDbCircle
 10
4916.67799077074
 20
5218.322693516658
 30
0.0
 40
2.5
100
AcDbArc
 50
210.0000000000116
 51
270.0
  0
ARC
  5
89BA
330
1F
100
AcDbEntity
  8
Ruettler
370
    30
100
AcDbCircle
 10
4909.46111240587
 20
5230.822693516659
 30
0.0
 40
2.5
100
AcDbArc
 50
149.9999999999883
 51
210.0000000000116
  0
LINE
  5
89BB
330
1F
100
AcDbEntity
  8
Ruettler
370
    30
100
AcDbLine
 10
4939.250994537272
 20
5227.420282919735
 30
5.101379614055091
 11
4939.566263860271
 21
5209.358515501772
 31
9.617509296970688
  0
LINE
  5
89BC
330
1F
100
AcDbEntity
  8
Ruettler
370
    30
100
AcDbLine
 10
4908.538743733949
 20
5227.420282919735
 30
5.10137961405515
 11
4908.22347441095
 21
5209.358515501776
 31
9.617509296969994
  0
LINE
  5
89BD
330
1F
100
AcDbEntity
  8
Ruettler
370
    30
100
AcDbLine
 10
4873.894869135611
 20
5248.822693516658
 30
0.0
 11
4973.894869135611
 21
5248.822693516658
 31
0.0
  0
LINE
  5
89BE
330
1F
100
AcDbEntity
  8
Ruettler
370
    30
100
AcDbLine
 10
4877.89486913561
 20
5258.822693516659
 30
0.0
 11
4969.894869135611
 21
5258.822693516659
 31
0.0
  0
LINE
  5
89BF
330
1F
100
AcDbEntity
  8
Ruettler
370
    30
100
AcDbLine
 10
4973.894869135611
 20
5247.822693516659
 30
0.0
 11
4973.894869135611
 21
5254.822693516659
 31
0.0
  0
LINE
  5
89C0
330
1F
100
AcDbEntity
  8
Ruettler
370
    30
100
AcDbLine
 10
4873.894869135611
 20
5247.822693516659
 30
0.0
 11
4873.894869135611
 21
5254.822693516659
 31
0.0
  0
ARC
  5
89C1
330
1F
100
AcDbEntity
  8
Ruettler
370
    30
100
AcDbCircle
 10
4969.894869135611
 20
5254.822693516659
 30
0.0
 40
4.0
100
AcDbArc
 50
0.0
 51
90.0
  0
ARC
  5
89C2
330
1F
100
AcDbEntity
  8
Ruettler
370
    30
100
AcDbCircle
 10
4877.89486913561
 20
5254.822693516659
 30
0.0
 40
4.0
100
AcDbArc
 50
90.0
 51
180.0
  0
CIRCLE
  5
89C6
330
1F
100
AcDbEntity
  8
Ruettler
370
    30
100
AcDbCircle
 10
4923.894869135611
 20
5147.822693516653
 30
0.0
 40
60.0
  0
CIRCLE
  5
89C8
330
1F
100
AcDbEntity
  8
Ruettler
  6
GESTRICHELT
 62
     7
 48
15.0
370
    18
100
AcDbCircle
 10
4923.894869135611
 20
5147.822693516653
 30
0.0
 40
11.5
  0
CIRCLE
  5
89C9
330
1F
100
AcDbEntity
  8
Ruettler
  6
GESTRICHELT
 62
     7
 48
15.0
370
    18
100
AcDbCircle
 10
4923.894869135611
 20
5147.822693516653
 30
0.0
 40
12.5
  0
ARC
  5
89CA
330
1F
100
AcDbEntity
  8
Ruettler
  6
GESTRICHELT
 62
     7
 48
15.0
370
    18
100
AcDbCircle
 10
4923.894869135611
 20
5147.822693516653
 30
0.0
 40
20.0
100
AcDbArc
 50
53.86930130333727
 51
146.2510114041016
  0
ARC
  5
89CB
330
1F
100
AcDbEntity
  8
Ruettler
  6
GESTRICHELT
 62
     7
 48
15.0
370
    18
100
AcDbCircle
 10
4923.894869135611
 20
5147.822693516653
 30
0.0
 40
45.0
100
AcDbArc
 50
183.8225537292702
 51
356.2253380952333
  0
LINE
  5
89CC
330
1F
100
AcDbEntity
  8
Ruettler
  6
GESTRICHELT
 62
     7
 48
15.0
370
    18
100
AcDbLine
 10
4911.485195489619
 20
5146.322693516658
 30
0.0
 11
4885.68615698309
 21
5146.322693516658
 31
0.0
  0
LINE
  5
89CD
330
1F
100
AcDbEntity
  8
Ruettler
  6
GESTRICHELT
 62
     7
 48
15.0
370
    18
100
AcDbLine
 10
4911.48519548962
 20
5149.322693516658
 30
0.0
 11
4885.894869135611
 21
5149.322693516658
 31
0.0
  0
LINE
  5
89CE
330
1F
100
AcDbEntity
  8
Ruettler
  6
GESTRICHELT
 62
     7
 48
15.0
370
    18
100
AcDbLine
 10
4905.186582201745
 20
5157.822693516658
 30
0.0
 11
4888.394869135611
 21
5157.822693516658
 31
0.0
  0
LINE
  5
89CF
330
1F
100
AcDbEntity
  8
Ruettler
  6
GESTRICHELT
 62
     7
 48
15.0
370
    18
100
AcDbLine
 10
4885.894869135611
 20
5155.322693516659
 30
0.0
 11
4885.894869135611
 21
5149.322693516658
 31
0.0
  0
LINE
  5
89D0
330
1F
100
AcDbEntity
  8
Ruettler
  6
GESTRICHELT
 62
     7
 48
15.0
370
    18
100
AcDbLine
 10
4883.394869135611
 20
5144.822693516658
 30
0.0
 11
4872.458904490444
 21
5144.822693516658
 31
0.0
  0
LINE
  5
89D1
330
1F
100
AcDbEntity
  8
Ruettler
  6
GESTRICHELT
 62
     7
 48
15.0
370
    18
100
AcDbLine
 10
4931.987902685139
 20
5166.112111439764
 30
0.0
 11
4976.245485815009
 21
5140.559983906051
 31
0.0
  0
ARC
  5
89D2
330
1F
100
AcDbEntity
  8
Ruettler
  6
GESTRICHELT
 62
     7
 48
15.0
370
    18
100
AcDbCircle
 10
4923.894869135611
 20
5147.822693516653
 30
0.0
 40
16.0
100
AcDbArc
 50
185.3793789911126
 51
174.6206210088873
  0
ARC
  5
89D3
330
1F
100
AcDbEntity
  8
Ruettler
  6
GESTRICHELT
 62
     7
 48
15.0
370
    18
100
AcDbCircle
 10
4923.898189088891
 20
5144.822693516658
 30
0.0
 40
54.0
100
AcDbArc
 50
182.7824420499458
 51
357.7182501284576
  0
ARC
  5
89D4
330
1F
100
AcDbEntity
  8
Ruettler
  6
GESTRICHELT
 62
     7
 48
15.0
370
    18
100
AcDbCircle
 10
4974.995485815009
 20
5138.394920396589
 30
0.0
 40
2.5
100
AcDbArc
 50
352.8301511721377
 51
59.9999999999916
  0
ARC
  5
89D5
330
1F
100
AcDbEntity
  8
Ruettler
  6
GESTRICHELT
 62
     7
 48
15.0
370
    18
100
AcDbCircle
 10
4872.458904490444
 20
5142.322693516659
 30
0.0
 40
2.5
100
AcDbArc
 50
90.0
 51
182.7824420499458
  0
ARC
  5
89D6
330
1F
100
AcDbEntity
  8
Ruettler
  6
GESTRICHELT
 62
     7
 48
15.0
370
    18
100
AcDbCircle
 10
4883.394869135611
 20
5147.322693516659
 30
0.0
 40
2.5
100
AcDbArc
 50
270.0
 51
336.4218215218272
  0
ARC
  5
89D7
330
1F
100
AcDbEntity
  8
Ruettler
  6
GESTRICHELT
 62
     7
 48
15.0
370
    18
100
AcDbCircle
 10
4888.394869135611
 20
5155.322693516659
 30
0.0
 40
2.5
100
AcDbArc
 50
90.0
 51
180.0
  0
ARC
  5
89D8
330
1F
100
AcDbEntity
  8
Ruettler
  6
GESTRICHELT
 62
     7
 48
15.0
370
    18
100
AcDbCircle
 10
4905.186582201745
 20
5160.322693516659
 30
0.0
 40
2.5
100
AcDbArc
 50
270.0
 51
326.2510114041015
  0
LINE
  5
89DF
330
1F
100
AcDbEntity
  8
Ruettler
  6
STRICHPUNKTA
 62
     7
 48
5.0
370
    15
100
AcDbLine
 10
4895.894869135611
 20
5172.827903133384
 30
0.0
 11
4895.894869135611
 21
5128.293124488813
 31
0.0
  0
ARC
  5
89E9
330
1F
100
AcDbEntity
  8
Ruettler
  6
GESTRICHELT
 62
     7
 48
15.0
370
    18
100
AcDbCircle
 10
4959.394869135611
 20
5155.322693516659
 30
0.0
 40
2.5
100
AcDbArc
 50
0.0
 51
90.0
  0
LINE
  5
89EA
330
1F
100
AcDbEntity
  8
Ruettler
  6
GESTRICHELT
 62
     7
 48
15.0
370
    18
100
AcDbLine
 10
4946.345595693129
 20
5157.822693516658
 30
0.0
 11
4959.394869135611
 21
5157.822693516658
 31
0.0
  0
LINE
  5
89EB
330
1F
100
AcDbEntity
  8
Ruettler
  6
GESTRICHELT
 62
     7
 48
15.0
370
    18
100
AcDbLine
 10
4961.89486913561
 20
5155.322693516659
 30
0.0
 11
4961.89486913561
 21
5149.322693516658
 31
0.0
  0
LINE
  5
89EC
330
1F
100
AcDbEntity
  8
Ruettler
  6
GESTRICHELT
 62
     7
 48
15.0
370
    18
100
AcDbLine
 10
4915.801835586083
 20
5166.112111439764
 30
0.0
 11
4902.394869135611
 21
5158.371595750567
 31
0.0
  0
LINE
  5
89ED
330
1F
100
AcDbEntity
  8
Ruettler
  6
GESTRICHELT
 62
     7
 48
15.0
370
    18
100
AcDbLine
 10
4968.862256191524
 20
5144.822693516658
 30
0.0
 11
4975.330833780777
 21
5144.822693516658
 31
0.0
  0
ARC
  5
89EE
330
1F
100
AcDbEntity
  8
Ruettler
  6
GESTRICHELT
 62
     7
 48
15.0
370
    18
100
AcDbCircle
 10
4975.330833780777
 20
5142.322693516659
 30
0.0
 40
2.5
100
AcDbArc
 50
357.2175579500539
 51
90.0
  0
LINE
  5
89EF
330
1F
100
AcDbEntity
  8
Ruettler
370
    30
100
AcDbLine
 10
4961.068027557465
 20
5149.322693516658
 30
0.0
 11
4961.894869135611
 21
5149.322693516658
 31
0.0
  0
LINE
  5
89F0
330
1F
100
AcDbEntity
  8
Ruettler
  6
GESTRICHELT
 62
     7
 48
15.0
370
    18
100
AcDbLine
 10
4886.721710713755
 20
5149.322693516658
 30
0.0
 11
4878.927482079696
 21
5144.822693516658
 31
0.0
  0
LINE
  5
89F1
330
1F
100
AcDbEntity
  8
Ruettler
  6
STRICHPUNKTA
 62
     7
 48
5.0
370
    15
100
AcDbLine
 10
4951.89486913561
 20
5172.827903133384
 30
0.0
 11
4951.89486913561
 21
5128.293124488813
 31
0.0
  0
LINE
  5
8A5D
330
1F
100
AcDbEntity
  8
Ruettler
370
    30
100
AcDbLine
 10
4575.936482664618
 20
5245.822693516658
 30
0.0
 11
4579.936482664617
 21
5245.822693516658
 31
0.0
  0
LINE
  5
8A5E
330
1F
100
AcDbEntity
  8
Ruettler
370
    30
100
AcDbLine
 10
4575.936482664618
 20
5215.822693516659
 30
0.0
 11
4579.936482664617
 21
5215.822693516659
 31
0.0
  0
LINE
  5
8A5F
330
1F
100
AcDbEntity
  8
Ruettler
370
    30
100
AcDbLine
 10
4573.936482664618
 20
5243.822693516658
 30
0.0
 11
4573.936482664618
 21
5217.822693516659
 31
0.0
  0
LINE
  5
8A60
330
1F
100
AcDbEntity
  8
Ruettler
370
    30
100
AcDbLine
 10
4573.936482664618
 20
5230.822693516659
 30
0.0
 11
4581.936482664618
 21
5230.822693516659
 31
0.0
  0
ARC
  5
8A61
330
1F
100
AcDbEntity
  8
Ruettler
370
    30
100
AcDbCircle
 10
4575.936482664618
 20
5243.822693516658
 30
0.0
 40
2.0
100
AcDbArc
 50
90.0
 51
180.0
  0
ARC
  5
8A62
330
1F
100
AcDbEntity
  8
Ruettler
370
    30
100
AcDbCircle
 10
4575.936482664618
 20
5217.822693516659
 30
0.0
 40
2.0
100
AcDbArc
 50
180.0
 51
270.0
  0
LINE
  5
8A63
330
1F
100
AcDbEntity
  8
Ruettler
370
    30
100
AcDbLine
 10
4581.936482664618
 20
5243.822693516658
 30
0.0
 11
4581.936482664618
 21
5217.822693516659
 31
0.0
  0
ARC
  5
8A64
330
1F
100
AcDbEntity
  8
Ruettler
370
    30
100
AcDbCircle
 10
4579.936482664617
 20
5243.822693516658
 30
0.0
 40
2.0
100
AcDbArc
 50
0.0
 51
90.0
  0
ARC
  5
8A65
330
1F
100
AcDbEntity
  8
Ruettler
370
    30
100
AcDbCircle
 10
4579.936482664617
 20
5217.822693516659
 30
0.0
 40
2.0
100
AcDbArc
 50
270.0
 51
0.0
  0
LINE
  5
8A66
330
1F
100
AcDbEntity
  8
Ruettler
370
    30
100
AcDbLine
 10
4573.936482664618
 20
5243.322693516659
 30
0.0
 11
4537.106519628497
 21
5241.941569902803
 31
0.0
  0
LINE
  5
8A67
330
1F
100
AcDbEntity
  8
Ruettler
370
    30
100
AcDbLine
 10
4573.936482664618
 20
5218.322693516658
 30
0.0
 11
4536.102855408878
 21
5219.741454538748
 31
0.0
  0
LINE
  5
8A68
330
1F
100
AcDbEntity
  8
Ruettler
370
    30
100
AcDbLine
 10
4483.794546447168
 20
5237.822693516658
 30
0.0
 11
4535.916896267093
 21
5237.822693516658
 31
0.0
  0
LINE
  5
8A69
330
1F
100
AcDbEntity
  8
Ruettler
370
    30
100
AcDbLine
 10
4480.840768129733
 20
5223.822693516659
 30
0.0
 11
4535.377444106416
 21
5223.822693516659
 31
0.0
  0
LINE
  5
8A6A
330
1F
100
AcDbEntity
  8
Ruettler
370
    30
100
AcDbLine
 10
4537.106519628497
 20
5241.941569902803
 30
0.0
 11
4537.106519628497
 21
5241.438400192523
 31
0.0
  0
LINE
  5
8A6B
330
1F
100
AcDbEntity
  8
Ruettler
370
    30
100
AcDbLine
 10
4537.106519628497
 20
5241.438400192523
 30
0.0
 11
4536.82118185601
 21
5240.29750435688
 31
0.0
  0
LINE
  5
8A6C
330
1F
100
AcDbEntity
  8
Ruettler
370
    30
100
AcDbLine
 10
4536.82118185601
 20
5240.29750435688
 30
0.0
 11
4536.250508143416
 21
5239.156608521238
 31
0.0
  0
LINE
  5
8A6D
330
1F
100
AcDbEntity
  8
Ruettler
370
    30
100
AcDbLine
 10
4536.250508143416
 20
5239.156608521238
 30
0.0
 11
4535.965170370929
 21
5238.015712685594
 31
0.0
  0
LINE
  5
8A6E
330
1F
100
AcDbEntity
  8
Ruettler
370
    30
100
AcDbLine
 10
4535.965170370929
 20
5238.015712685594
 30
0.0
 11
4535.679832598442
 21
5236.874818182413
 31
0.0
  0
LINE
  5
8A6F
330
1F
100
AcDbEntity
  8
Ruettler
370
    30
100
AcDbLine
 10
4535.679832598442
 20
5236.874818182413
 30
0.0
 11
4535.965170370929
 21
5235.733922346771
 31
0.0
  0
LINE
  5
8A70
330
1F
100
AcDbEntity
  8
Ruettler
370
    30
100
AcDbLine
 10
4535.965170370929
 20
5235.733922346771
 30
0.0
 11
4536.250508143416
 21
5234.307802552217
 31
0.0
  0
LINE
  5
8A71
330
1F
100
AcDbEntity
  8
Ruettler
370
    30
100
AcDbLine
 10
4536.250508143416
 20
5234.307802552217
 30
0.0
 11
4536.535845915902
 21
5233.166906716574
 31
0.0
  0
LINE
  5
8A72
330
1F
100
AcDbEntity
  8
Ruettler
370
    30
100
AcDbLine
 10
4536.535845915902
 20
5233.166906716574
 30
0.0
 11
4536.535845915902
 21
5232.026010880931
 31
0.0
  0
LINE
  5
8A73
330
1F
100
AcDbEntity
  8
Ruettler
370
    30
100
AcDbLine
 10
4536.535845915902
 20
5232.026010880931
 30
0.0
 11
4536.250508143416
 21
5230.885115045289
 31
0.0
  0
LINE
  5
8A74
330
1F
100
AcDbEntity
  8
Ruettler
370
    30
100
AcDbLine
 10
4536.250508143416
 20
5230.885115045289
 30
0.0
 11
4536.250508143416
 21
5229.744219209646
 31
0.0
  0
LINE
  5
8A75
330
1F
100
AcDbEntity
  8
Ruettler
370
    30
100
AcDbLine
 10
4536.250508143416
 20
5229.744219209646
 30
0.0
 11
4535.679832598442
 21
5228.603323374003
 31
0.0
  0
LINE
  5
8A76
330
1F
100
AcDbEntity
  8
Ruettler
370
    30
100
AcDbLine
 10
4535.679832598442
 20
5228.603323374003
 30
0.0
 11
4535.394494825957
 21
5227.46242753836
 31
0.0
  0
LINE
  5
8A77
330
1F
100
AcDbEntity
  8
Ruettler
370
    30
100
AcDbLine
 10
4535.394494825957
 20
5227.46242753836
 30
0.0
 11
4535.109158885847
 21
5226.036309076269
 31
0.0
  0
LINE
  5
8A78
330
1F
100
AcDbEntity
  8
Ruettler
370
    30
100
AcDbLine
 10
4535.109158885847
 20
5226.036309076269
 30
0.0
 11
4535.109158885847
 21
5224.895413240625
 31
0.0
  0
LINE
  5
8A79
330
1F
100
AcDbEntity
  8
Ruettler
370
    30
100
AcDbLine
 10
4535.109158885847
 20
5224.895413240625
 30
0.0
 11
4535.394494825957
 21
5223.754517404983
 31
0.0
  0
LINE
  5
8A7A
330
1F
100
AcDbEntity
  8
Ruettler
370
    30
100
AcDbLine
 10
4535.394494825957
 20
5223.754517404983
 30
0.0
 11
4535.965170370929
 21
5222.61362156934
 31
0.0
  0
LINE
  5
8A7B
330
1F
100
AcDbEntity
  8
Ruettler
370
    30
100
AcDbLine
 10
4535.965170370929
 20
5222.61362156934
 30
0.0
 11
4536.250508143416
 21
5221.472725733697
 31
0.0
  0
LINE
  5
8A7C
330
1F
100
AcDbEntity
  8
Ruettler
370
    30
100
AcDbLine
 10
4536.250508143416
 20
5221.472725733697
 30
0.0
 11
4536.250508143416
 21
5220.331829898054
 31
0.0
  0
LINE
  5
8A7D
330
1F
100
AcDbEntity
  8
Ruettler
370
    30
100
AcDbLine
 10
4536.250508143416
 20
5220.331829898054
 30
0.0
 11
4536.102855408878
 21
5219.741454538748
 31
0.0
  0
LINE
  5
8A7E
330
1F
100
AcDbEntity
  8
Ruettler
370
    30
100
AcDbLine
 10
4483.794546447168
 20
5237.822693516658
 30
0.0
 11
4483.748425803926
 21
5237.730488726684
 31
0.0
  0
LINE
  5
8A7F
330
1F
100
AcDbEntity
  8
Ruettler
370
    30
100
AcDbLine
 10
4483.748425803926
 20
5237.730488726684
 30
0.0
 11
4483.177750258953
 21
5236.589594223502
 31
0.0
  0
LINE
  5
8A80
330
1F
100
AcDbEntity
  8
Ruettler
370
    30
100
AcDbLine
 10
4483.177750258953
 20
5236.589594223502
 30
0.0
 11
4482.607076546358
 21
5235.448698387859
 31
0.0
  0
LINE
  5
8A81
330
1F
100
AcDbEntity
  8
Ruettler
370
    30
100
AcDbLine
 10
4482.607076546358
 20
5235.448698387859
 30
0.0
 11
4482.321738773872
 21
5234.307802552217
 31
0.0
  0
LINE
  5
8A82
330
1F
100
AcDbEntity
  8
Ruettler
370
    30
100
AcDbLine
 10
4482.321738773872
 20
5234.307802552217
 30
0.0
 11
4482.607076546358
 21
5233.166906716574
 31
0.0
  0
LINE
  5
8A83
330
1F
100
AcDbEntity
  8
Ruettler
370
    30
100
AcDbLine
 10
4482.607076546358
 20
5233.166906716574
 30
0.0
 11
4482.892412486466
 21
5232.026010880931
 31
0.0
  0
LINE
  5
8A84
330
1F
100
AcDbEntity
  8
Ruettler
370
    30
100
AcDbLine
 10
4482.892412486466
 20
5232.026010880931
 30
0.0
 11
4482.892412486466
 21
5228.603323374003
 31
0.0
  0
LINE
  5
8A85
330
1F
100
AcDbEntity
  8
Ruettler
370
    30
100
AcDbLine
 10
4482.892412486466
 20
5228.603323374003
 30
0.0
 11
4482.321738773872
 21
5227.46242753836
 31
0.0
  0
LINE
  5
8A86
330
1F
100
AcDbEntity
  8
Ruettler
370
    30
100
AcDbLine
 10
4482.321738773872
 20
5227.46242753836
 30
0.0
 11
4481.465725456414
 21
5226.321531702718
 31
0.0
  0
LINE
  5
8A87
330
1F
100
AcDbEntity
  8
Ruettler
370
    30
100
AcDbLine
 10
4481.465725456414
 20
5226.321531702718
 30
0.0
 11
4481.180389516304
 21
5225.180637199536
 31
0.0
  0
LINE
  5
8A88
330
1F
100
AcDbEntity
  8
Ruettler
370
    30
100
AcDbLine
 10
4481.180389516304
 20
5225.180637199536
 30
0.0
 11
4480.840768129733
 21
5223.822693516659
 31
0.0
  0
LINE
  5
8A8D
330
1F
100
AcDbEntity
  8
Ruettler
370
    30
100
AcDbLine
 10
4596.936482664617
 20
5254.822693516659
 30
0.0
 11
4596.936482664617
 21
5247.822693516659
 31
0.0
  0
LINE
  5
8A8E
330
1F
100
AcDbEntity
  8
Ruettler
370
    30
100
AcDbLine
 10
4694.936482664618
 20
5254.822693516659
 30
0.0
 11
4694.936482664618
 21
5247.822693516659
 31
0.0
  0
LINE
  5
8A90
330
1F
100
AcDbEntity
  8
Ruettler
370
    30
100
AcDbLine
 10
4601.936482664618
 20
5258.822693516659
 30
0.0
 11
4690.936482664618
 21
5258.822693516659
 31
0.0
  0
ARC
  5
8A96
330
1F
100
AcDbEntity
  8
Ruettler
370
    30
100
AcDbCircle
 10
4690.936482664618
 20
5254.822693516659
 30
0.0
 40
4.0
100
AcDbArc
 50
0.0
 51
90.0
  0
ARC
  5
8A97
330
1F
100
AcDbEntity
  8
Ruettler
370
    30
100
AcDbCircle
 10
4601.803248979734
 20
5253.864235622764
 30
0.0
 40
4.96024756441744
100
AcDbArc
 50
88.46083366688376
 51
168.8587828413382
  0
LINE
  5
8A99
330
1F
100
AcDbEntity
  8
Ruettler
370
    30
100
AcDbLine
 10
4596.936482664617
 20
5248.822693516658
 30
0.0
 11
4694.936482664618
 21
5248.822693516658
 31
0.0
  0
LINE
  5
8BE1
330
1F
100
AcDbEntity
  8
Ruettler
370
    30
100
AcDbLine
 10
4721.936482664619
 20
5209.622693516657
 30
0.0
 11
4721.936482664619
 21
5211.322693516659
 31
0.0
  0
LINE
  5
8BF7
330
1F
100
AcDbEntity
  8
Ruettler
370
    30
100
AcDbLine
 10
4721.936482664619
 20
5187.822693516658
 30
0.0
 11
4721.936482664619
 21
5193.322693516659
 31
0.0
  0
LINE
  5
8C09
330
1F
100
AcDbEntity
  8
Ruettler
370
    30
100
AcDbLine
 10
4721.936482664619
 20
5102.322693516658
 30
0.0
 11
4721.936482664619
 21
5107.822693516658
 31
0.0
  0
LINE
  5
8C0A
330
1F
100
AcDbEntity
  8
Ruettler
370
    30
100
AcDbLine
 10
4721.936482664619
 20
5086.022693516659
 30
0.0
 11
4721.936482664619
 21
5209.622693516657
 31
0.0
  0
LINE
  5
8C10
330
1F
100
AcDbEntity
  8
Ruettler
370
    30
100
AcDbLine
 10
4721.936482664619
 20
5084.322693516658
 30
0.0
 11
4721.936482664619
 21
5086.022693516659
 31
0.0
  0
LINE
  5
8C13
330
1F
100
AcDbEntity
  8
Ruettler
370
    30
100
AcDbLine
 10
4711.936482664619
 20
5084.322693516658
 30
0.0
 11
4721.936482664619
 21
5084.322693516658
 31
0.0
  0
LINE
  5
8C14
330
1F
100
AcDbEntity
  8
Ruettler
370
    30
100
AcDbLine
 10
4711.936482664619
 20
5211.322693516659
 30
0.0
 11
4721.936482664619
 21
5211.322693516659
 31
0.0
  0
LINE
  5
8C1E
330
1F
100
AcDbEntity
  8
Ruettler
370
    30
100
AcDbLine
 10
4711.936482664619
 20
5084.322693516658
 30
0.0
 11
4711.936482664619
 21
5211.322693516659
 31
0.0
  0
LINE
  5
8C30
330
1F
100
AcDbEntity
  8
Ruettler
370
    30
100
AcDbLine
 10
4579.936482664617
 20
5211.322693516658
 30
0.0
 11
4569.936482664618
 21
5211.322693516658
 31
0.0
  0
ARC
  5
8D07
330
1F
100
AcDbEntity
  8
Ruettler
370
    30
100
AcDbCircle
 10
4556.936482664618
 20
5147.822693516658
 30
0.0
 40
230.0
100
AcDbArc
 50
346.4535121871829
 51
13.54648781281688
  0
LINE
  5
8D0A
330
1F
100
AcDbEntity
  8
Ruettler
370
    30
100
AcDbLine
 10
4724.436482664619
 20
5207.822693516658
 30
0.0
 11
4772.760485036921
 21
5207.822693516658
 31
0.0
  0
LINE
  5
8D0B
330
1F
100
AcDbEntity
  8
Ruettler
370
    30
100
AcDbLine
 10
4724.436482664619
 20
5087.822693516659
 30
0.0
 11
4772.760485036921
 21
5087.822693516659
 31
0.0
  0
ARC
  5
8D0F
330
1F
100
AcDbEntity
  8
Ruettler
370
    30
100
AcDbCircle
 10
4772.760485036921
 20
5199.822693516658
 30
0.0
 40
8.0
100
AcDbArc
 50
13.54648781281688
 51
90.0
  0
ARC
  5
8D10
330
1F
100
AcDbEntity
  8
Ruettler
370
    30
100
AcDbCircle
 10
4772.760485036921
 20
5095.822693516659
 30
0.0
 40
8.0
100
AcDbArc
 50
270.0
 51
346.4535121871829
  0
LINE
  5
8D11
330
1F
100
AcDbEntity
  8
Ruettler
370
    30
100
AcDbLine
 10
4721.936482664619
 20
5211.322693516659
 30
0.0
 11
4723.436482664618
 21
5211.322693516659
 31
0.0
  0
LINE
  5
8D12
330
1F
100
AcDbEntity
  8
Ruettler
370
    30
100
AcDbLine
 10
4721.936482664619
 20
5084.322693516658
 30
0.0
 11
4723.436482664618
 21
5084.322693516658
 31
0.0
  0
ARC
  5
8D15
330
1F
100
AcDbEntity
  8
Ruettler
370
    30
100
AcDbCircle
 10
4724.436482664619
 20
5086.822693516658
 30
0.0
 40
1.0
100
AcDbArc
 50
90.0
 51
180.0
  0
ARC
  5
8D16
330
1F
100
AcDbEntity
  8
Ruettler
370
    30
100
AcDbCircle
 10
4724.436482664619
 20
5208.822693516658
 30
0.0
 40
1.0
100
AcDbArc
 50
180.0
 51
270.0
  0
LINE
  5
8D1E
330
1F
100
AcDbEntity
  8
Ruettler
370
    30
100
AcDbLine
 10
4569.912172806682
 20
5211.322693516658
 30
0.0
 11
4568.412172806682
 21
5211.322693516658
 31
0.0
  0
LINE
  5
8E4C
330
1F
100
AcDbEntity
  8
Ruettler
  6
STRICHPUNKTA
 62
     7
 48
5.0
370
    15
100
AcDbLine
 10
4645.936482664771
 20
5022.669467905266
 30
0.0
 11
4645.936482664771
 21
4860.447288321243
 31
0.0
  0
ARC
  5
8E4E
330
1F
100
AcDbEntity
  8
Ruettler
  6
STRICHPUNKTA
 62
     7
 48
5.0
370
    15
100
AcDbCircle
 10
4645.936482664771
 20
4940.766994985269
 30
0.0
 40
53.0
100
AcDbArc
 50
39.06054810320912
 51
50.93945189679103
  0
LINE
  5
8E4F
330
1F
100
AcDbEntity
  8
Ruettler
  6
STRICHPUNKTA
 62
     7
 48
5.0
370
    15
100
AcDbLine
 10
4679.52993869964
 20
4974.360451020136
 30
0.0
 11
4687.296345435678
 21
4982.126857756175
 31
0.0
  0
ARC
  5
8E50
330
1F
100
AcDbEntity
  8
Ruettler
370
    30
100
AcDbCircle
 10
4683.413142067658
 20
4978.243654388156
 30
0.0
 40
10.0
100
AcDbArc
 50
359.3895838618859
 51
90.61041613811425
  0
CIRCLE
  5
8E51
330
1F
100
AcDbEntity
  8
Ruettler
370
    30
100
AcDbCircle
 10
4683.413142067658
 20
4978.243654388156
 30
0.0
 40
3.0
  0
CIRCLE
  5
8E75
330
1F
100
AcDbEntity
  8
Ruettler
370
    30
100
AcDbCircle
 10
4608.459823261884
 20
4978.243654388156
 30
0.0
 40
3.0
  0
ARC
  5
8E77
330
1F
100
AcDbEntity
  8
Ruettler
370
    30
100
AcDbCircle
 10
4608.459823261884
 20
4978.243654388156
 30
0.0
 40
10.0
100
AcDbArc
 50
89.38958386188575
 51
180.6104161381142
  0
LINE
  5
8E79
330
1F
100
AcDbEntity
  8
Ruettler
370
    30
100
AcDbLine
 10
4645.936482664771
 20
4990.766994985269
 30
0.0
 11
4684.863263088709
 21
4988.137953202337
 31
0.0
  0
LINE
  5
8E7A
330
1F
100
AcDbEntity
  8
Ruettler
370
    30
100
AcDbLine
 10
4645.936482664771
 20
4990.766994985269
 30
0.0
 11
4607.009702240833
 21
4988.137953202337
 31
0.0
  0
LINE
  5
8E7B
330
1F
100
AcDbEntity
  8
Ruettler
370
    30
100
AcDbLine
 10
4595.936482664771
 20
4940.766994985268
 30
0.0
 11
4598.565524447702
 21
4901.840214561331
 31
0.0
  0
LINE
  5
8E7C
330
1F
100
AcDbEntity
  8
Ruettler
370
    30
100
AcDbLine
 10
4595.936482664773
 20
4940.766994985268
 30
0.0
 11
4598.565524447702
 21
4979.693775409207
 31
0.0
  0
LINE
  5
8E7D
330
1F
100
AcDbEntity
  8
Ruettler
370
    30
100
AcDbLine
 10
4645.936482664771
 20
4890.766994985269
 30
0.0
 11
4684.863263088709
 21
4893.396036768201
 31
0.0
  0
LINE
  5
8E7E
330
1F
100
AcDbEntity
  8
Ruettler
370
    30
100
AcDbLine
 10
4645.936482664771
 20
4890.766994985269
 30
0.0
 11
4607.009702240834
 21
4893.396036768201
 31
0.0
  0
LINE
  5
8E7F
330
1F
100
AcDbEntity
  8
Ruettler
370
    30
100
AcDbLine
 10
4695.936482664771
 20
4940.766994985269
 30
0.0
 11
4693.888704791009
 21
4971.087319358357
 31
0.0
  0
LINE
  5
8E80
330
1F
100
AcDbEntity
  8
Ruettler
370
    30
100
AcDbLine
 10
4695.936482664771
 20
4940.766994985269
 30
0.0
 11
4693.307440881839
 21
4901.840214561332
 31
0.0
  0
ARC
  5
8E81
330
1F
100
AcDbEntity
  8
Ruettler
370
    30
100
AcDbCircle
 10
4608.459823261884
 20
4903.290335582382
 30
0.0
 40
10.0
100
AcDbArc
 50
179.3895838618857
 51
270.6104161381142
  0
CIRCLE
  5
8E83
330
1F
100
AcDbEntity
  8
Ruettler
370
    30
100
AcDbCircle
 10
4608.459823261884
 20
4903.290335582382
 30
0.0
 40
3.0
  0
CIRCLE
  5
8E85
330
1F
100
AcDbEntity
  8
Ruettler
370
    30
100
AcDbCircle
 10
4683.413142067658
 20
4903.290335582382
 30
0.0
 40
3.0
  0
ARC
  5
8E87
330
1F
100
AcDbEntity
  8
Ruettler
370
    30
100
AcDbCircle
 10
4683.413142067658
 20
4903.290335582382
 30
0.0
 40
10.0
100
AcDbArc
 50
269.3895838618857
 51
0.6104161381142373
  0
LINE
  5
8E89
330
1F
100
AcDbEntity
  8
Ruettler
370
    30
100
AcDbLine
 10
4581.936482664771
 20
4957.766994985269
 30
0.0
 11
4593.345670883716
 21
4957.766994985269
 31
0.0
  0
LINE
  5
8E8A
330
1F
100
AcDbEntity
  8
Ruettler
370
    30
100
AcDbLine
 10
4581.936482664771
 20
4923.766994985268
 30
0.0
 11
4593.345670883716
 21
4923.766994985268
 31
0.0
  0
LINE
  5
8E8B
330
1F
100
AcDbEntity
  8
Ruettler
370
    30
100
AcDbLine
 10
4581.936482664771
 20
4957.766994985269
 30
0.0
 11
4581.936482664771
 21
4923.766994985268
 31
0.0
  0
ARC
  5
8E8C
330
1F
100
AcDbEntity
  8
Ruettler
370
    30
100
AcDbCircle
 10
4593.345670883716
 20
4919.766994985269
 30
0.0
 40
4.0
100
AcDbArc
 50
3.863781928655854
 51
90.0
  0
ARC
  5
8E8D
330
1F
100
AcDbEntity
  8
Ruettler
370
    30
100
AcDbCircle
 10
4593.345670883716
 20
4961.766994985269
 30
0.0
 40
4.0
100
AcDbArc
 50
270.0
 51
356.136218071344
  0
LINE
  5
8EBE
330
1F
100
AcDbEntity
  8
Ruettler
370
    30
100
AcDbLine
 10
4693.888704791009
 20
4971.087319358357
 30
0.0
 11
4693.307440881839
 21
4979.693775409207
 31
0.0
  0
LINE
  5
8EE6
330
1F
100
AcDbEntity
  8
Ruettler
370
    30
100
AcDbLine
 10
4614.025450014966
 20
4886.312983657093
 30
0.0
 11
4614.025450014966
 21
4871.775927843817
 31
0.0
  0
LINE
  5
8EEB
330
1F
100
AcDbEntity
  8
Ruettler
  6
STRICHPUNKTA
 62
     7
 48
5.0
370
    15
100
AcDbLine
 10
4690.936482664771
 20
5038.142860741556
 30
0.0
 11
4690.936482664771
 21
4997.391129228981
 31
0.0
  0
LINE
  5
8EED
330
1F
100
AcDbEntity
  8
Ruettler
  6
STRICHPUNKTA
 62
     7
 48
5.0
370
    15
100
AcDbLine
 10
4670.560616908484
 20
5017.766994985269
 30
0.0
 11
4711.312348421059
 21
5017.766994985269
 31
0.0
  0
ARC
  5
8EEF
330
1F
100
AcDbEntity
  8
Ruettler
370
    30
100
AcDbCircle
 10
4690.936482664771
 20
5017.766994985269
 30
0.0
 40
16.0
100
AcDbArc
 50
302.4617449672389
 51
0.0
  0
CIRCLE
  5
8EF1
330
1F
100
AcDbEntity
  8
Ruettler
370
    30
100
AcDbCircle
 10
4690.936482664771
 20
5017.766994985269
 30
0.0
 40
11.0
  0
LINE
  5
8EF2
330
1F
100
AcDbEntity
  8
Ruettler
370
    30
100
AcDbLine
 10
4674.936482664771
 20
5017.766994985269
 30
0.0
 11
4674.936482664771
 21
5002.766994985268
 31
0.0
  0
LINE
  5
8EF3
330
1F
100
AcDbEntity
  8
Ruettler
370
    30
100
AcDbLine
 10
4706.936482664771
 20
5017.766994985269
 30
0.0
 11
4706.936482664771
 21
5006.266994985269
 31
0.0
  0
LINE
  5
8EF4
330
1F
100
AcDbEntity
  8
Ruettler
370
    30
100
AcDbLine
 10
4681.936482664771
 20
5004.266994985268
 30
0.0
 11
4682.348700646112
 21
5004.266994985268
 31
0.0
  0
LINE
  5
8EF5
330
1F
100
AcDbEntity
  8
Ruettler
370
    30
100
AcDbLine
 10
4711.936482664771
 20
5004.266994985268
 30
0.0
 11
4711.936482664771
 21
4877.266994985269
 31
0.0
  0
LINE
  5
8EF6
330
1F
100
AcDbEntity
  8
Ruettler
370
    30
100
AcDbLine
 10
4645.936482664771
 20
5000.766994985269
 30
0.0
 11
4677.608055540025
 21
5000.766994985269
 31
0.0
  0
LINE
  5
8EF7
330
1F
100
AcDbEntity
  8
Ruettler
370
    30
100
AcDbLine
 10
4678.436482664771
 20
5000.766994985269
 30
0.0
 11
4678.436482664771
 21
4988.572005905393
 31
0.0
  0
LINE
  5
8EF8
330
1F
100
AcDbEntity
  8
Ruettler
370
    30
100
AcDbLine
 10
4679.022269102398
 20
5001.352781422895
 30
0.0
 11
4680.997408090821
 21
5003.327920411319
 31
0.0
  0
ARC
  5
8EF9
330
1F
100
AcDbEntity
  8
Ruettler
370
    30
100
AcDbCircle
 10
4690.936482664771
 20
5017.766994985269
 30
0.0
 40
16.0
100
AcDbArc
 50
208.5686550730744
 51
237.538255032761
  0
ARC
  5
8EFA
330
1F
100
AcDbEntity
  8
Ruettler
370
    30
100
AcDbCircle
 10
4690.936482664771
 20
5017.766994985269
 30
0.0
 40
16.0
100
AcDbArc
 50
0.0
 51
180.0
  0
ARC
  5
8EFB
330
1F
100
AcDbEntity
  8
Ruettler
370
    30
100
AcDbCircle
 10
4690.936482664771
 20
5017.766994985269
 30
0.0
 40
16.0
100
AcDbArc
 50
241.7315442488472
 51
300.5584317859411
  0
LINE
  5
8EFC
330
1F
100
AcDbEntity
  8
Ruettler
370
    30
100
AcDbLine
 10
4700.087985273632
 20
5004.266994985268
 30
0.0
 11
4711.936482664771
 21
5004.266994985268
 31
0.0
  0
ARC
  5
8EFD
330
1F
100
AcDbEntity
  8
Ruettler
370
    30
100
AcDbCircle
 10
4708.936482664771
 20
5006.266994985269
 30
0.0
 40
2.0
100
AcDbArc
 50
180.0
 51
270.0
  0
ARC
  5
8EFE
330
1F
100
AcDbEntity
  8
Ruettler
370
    30
100
AcDbCircle
 10
4672.936482664772
 20
5002.766994985268
 30
0.0
 40
2.0
100
AcDbArc
 50
270.0
 51
0.0
  0
ARC
  5
8EFF
330
1F
100
AcDbEntity
  8
Ruettler
370
    30
100
AcDbCircle
 10
4677.608055540025
 20
5002.766994985268
 30
0.0
 40
2.0
100
AcDbArc
 50
270.0
 51
314.9999999999998
  0
ARC
  5
8F00
330
1F
100
AcDbEntity
  8
Ruettler
370
    30
100
AcDbCircle
 10
4682.411621653194
 20
5001.913706848945
 30
0.0
 40
2.0
100
AcDbArc
 50
61.73154424884724
 51
134.9999999999998
  0
ARC
  5
8F01
330
1F
100
AcDbEntity
  8
Ruettler
370
    30
100
AcDbCircle
 10
4700.087985273632
 20
5002.266994985269
 30
0.0
 40
2.0
100
AcDbArc
 50
90.0
 51
120.5584317859411
  0
LINE
  5
8F02
330
1F
100
AcDbEntity
  8
Ruettler
370
    30
100
AcDbLine
 10
4681.436482664771
 20
5000.766994985269
 30
0.0
 11
4681.436482664771
 21
4988.572005905393
 31
0.0
  0
ARC
  5
8F04
330
1F
100
AcDbEntity
  8
Ruettler
370
    30
100
AcDbCircle
 10
4698.431113886905
 20
5000.195064928661
 30
0.0
 40
1.514853578687506
100
AcDbArc
 50
155.4843188743294
 51
289.4879737487727
  0
ARC
  5
8F05
330
1F
100
AcDbEntity
  8
Ruettler
370
    30
100
AcDbCircle
 10
4698.858373573889
 20
4964.59069086653
 30
0.0
 40
1.678122918197431
100
AcDbArc
 50
87.33217469916042
 51
182.6914765277683
  0
LINE
  5
8F06
330
1F
100
AcDbEntity
  8
Ruettler
370
    30
100
AcDbLine
 10
4698.936482664771
 20
4998.766994985269
 30
0.0
 11
4711.936482664771
 21
4998.766994985269
 31
0.0
  0
LINE
  5
8F07
330
1F
100
AcDbEntity
  8
Ruettler
370
    30
100
AcDbLine
 10
4698.936482664771
 20
4966.266994985269
 30
0.0
 11
4711.936482664771
 21
4966.266994985269
 31
0.0
  0
LINE
  5
8F08
330
1F
100
AcDbEntity
  8
Ruettler
370
    30
100
AcDbLine
 10
4698.936482664771
 20
4998.766994985269
 30
0.0
 11
4698.936482664771
 21
4966.266994985269
 31
0.0
  0
ARC
  5
8F0A
330
1F
100
AcDbEntity
  8
Ruettler
370
    30
100
AcDbCircle
 10
4600.936482664772
 20
5017.766994985268
 30
0.0
 40
16.0
100
AcDbArc
 50
0.0
 51
180.0
  0
ARC
  5
8F0B
330
1F
100
AcDbEntity
  8
Ruettler
370
    30
100
AcDbCircle
 10
4600.936482664772
 20
5017.766994985268
 30
0.0
 40
16.0
100
AcDbArc
 50
302.4617449672389
 51
331.4313449269255
  0
LINE
  5
8F0C
330
1F
100
AcDbEntity
  8
Ruettler
370
    30
100
AcDbLine
 10
4612.850696227145
 20
5001.352781422895
 30
0.0
 11
4610.875557238721
 21
5003.327920411318
 31
0.0
  0
CIRCLE
  5
8F0D
330
1F
100
AcDbEntity
  8
Ruettler
370
    30
100
AcDbCircle
 10
4600.936482664772
 20
5017.766994985268
 30
0.0
 40
11.0
  0
LINE
  5
8F0E
330
1F
100
AcDbEntity
  8
Ruettler
370
    30
100
AcDbLine
 10
4616.936482664772
 20
5017.766994985268
 30
0.0
 11
4616.936482664772
 21
5002.766994985268
 31
0.0
  0
LINE
  5
8F0F
330
1F
100
AcDbEntity
  8
Ruettler
370
    30
100
AcDbLine
 10
4613.436482664772
 20
5000.766994985268
 30
0.0
 11
4613.436482664773
 21
4988.572005905393
 31
0.0
  0
ARC
  5
8F10
330
1F
100
AcDbEntity
  8
Ruettler
370
    30
100
AcDbCircle
 10
4614.264909789517
 20
5002.766994985268
 30
0.0
 40
2.0
100
AcDbArc
 50
225.0000000000001
 51
270.0
  0
ARC
  5
8F11
330
1F
100
AcDbEntity
  8
Ruettler
370
    30
100
AcDbCircle
 10
4618.936482664771
 20
5002.766994985268
 30
0.0
 40
2.0
100
AcDbArc
 50
180.0
 51
270.0
  0
ARC
  5
8F12
330
1F
100
AcDbEntity
  8
Ruettler
370
    30
100
AcDbCircle
 10
4600.936482664772
 20
5017.766994985268
 30
0.0
 40
16.0
100
AcDbArc
 50
180.0
 51
237.538255032761
  0
LINE
  5
8F13
330
1F
100
AcDbEntity
  8
Ruettler
370
    30
100
AcDbLine
 10
4584.936482664772
 20
5017.766994985267
 30
0.0
 11
4584.936482664772
 21
5006.266994985267
 31
0.0
  0
ARC
  5
8F14
330
1F
100
AcDbEntity
  8
Ruettler
370
    30
100
AcDbCircle
 10
4593.441851442638
 20
5000.19506492866
 30
0.0
 40
1.514853578687506
100
AcDbArc
 50
250.5120262512273
 51
24.51568112567053
  0
ARC
  5
8F15
330
1F
100
AcDbEntity
  8
Ruettler
370
    30
100
AcDbCircle
 10
4600.936482664772
 20
5017.766994985268
 30
0.0
 40
16.0
100
AcDbArc
 50
239.4415682140588
 51
298.2684557511527
  0
LINE
  5
8F16
330
1F
100
AcDbEntity
  8
Ruettler
370
    30
100
AcDbLine
 10
4610.436482664772
 20
5000.766994985268
 30
0.0
 11
4610.436482664773
 21
4988.572005905393
 31
0.0
  0
ARC
  5
8F17
330
1F
100
AcDbEntity
  8
Ruettler
370
    30
100
AcDbCircle
 10
4609.46134367635
 20
5001.913706848944
 30
0.0
 40
2.0
100
AcDbArc
 50
45.00000000000013
 51
118.2684557511527
  0
LINE
  5
8F18
330
1F
100
AcDbEntity
  8
Ruettler
370
    30
100
AcDbLine
 10
4609.936482664771
 20
5004.266994985268
 30
0.0
 11
4609.524264683431
 21
5004.266994985268
 31
0.0
  0
LINE
  5
8F19
330
1F
100
AcDbEntity
  8
Ruettler
370
    30
100
AcDbLine
 10
4592.936482664771
 20
4998.766994985267
 30
0.0
 11
4579.936482664772
 21
4998.766994985267
 31
0.0
  0
LINE
  5
8F1A
330
1F
100
AcDbEntity
  8
Ruettler
370
    30
100
AcDbLine
 10
4591.78498005591
 20
5004.266994985267
 30
0.0
 11
4579.936482664772
 21
5004.266994985267
 31
0.0
  0
ARC
  5
8F1B
330
1F
100
AcDbEntity
  8
Ruettler
370
    30
100
AcDbCircle
 10
4591.78498005591
 20
5002.266994985267
 30
0.0
 40
2.0
100
AcDbArc
 50
59.44156821405883
 51
90.0
  0
ARC
  5
8F1C
330
1F
100
AcDbEntity
  8
Ruettler
370
    30
100
AcDbCircle
 10
4582.936482664772
 20
5006.266994985267
 30
0.0
 40
2.0
100
AcDbArc
 50
270.0
 51
0.0
  0
LINE
  5
8F1E
330
1F
100
AcDbEntity
  8
Ruettler
370
    30
100
AcDbLine
 10
4592.936482664771
 20
4998.766994985267
 30
0.0
 11
4592.936482664772
 21
4966.266994985268
 31
0.0
  0
LINE
  5
8F1F
330
1F
100
AcDbEntity
  8
Ruettler
370
    30
100
AcDbLine
 10
4592.936482664772
 20
4966.266994985268
 30
0.0
 11
4579.936482664773
 21
4966.266994985267
 31
0.0
  0
ARC
  5
8F20
330
1F
100
AcDbEntity
  8
Ruettler
370
    30
100
AcDbCircle
 10
4593.014591755655
 20
4964.590690866528
 30
0.0
 40
1.678122918197431
100
AcDbArc
 50
357.3085234722317
 51
92.66782530083961
  0
LINE
  5
8F21
330
1F
100
AcDbEntity
  8
Ruettler
370
    30
100
AcDbLine
 10
4645.936482664771
 20
5000.766994985269
 30
0.0
 11
4614.264909789517
 21
5000.766994985268
 31
0.0
  0
ARC
  5
8F23
330
1F
100
AcDbEntity
  8
Ruettler
370
    30
100
AcDbCircle
 10
4690.936482664769
 20
4863.76699498527
 30
0.0
 40
16.0
100
AcDbArc
 50
180.0
 51
0.0
  0
ARC
  5
8F24
330
1F
100
AcDbEntity
  8
Ruettler
370
    30
100
AcDbCircle
 10
4690.936482664769
 20
4863.76699498527
 30
0.0
 40
16.0
100
AcDbArc
 50
122.4617449672388
 51
151.4313449269256
  0
LINE
  5
8F25
330
1F
100
AcDbEntity
  8
Ruettler
370
    30
100
AcDbLine
 10
4679.022269102396
 20
4880.181208547643
 30
0.0
 11
4680.99740809082
 21
4878.20606955922
 31
0.0
  0
CIRCLE
  5
8F26
330
1F
100
AcDbEntity
  8
Ruettler
370
    30
100
AcDbCircle
 10
4690.936482664769
 20
4863.76699498527
 30
0.0
 40
11.0
  0
LINE
  5
8F27
330
1F
100
AcDbEntity
  8
Ruettler
370
    30
100
AcDbLine
 10
4674.936482664769
 20
4863.76699498527
 30
0.0
 11
4674.93648266477
 21
4878.766994985269
 31
0.0
  0
LINE
  5
8F28
330
1F
100
AcDbEntity
  8
Ruettler
370
    30
100
AcDbLine
 10
4678.436482664769
 20
4880.76699498527
 30
0.0
 11
4678.436482664769
 21
4892.961984065147
 31
0.0
  0
ARC
  5
8F29
330
1F
100
AcDbEntity
  8
Ruettler
370
    30
100
AcDbCircle
 10
4677.608055540023
 20
4878.766994985269
 30
0.0
 40
2.0
100
AcDbArc
 50
45.00000000000013
 51
90.0
  0
ARC
  5
8F2A
330
1F
100
AcDbEntity
  8
Ruettler
370
    30
100
AcDbCircle
 10
4672.936482664769
 20
4878.76699498527
 30
0.0
 40
2.0
100
AcDbArc
 50
0.0
 51
90.0
  0
ARC
  5
8F2B
330
1F
100
AcDbEntity
  8
Ruettler
370
    30
100
AcDbCircle
 10
4690.936482664769
 20
4863.76699498527
 30
0.0
 40
16.0
100
AcDbArc
 50
0.0
 51
57.53825503276111
  0
LINE
  5
8F2C
330
1F
100
AcDbEntity
  8
Ruettler
370
    30
100
AcDbLine
 10
4706.936482664769
 20
4863.766994985269
 30
0.0
 11
4706.93648266477
 21
4875.266994985269
 31
0.0
  0
ARC
  5
8F2D
330
1F
100
AcDbEntity
  8
Ruettler
370
    30
100
AcDbCircle
 10
4698.431113886903
 20
4881.338925041877
 30
0.0
 40
1.514853578687506
100
AcDbArc
 50
70.51202625122723
 51
204.5156811256705
  0
ARC
  5
8F2E
330
1F
100
AcDbEntity
  8
Ruettler
370
    30
100
AcDbCircle
 10
4690.936482664769
 20
4863.76699498527
 30
0.0
 40
16.0
100
AcDbArc
 50
59.44156821405883
 51
118.2684557511527
  0
LINE
  5
8F2F
330
1F
100
AcDbEntity
  8
Ruettler
370
    30
100
AcDbLine
 10
4681.43648266477
 20
4880.76699498527
 30
0.0
 11
4681.43648266477
 21
4892.961984065146
 31
0.0
  0
ARC
  5
8F30
330
1F
100
AcDbEntity
  8
Ruettler
370
    30
100
AcDbCircle
 10
4682.411621653192
 20
4879.620283121593
 30
0.0
 40
2.0
100
AcDbArc
 50
225.0000000000001
 51
298.2684557511527
  0
LINE
  5
8F31
330
1F
100
AcDbEntity
  8
Ruettler
370
    30
100
AcDbLine
 10
4681.936482664769
 20
4877.266994985269
 30
0.0
 11
4682.34870064611
 21
4877.266994985269
 31
0.0
  0
LINE
  5
8F32
330
1F
100
AcDbEntity
  8
Ruettler
370
    30
100
AcDbLine
 10
4698.93648266477
 20
4882.76699498527
 30
0.0
 11
4711.93648266477
 21
4882.766994985269
 31
0.0
  0
LINE
  5
8F33
330
1F
100
AcDbEntity
  8
Ruettler
370
    30
100
AcDbLine
 10
4700.087985273631
 20
4877.266994985269
 30
0.0
 11
4711.93648266477
 21
4877.266994985269
 31
0.0
  0
ARC
  5
8F34
330
1F
100
AcDbEntity
  8
Ruettler
370
    30
100
AcDbCircle
 10
4700.087985273631
 20
4879.26699498527
 30
0.0
 40
2.0
100
AcDbArc
 50
239.4415682140588
 51
270.0
  0
ARC
  5
8F35
330
1F
100
AcDbEntity
  8
Ruettler
370
    30
100
AcDbCircle
 10
4708.936482664769
 20
4875.266994985269
 30
0.0
 40
2.0
100
AcDbArc
 50
90.0
 51
180.0
  0
LINE
  5
8F37
330
1F
100
AcDbEntity
  8
Ruettler
370
    30
100
AcDbLine
 10
4698.93648266477
 20
4882.76699498527
 30
0.0
 11
4698.936482664771
 21
4915.26699498527
 31
0.0
  0
LINE
  5
8F38
330
1F
100
AcDbEntity
  8
Ruettler
370
    30
100
AcDbLine
 10
4698.936482664771
 20
4915.26699498527
 30
0.0
 11
4711.93648266477
 21
4915.266994985269
 31
0.0
  0
ARC
  5
8F39
330
1F
100
AcDbEntity
  8
Ruettler
370
    30
100
AcDbCircle
 10
4698.858373573889
 20
4916.943299104008
 30
0.0
 40
1.678122918197431
100
AcDbArc
 50
177.3085234722316
 51
272.6678253008395
  0
LINE
  5
8F3A
330
1F
100
AcDbEntity
  8
Ruettler
370
    30
100
AcDbLine
 10
4645.93648266477
 20
4880.766994985271
 30
0.0
 11
4677.608055540023
 21
4880.76699498527
 31
0.0
  0
LINE
  5
8F3B
330
1F
100
AcDbEntity
  8
Ruettler
370
    30
100
AcDbLine
 10
4645.93648266477
 20
4880.766994985271
 30
0.0
 11
4614.264909789516
 21
4880.766994985272
 31
0.0
  0
LINE
  5
8F3C
330
1F
100
AcDbEntity
  8
Ruettler
370
    30
100
AcDbLine
 10
4579.936482664773
 20
5004.266994985268
 30
0.0
 11
4579.936482664773
 21
4955.766994985268
 31
0.0
  0
LINE
  5
8F3D
330
1F
100
AcDbEntity
  8
Ruettler
370
    30
100
AcDbLine
 10
4592.936482664775
 20
4882.76699498527
 30
0.0
 11
4579.936482664775
 21
4882.766994985269
 31
0.0
  0
ARC
  5
8F3E
330
1F
100
AcDbEntity
  8
Ruettler
370
    30
100
AcDbCircle
 10
4593.441851442642
 20
4881.338925041877
 30
0.0
 40
1.514853578687506
100
AcDbArc
 50
335.4843188743294
 51
109.4879737487727
  0
LINE
  5
8F3F
330
1F
100
AcDbEntity
  8
Ruettler
370
    30
100
AcDbLine
 10
4592.936482664775
 20
4882.76699498527
 30
0.0
 11
4592.936482664774
 21
4915.26699498527
 31
0.0
  0
ARC
  5
8F40
330
1F
100
AcDbEntity
  8
Ruettler
370
    30
100
AcDbCircle
 10
4593.014591755656
 20
4916.943299104008
 30
0.0
 40
1.678122918197431
100
AcDbArc
 50
267.3321746991603
 51
2.691476527768331
  0
LINE
  5
8F41
330
1F
100
AcDbEntity
  8
Ruettler
370
    30
100
AcDbLine
 10
4592.936482664774
 20
4915.26699498527
 30
0.0
 11
4579.936482664774
 21
4915.266994985269
 31
0.0
  0
LINE
  5
8F42
330
1F
100
AcDbEntity
  8
Ruettler
370
    30
100
AcDbLine
 10
4584.936482664776
 20
4863.766994985269
 30
0.0
 11
4584.936482664775
 21
4875.266994985269
 31
0.0
  0
LINE
  5
8F43
330
1F
100
AcDbEntity
  8
Ruettler
370
    30
100
AcDbLine
 10
4591.784980055915
 20
4877.266994985269
 30
0.0
 11
4579.936482664775
 21
4877.266994985269
 31
0.0
  0
ARC
  5
8F44
330
1F
100
AcDbEntity
  8
Ruettler
370
    30
100
AcDbCircle
 10
4600.936482664776
 20
4863.76699498527
 30
0.0
 40
16.0
100
AcDbArc
 50
122.4617449672388
 51
180.0
  0
ARC
  5
8F45
330
1F
100
AcDbEntity
  8
Ruettler
370
    30
100
AcDbCircle
 10
4600.936482664776
 20
4863.76699498527
 30
0.0
 40
16.0
100
AcDbArc
 50
61.73154424884724
 51
120.5584317859411
  0
ARC
  5
8F46
330
1F
100
AcDbEntity
  8
Ruettler
370
    30
100
AcDbCircle
 10
4600.936482664776
 20
4863.76699498527
 30
0.0
 40
16.0
100
AcDbArc
 50
28.56865507307441
 51
57.53825503276111
  0
LINE
  5
8F47
330
1F
100
AcDbEntity
  8
Ruettler
370
    30
100
AcDbLine
 10
4612.850696227148
 20
4880.181208547643
 30
0.0
 11
4610.875557238725
 21
4878.20606955922
 31
0.0
  0
LINE
  5
8F48
330
1F
100
AcDbEntity
  8
Ruettler
370
    30
100
AcDbLine
 10
4613.436482664775
 20
4880.76699498527
 30
0.0
 11
4613.436482664775
 21
4892.961984065147
 31
0.0
  0
LINE
  5
8F49
330
1F
100
AcDbEntity
  8
Ruettler
370
    30
100
AcDbLine
 10
4610.436482664775
 20
4880.76699498527
 30
0.0
 11
4610.436482664775
 21
4892.961984065146
 31
0.0
  0
LINE
  5
8F4A
330
1F
100
AcDbEntity
  8
Ruettler
370
    30
100
AcDbLine
 10
4616.936482664776
 20
4863.76699498527
 30
0.0
 11
4616.936482664775
 21
4878.766994985269
 31
0.0
  0
ARC
  5
8F4B
330
1F
100
AcDbEntity
  8
Ruettler
370
    30
100
AcDbCircle
 10
4600.936482664776
 20
4863.76699498527
 30
0.0
 40
16.0
100
AcDbArc
 50
180.0
 51
0.0
  0
CIRCLE
  5
8F4C
330
1F
100
AcDbEntity
  8
Ruettler
370
    30
100
AcDbCircle
 10
4600.936482664776
 20
4863.76699498527
 30
0.0
 40
11.0
  0
ARC
  5
8F4E
330
1F
100
AcDbEntity
  8
Ruettler
370
    30
100
AcDbCircle
 10
4614.264909789522
 20
4878.766994985269
 30
0.0
 40
2.0
100
AcDbArc
 50
90.0
 51
134.9999999999998
  0
ARC
  5
8F4F
330
1F
100
AcDbEntity
  8
Ruettler
370
    30
100
AcDbCircle
 10
4582.936482664775
 20
4875.266994985269
 30
0.0
 40
2.0
100
AcDbArc
 50
0.0
 51
90.0
  0
LINE
  5
8F50
330
1F
100
AcDbEntity
  8
Ruettler
370
    30
100
AcDbLine
 10
4609.936482664775
 20
4877.266994985269
 30
0.0
 11
4609.524264683435
 21
4877.266994985269
 31
0.0
  0
ARC
  5
8F51
330
1F
100
AcDbEntity
  8
Ruettler
370
    30
100
AcDbCircle
 10
4609.461343676353
 20
4879.620283121593
 30
0.0
 40
2.0
100
AcDbArc
 50
241.7315442488472
 51
314.9999999999998
  0
ARC
  5
8F52
330
1F
100
AcDbEntity
  8
Ruettler
370
    30
100
AcDbCircle
 10
4591.784980055915
 20
4879.26699498527
 30
0.0
 40
2.0
100
AcDbArc
 50
270.0
 51
300.5584317859411
  0
ARC
  5
8F53
330
1F
100
AcDbEntity
  8
Ruettler
370
    30
100
AcDbCircle
 10
4618.936482664775
 20
4878.76699498527
 30
0.0
 40
2.0
100
AcDbArc
 50
90.0
 51
180.0
  0
ARC
  5
913A
330
1F
100
AcDbEntity
  8
Ruettler
  6
STRICHPUNKTA
 62
     7
 48
5.0
370
    15
100
AcDbCircle
 10
4923.888229229065
 20
5147.822693782251
 30
0.0
 40
69.0
100
AcDbArc
 50
34.79464334491134
 51
55.19618945937507
  0
LINE
  5
913B
330
1F
100
AcDbEntity
  8
Ruettler
  6
STRICHPUNKTA
 62
     7
 48
5.0
370
    15
100
AcDbLine
 10
4964.006779595202
 20
5187.934825784109
 30
0.0
 11
4981.358220703422
 21
5205.283490922887
 31
0.0
  0
ARC
  5
913C
330
1F
100
AcDbEntity
  8
Ruettler
  6
STRICHPUNKTA
 62
     7
 48
5.0
370
    15
100
AcDbCircle
 10
4923.894869135605
 20
5147.822693516658
 30
0.0
 40
69.0
100
AcDbArc
 50
214.7992269427303
 51
235.2007730572356
  0
LINE
  5
913D
330
1F
100
AcDbEntity
  8
Ruettler
  6
STRICHPUNKTA
 62
     7
 48
5.0
370
    15
100
AcDbLine
 10
4883.779527823242
 20
5107.707352204296
 30
0.0
 11
4866.429474644224
 21
5090.357299025278
 31
0.0
  0
ARC
  5
913E
330
1F
100
AcDbEntity
  8
Ruettler
  6
STRICHPUNKTA
 62
     7
 48
5.0
370
    15
100
AcDbCircle
 10
4923.888229229065
 20
5147.822693251066
 30
0.0
 40
69.0
100
AcDbArc
 50
304.8038105406239
 51
325.2053566550771
  0
LINE
  5
913F
330
1F
100
AcDbEntity
  8
Ruettler
  6
STRICHPUNKTA
 62
     7
 48
5.0
370
    15
100
AcDbLine
 10
4964.006779595202
 20
5107.710561249207
 30
0.0
 11
4981.358220703422
 21
5090.361896110429
 31
0.0
  0
LINE
  5
9152
330
1F
100
AcDbEntity
  8
Ruettler
370
    30
100
AcDbLine
 10
4723.436482664618
 20
5084.322693516658
 30
0.0
 11
4723.436482664618
 21
5211.322693516659
 31
0.0
  0
LINE
  5
9155
330
1F
100
AcDbEntity
  8
Ruettler
370
    30
100
AcDbLine
 10
4674.936482664771
 20
5125.322693516658
 30
0.0
 11
4674.936482664771
 21
5081.822693516659
 31
0.0
  0
LINE
  5
9156
330
1F
100
AcDbEntity
  8
Ruettler
370
    30
100
AcDbLine
 10
4679.936482664771
 20
5131.822693516658
 30
0.0
 11
4701.936482664772
 21
5131.822693516658
 31
0.0
  0
LINE
  5
9157
330
1F
100
AcDbEntity
  8
Ruettler
370
    30
100
AcDbLine
 10
4678.936482664772
 20
5129.322693516659
 30
0.0
 11
4679.936482664771
 21
5129.322693516659
 31
0.0
  0
LINE
  5
9158
330
1F
100
AcDbEntity
  8
Ruettler
370
    30
100
AcDbLine
 10
4679.936482664771
 20
5131.822693516658
 30
0.0
 11
4679.936482664771
 21
5131.647248836994
 31
0.0
  0
ARC
  5
9159
330
1F
100
AcDbEntity
  8
Ruettler
370
    30
100
AcDbCircle
 10
4678.936482664772
 20
5125.322693516658
 30
0.0
 40
4.0
100
AcDbArc
 50
103.342363797098
 51
180.0
  0
LINE
  5
915A
330
1F
100
AcDbEntity
  8
Ruettler
370
    30
100
AcDbLine
 10
4678.356505796374
 20
5129.322693516659
 30
0.0
 11
4702.936482664771
 21
5129.322693516659
 31
0.0
  0
ARC
  5
915B
330
1F
100
AcDbEntity
  8
Ruettler
370
    30
100
AcDbCircle
 10
4678.936482664772
 20
5126.822693516658
 30
0.0
 40
2.5
100
AcDbArc
 50
90.0
 51
90.0
  0
ARC
  5
915C
330
1F
100
AcDbEntity
  8
Ruettler
370
    30
100
AcDbCircle
 10
4677.436482664772
 20
5131.647248836994
 30
0.0
 40
2.5
100
AcDbArc
 50
283.342363797098
 51
0.0
  0
LINE
  5
915D
330
1F
100
AcDbEntity
  8
Ruettler
  6
STRICHPUNKTA
 62
     7
 48
5.0
370
    15
100
AcDbLine
 10
4690.936482664771
 20
5139.549468378037
 30
0.0
 11
4690.936482664771
 21
5073.298006255729
 31
0.0
  0
LINE
  5
915F
330
1F
100
AcDbEntity
  8
Ruettler
370
    30
100
AcDbLine
 10
4706.936482664771
 20
5125.322693516658
 30
0.0
 11
4706.936482664771
 21
5081.822693516659
 31
0.0
  0
LINE
  5
9160
330
1F
100
AcDbEntity
  8
Ruettler
370
    30
100
AcDbLine
 10
4702.93648266477
 20
5129.322693516659
 30
0.0
 11
4701.936482664771
 21
5129.322693516659
 31
0.0
  0
LINE
  5
9161
330
1F
100
AcDbEntity
  8
Ruettler
370
    30
100
AcDbLine
 10
4701.936482664771
 20
5131.822693516658
 30
0.0
 11
4701.936482664771
 21
5131.647248836994
 31
0.0
  0
ARC
  5
9162
330
1F
100
AcDbEntity
  8
Ruettler
370
    30
100
AcDbCircle
 10
4702.93648266477
 20
5125.322693516658
 30
0.0
 40
3.999999999999999
100
AcDbArc
 50
0.000000000000007
 51
76.65763620289565
  0
ARC
  5
9163
330
1F
100
AcDbEntity
  8
Ruettler
370
    30
100
AcDbCircle
 10
4702.93648266477
 20
5126.822693516658
 30
0.0
 40
2.499999999999999
100
AcDbArc
 50
90.0
 51
90.0
  0
ARC
  5
9164
330
1F
100
AcDbEntity
  8
Ruettler
370
    30
100
AcDbCircle
 10
4704.43648266477
 20
5131.647248836994
 30
0.0
 40
2.499999999999999
100
AcDbArc
 50
180.0
 51
256.6576362028956
  0
LINE
  5
9175
330
1F
100
AcDbEntity
  8
Ruettler
370
    30
100
AcDbLine
 10
4590.148848262598
 20
5211.822693516658
 30
0.0
 11
4579.936482664617
 21
5211.822693516658
 31
0.0
  0
LINE
  5
9176
330
1F
100
AcDbEntity
  8
Ruettler
370
    30
100
AcDbLine
 10
4579.936482664617
 20
5211.822693516658
 30
0.0
 11
4579.936482664617
 21
5206.322693516659
 31
0.0
  0
LINE
  5
9177
330
1F
100
AcDbEntity
  8
Ruettler
370
    30
100
AcDbLine
 10
4645.936482664619
 20
5087.822693516659
 30
0.0
 11
4618.436482664619
 21
5087.822693516659
 31
0.0
  0
LINE
  5
9178
330
1F
100
AcDbEntity
  8
Ruettler
370
    30
100
AcDbLine
 10
4616.936482664619
 20
5086.322693516659
 30
0.0
 11
4616.936482664619
 21
5085.822693516658
 31
0.0
  0
LINE
  5
9179
330
1F
100
AcDbEntity
  8
Ruettler
370
    30
100
AcDbLine
 10
4584.936482664619
 20
5084.322693516658
 30
0.0
 11
4584.936482664619
 21
5081.822693516659
 31
0.0
  0
LINE
  5
917A
330
1F
100
AcDbEntity
  8
Ruettler
370
    30
100
AcDbLine
 10
4616.936482664619
 20
5081.822693516659
 30
0.0
 11
4584.936482664619
 21
5081.822693516659
 31
0.0
  0
LINE
  5
917B
330
1F
100
AcDbEntity
  8
Ruettler
370
    30
100
AcDbLine
 10
4615.436482664619
 20
5084.322693516658
 30
0.0
 11
4579.936482664619
 21
5084.322693516658
 31
0.0
  0
ARC
  5
917C
330
1F
100
AcDbEntity
  8
Ruettler
370
    30
100
AcDbCircle
 10
4590.148848262598
 20
5217.822693516659
 30
0.0
 40
5.999999999999998
100
AcDbArc
 50
270.0
 51
358.5000000000101
  0
LINE
  5
917D
330
1F
100
AcDbEntity
  8
Ruettler
370
    30
100
AcDbLine
 10
4590.936482664619
 20
5084.322693516658
 30
0.0
 11
4590.936482664619
 21
5081.822693516659
 31
0.0
  0
LINE
  5
917E
330
1F
100
AcDbEntity
  8
Ruettler
370
    30
100
AcDbLine
 10
4610.936482664619
 20
5084.322693516658
 30
0.0
 11
4610.936482664619
 21
5081.822693516659
 31
0.0
  0
ARC
  5
917F
330
1F
100
AcDbEntity
  8
Ruettler
370
    30
100
AcDbCircle
 10
4590.148848262598
 20
5217.822693516658
 30
0.0
 40
5.999999999999998
100
AcDbArc
 50
270.0
 51
358.5000000000101
  0
LINE
  5
9180
330
1F
100
AcDbEntity
  8
Ruettler
370
    30
100
AcDbLine
 10
4579.936482664619
 20
5089.322693516659
 30
0.0
 11
4579.93648266462
 21
5084.322693516658
 31
0.0
  0
LINE
  5
9181
330
1F
100
AcDbEntity
  8
Ruettler
370
    30
100
AcDbLine
 10
4616.936482664619
 20
5085.822693516658
 30
0.0
 11
4616.936482664619
 21
5081.822693516659
 31
0.0
  0
ARC
  5
9182
330
1F
100
AcDbEntity
  8
Ruettler
370
    30
100
AcDbCircle
 10
4615.436482664619
 20
5085.822693516658
 30
0.0
 40
1.499999999999999
100
AcDbArc
 50
270.0
 51
0.000000000000007
  0
ARC
  5
9183
330
1F
100
AcDbEntity
  8
Ruettler
370
    30
100
AcDbCircle
 10
4618.436482664619
 20
5086.322693516659
 30
0.0
 40
1.499999999999999
100
AcDbArc
 50
90.0
 51
180.0
  0
LINE
  5
9184
330
1F
100
AcDbEntity
  8
Ruettler
370
    30
100
AcDbLine
 10
4569.936482664618
 20
5209.622693516657
 30
0.0
 11
4569.936482664618
 21
5211.322693516659
 31
0.0
  0
LINE
  5
9185
330
1F
100
AcDbEntity
  8
Ruettler
370
    30
100
AcDbLine
 10
4569.936482664618
 20
5187.822693516658
 30
0.0
 11
4569.936482664618
 21
5193.322693516659
 31
0.0
  0
LINE
  5
9186
330
1F
100
AcDbEntity
  8
Ruettler
370
    30
100
AcDbLine
 10
4569.936482664618
 20
5102.322693516658
 30
0.0
 11
4569.936482664618
 21
5107.822693516658
 31
0.0
  0
LINE
  5
9187
330
1F
100
AcDbEntity
  8
Ruettler
370
    30
100
AcDbLine
 10
4569.936482664618
 20
5086.022693516659
 30
0.0
 11
4569.936482664618
 21
5209.622693516657
 31
0.0
  0
LINE
  5
9188
330
1F
100
AcDbEntity
  8
Ruettler
370
    30
100
AcDbLine
 10
4569.936482664618
 20
5084.322693516658
 30
0.0
 11
4569.936482664618
 21
5086.022693516659
 31
0.0
  0
LINE
  5
9189
330
1F
100
AcDbEntity
  8
Ruettler
370
    30
100
AcDbLine
 10
4579.936482664617
 20
5084.322693516658
 30
0.0
 11
4569.936482664618
 21
5084.322693516658
 31
0.0
  0
LINE
  5
918A
330
1F
100
AcDbEntity
  8
Ruettler
370
    30
100
AcDbLine
 10
4579.936482664617
 20
5211.322693516659
 30
0.0
 11
4569.936482664618
 21
5211.322693516659
 31
0.0
  0
LINE
  5
918B
330
1F
100
AcDbEntity
  8
Ruettler
370
    30
100
AcDbLine
 10
4579.936482664617
 20
5084.322693516658
 30
0.0
 11
4579.936482664617
 21
5211.322693516659
 31
0.0
  0
ARC
  5
918C
330
1F
100
AcDbEntity
  8
Ruettler
370
    30
100
AcDbCircle
 10
4734.936482664617
 20
5147.822693516658
 30
0.0
 40
229.9999999999999
100
AcDbArc
 50
166.4535121871726
 51
193.5464878128274
  0
LINE
  5
918D
330
1F
100
AcDbEntity
  8
Ruettler
370
    30
100
AcDbLine
 10
4567.436482664617
 20
5207.822693516658
 30
0.0
 11
4519.112480292315
 21
5207.822693516658
 31
0.0
  0
LINE
  5
918E
330
1F
100
AcDbEntity
  8
Ruettler
370
    30
100
AcDbLine
 10
4567.436482664617
 20
5087.822693516659
 30
0.0
 11
4519.112480292315
 21
5087.822693516659
 31
0.0
  0
ARC
  5
918F
330
1F
100
AcDbEntity
  8
Ruettler
370
    30
100
AcDbCircle
 10
4519.112480292315
 20
5199.822693516658
 30
0.0
 40
7.999999999999998
100
AcDbArc
 50
90.0
 51
166.4535121871726
  0
ARC
  5
9190
330
1F
100
AcDbEntity
  8
Ruettler
370
    30
100
AcDbCircle
 10
4519.112480292315
 20
5095.822693516659
 30
0.0
 40
7.999999999999998
100
AcDbArc
 50
193.5464878128274
 51
270.0
  0
LINE
  5
9191
330
1F
100
AcDbEntity
  8
Ruettler
370
    30
100
AcDbLine
 10
4569.936482664618
 20
5211.322693516659
 30
0.0
 11
4568.436482664618
 21
5211.322693516659
 31
0.0
  0
LINE
  5
9192
330
1F
100
AcDbEntity
  8
Ruettler
370
    30
100
AcDbLine
 10
4569.936482664618
 20
5084.322693516658
 30
0.0
 11
4568.436482664618
 21
5084.322693516658
 31
0.0
  0
ARC
  5
9193
330
1F
100
AcDbEntity
  8
Ruettler
370
    30
100
AcDbCircle
 10
4567.436482664617
 20
5086.822693516658
 30
0.0
 40
0.9999999999999998
100
AcDbArc
 50
0.000000000000007
 51
90.0
  0
ARC
  5
9194
330
1F
100
AcDbEntity
  8
Ruettler
370
    30
100
AcDbCircle
 10
4567.436482664617
 20
5208.822693516658
 30
0.0
 40
0.9999999999999998
100
AcDbArc
 50
270.0
 51
0.000000000000007
  0
LINE
  5
9195
330
1F
100
AcDbEntity
  8
Ruettler
370
    30
100
AcDbLine
 10
4568.436482664618
 20
5084.322693516658
 30
0.0
 11
4568.436482664618
 21
5211.322693516659
 31
0.0
  0
LINE
  5
9196
330
1F
100
AcDbEntity
  8
Ruettler
370
    30
100
AcDbLine
 10
4616.936482664465
 20
5125.322693516658
 30
0.0
 11
4616.936482664465
 21
5081.822693516659
 31
0.0
  0
LINE
  5
9197
330
1F
100
AcDbEntity
  8
Ruettler
370
    30
100
AcDbLine
 10
4611.936482664464
 20
5131.822693516658
 30
0.0
 11
4589.936482664465
 21
5131.822693516658
 31
0.0
  0
LINE
  5
9198
330
1F
100
AcDbEntity
  8
Ruettler
370
    30
100
AcDbLine
 10
4612.936482664465
 20
5129.322693516659
 30
0.0
 11
4611.936482664464
 21
5129.322693516659
 31
0.0
  0
LINE
  5
9199
330
1F
100
AcDbEntity
  8
Ruettler
370
    30
100
AcDbLine
 10
4611.936482664464
 20
5131.822693516658
 30
0.0
 11
4611.936482664464
 21
5131.647248836994
 31
0.0
  0
ARC
  5
919A
330
1F
100
AcDbEntity
  8
Ruettler
370
    30
100
AcDbCircle
 10
4612.936482664465
 20
5125.322693516658
 30
0.0
 40
3.999999999999999
100
AcDbArc
 50
0.000000000000007
 51
76.65763620289565
  0
LINE
  5
919B
330
1F
100
AcDbEntity
  8
Ruettler
370
    30
100
AcDbLine
 10
4613.516459532863
 20
5129.322693516659
 30
0.0
 11
4588.936482664465
 21
5129.322693516659
 31
0.0
  0
ARC
  5
919C
330
1F
100
AcDbEntity
  8
Ruettler
370
    30
100
AcDbCircle
 10
4612.936482664465
 20
5126.822693516658
 30
0.0
 40
2.499999999999999
100
AcDbArc
 50
90.0
 51
90.0
  0
ARC
  5
919D
330
1F
100
AcDbEntity
  8
Ruettler
370
    30
100
AcDbCircle
 10
4614.436482664465
 20
5131.647248836994
 30
0.0
 40
2.499999999999999
100
AcDbArc
 50
180.0
 51
256.6576362028956
  0
LINE
  5
919E
330
1F
100
AcDbEntity
  8
Ruettler
  6
STRICHPUNKTA
 62
     7
 48
5.0
370
    15
100
AcDbLine
 10
4600.936482664464
 20
5139.549468378037
 30
0.0
 11
4600.936482664464
 21
5073.298006255729
 31
0.0
  0
LINE
  5
919F
330
1F
100
AcDbEntity
  8
Ruettler
370
    30
100
AcDbLine
 10
4584.936482664466
 20
5125.322693516658
 30
0.0
 11
4584.936482664466
 21
5081.822693516659
 31
0.0
  0
LINE
  5
91A0
330
1F
100
AcDbEntity
  8
Ruettler
370
    30
100
AcDbLine
 10
4588.936482664466
 20
5129.322693516659
 30
0.0
 11
4589.936482664466
 21
5129.322693516659
 31
0.0
  0
LINE
  5
91A1
330
1F
100
AcDbEntity
  8
Ruettler
370
    30
100
AcDbLine
 10
4589.936482664466
 20
5131.822693516658
 30
0.0
 11
4589.936482664466
 21
5131.647248836994
 31
0.0
  0
ARC
  5
91A2
330
1F
100
AcDbEntity
  8
Ruettler
370
    30
100
AcDbCircle
 10
4588.936482664466
 20
5125.322693516658
 30
0.0
 40
3.999999999999998
100
AcDbArc
 50
103.3423637971047
 51
180.0
  0
ARC
  5
91A3
330
1F
100
AcDbEntity
  8
Ruettler
370
    30
100
AcDbCircle
 10
4588.936482664466
 20
5126.822693516658
 30
0.0
 40
2.499999999999999
100
AcDbArc
 50
90.0
 51
90.0
  0
ARC
  5
91A4
330
1F
100
AcDbEntity
  8
Ruettler
370
    30
100
AcDbCircle
 10
4587.436482664466
 20
5131.647248836994
 30
0.0
 40
2.499999999999999
100
AcDbArc
 50
283.3423637971047
 51
0.000000000000007
  0
LINE
  5
91A5
330
1F
100
AcDbEntity
  8
Ruettler
370
    30
100
AcDbLine
 10
4596.936482664617
 20
5247.822693516659
 30
0.0
 11
4596.14679221245
 21
5217.665631826811
 31
0.0
  0
ARC
  5
91A8
330
1F
100
AcDbEntity
  8
Ruettler
370
    30
100
AcDbCircle
 10
4645.936482664619
 20
5340.300805792763
 30
0.0
 40
137.8437446377343
100
AcDbArc
 50
248.757636426321
 51
291.2423635736782
  0
LINE
  5
9238
330
1F
100
AcDbEntity
  8
Ruettler
  6
STRICHPUNKTA
 62
     7
 48
5.0
370
    15
100
AcDbLine
 10
4471.975977388551
 20
4940.766994985269
 30
0.0
 11
4796.674732009171
 21
4940.766994985269
 31
0.0
  0
LINE
  5
9239
330
1F
100
AcDbEntity
  8
Ruettler
370
    30
100
AcDbLine
 10
4711.936482664772
 20
5004.266994985268
 30
0.0
 11
4711.936482664772
 21
4999.266994985269
 31
0.0
  0
LINE
  5
923A
330
1F
100
AcDbEntity
  8
Ruettler
370
    30
100
AcDbLine
 10
4711.936482664771
 20
4882.266994985268
 30
0.0
 11
4711.93648266477
 21
4877.266994985269
 31
0.0
  0
LINE
  5
923B
330
1F
100
AcDbEntity
  8
Ruettler
370
    30
100
AcDbLine
 10
4721.936482664772
 20
5002.566994985269
 30
0.0
 11
4721.936482664772
 21
5004.266994985268
 31
0.0
  0
LINE
  5
923C
330
1F
100
AcDbEntity
  8
Ruettler
370
    30
100
AcDbLine
 10
4721.936482664772
 20
4980.766994985269
 30
0.0
 11
4721.936482664772
 21
4986.266994985268
 31
0.0
  0
LINE
  5
923D
330
1F
100
AcDbEntity
  8
Ruettler
370
    30
100
AcDbLine
 10
4721.936482664772
 20
4895.266994985269
 30
0.0
 11
4721.936482664772
 21
4900.766994985269
 31
0.0
  0
LINE
  5
923E
330
1F
100
AcDbEntity
  8
Ruettler
370
    30
100
AcDbLine
 10
4721.936482664772
 20
4878.966994985269
 30
0.0
 11
4721.936482664772
 21
5002.566994985269
 31
0.0
  0
LINE
  5
923F
330
1F
100
AcDbEntity
  8
Ruettler
370
    30
100
AcDbLine
 10
4721.936482664772
 20
4877.266994985269
 30
0.0
 11
4721.936482664772
 21
4878.966994985269
 31
0.0
  0
LINE
  5
9240
330
1F
100
AcDbEntity
  8
Ruettler
370
    30
100
AcDbLine
 10
4711.936482664772
 20
4877.266994985269
 30
0.0
 11
4721.936482664772
 21
4877.266994985269
 31
0.0
  0
LINE
  5
9241
330
1F
100
AcDbEntity
  8
Ruettler
370
    30
100
AcDbLine
 10
4711.936482664772
 20
5004.266994985268
 30
0.0
 11
4721.936482664772
 21
5004.266994985268
 31
0.0
  0
LINE
  5
9242
330
1F
100
AcDbEntity
  8
Ruettler
370
    30
100
AcDbLine
 10
4711.936482664772
 20
4877.266994985269
 30
0.0
 11
4711.936482664772
 21
5004.266994985268
 31
0.0
  0
ARC
  5
9243
330
1F
100
AcDbEntity
  8
Ruettler
370
    30
100
AcDbCircle
 10
4556.936482664773
 20
4940.766994985269
 30
0.0
 40
230.0
100
AcDbArc
 50
346.4535121871844
 51
13.54648781281553
  0
LINE
  5
9244
330
1F
100
AcDbEntity
  8
Ruettler
370
    30
100
AcDbLine
 10
4724.436482664772
 20
5000.766994985269
 30
0.0
 11
4772.760485037075
 21
5000.766994985269
 31
0.0
  0
LINE
  5
9245
330
1F
100
AcDbEntity
  8
Ruettler
370
    30
100
AcDbLine
 10
4724.436482664772
 20
4880.766994985268
 30
0.0
 11
4772.760485037075
 21
4880.766994985268
 31
0.0
  0
ARC
  5
9246
330
1F
100
AcDbEntity
  8
Ruettler
370
    30
100
AcDbCircle
 10
4772.760485037075
 20
4992.766994985269
 30
0.0
 40
8.0
100
AcDbArc
 50
13.54648781281553
 51
90.0
  0
ARC
  5
9247
330
1F
100
AcDbEntity
  8
Ruettler
370
    30
100
AcDbCircle
 10
4772.760485037075
 20
4888.766994985269
 30
0.0
 40
8.0
100
AcDbArc
 50
270.0
 51
346.4535121871844
  0
LINE
  5
9248
330
1F
100
AcDbEntity
  8
Ruettler
370
    30
100
AcDbLine
 10
4721.936482664772
 20
5004.266994985268
 30
0.0
 11
4723.436482664772
 21
5004.266994985268
 31
0.0
  0
LINE
  5
9249
330
1F
100
AcDbEntity
  8
Ruettler
370
    30
100
AcDbLine
 10
4721.936482664772
 20
4877.266994985269
 30
0.0
 11
4723.436482664772
 21
4877.266994985269
 31
0.0
  0
ARC
  5
924A
330
1F
100
AcDbEntity
  8
Ruettler
370
    30
100
AcDbCircle
 10
4724.436482664772
 20
4879.766994985269
 30
0.0
 40
1.0
100
AcDbArc
 50
90.0
 51
180.0
  0
ARC
  5
924B
330
1F
100
AcDbEntity
  8
Ruettler
370
    30
100
AcDbCircle
 10
4724.436482664772
 20
5001.766994985269
 30
0.0
 40
1.0
100
AcDbArc
 50
180.0
 51
270.0
  0
LINE
  5
924C
330
1F
100
AcDbEntity
  8
Ruettler
370
    30
100
AcDbLine
 10
4723.436482664772
 20
4877.266994985269
 30
0.0
 11
4723.436482664772
 21
5004.266994985268
 31
0.0
  0
ARC
  5
924D
330
1F
100
AcDbEntity
  8
Ruettler
  6
STRICHPUNKTA
 62
     7
 48
5.0
370
    15
100
AcDbCircle
 10
4645.936482664771
 20
4865.813676179495
 30
0.0
 40
53.0
100
AcDbArc
 50
39.06054810320907
 51
50.93945189679118
  0
LINE
  5
924E
330
1F
100
AcDbEntity
  8
Ruettler
  6
STRICHPUNKTA
 62
     7
 48
5.0
370
    15
100
AcDbLine
 10
4679.52993869964
 20
4899.407132214363
 30
0.0
 11
4687.296345435678
 21
4907.173538950401
 31
0.0
  0
ARC
  5
924F
330
1F
100
AcDbEntity
  8
Ruettler
  6
STRICHPUNKTA
 62
     7
 48
5.0
370
    15
100
AcDbCircle
 10
4570.983163858997
 20
4865.813676179495
 30
0.0
 40
53.0
100
AcDbArc
 50
39.06054810320897
 51
50.93945189679123
  0
LINE
  5
9250
330
1F
100
AcDbEntity
  8
Ruettler
  6
STRICHPUNKTA
 62
     7
 48
5.0
370
    15
100
AcDbLine
 10
4604.576619893866
 20
4899.407132214363
 30
0.0
 11
4612.343026629903
 21
4907.173538950401
 31
0.0
  0
ARC
  5
9251
330
1F
100
AcDbEntity
  8
Ruettler
  6
STRICHPUNKTA
 62
     7
 48
5.0
370
    15
100
AcDbCircle
 10
4570.983163858997
 20
4940.766994985269
 30
0.0
 40
53.0
100
AcDbArc
 50
39.060548103209
 51
50.9394518967911
  0
LINE
  5
9252
330
1F
100
AcDbEntity
  8
Ruettler
  6
STRICHPUNKTA
 62
     7
 48
5.0
370
    15
100
AcDbLine
 10
4604.576619893866
 20
4974.360451020136
 30
0.0
 11
4612.343026629903
 21
4982.126857756175
 31
0.0
  0
LINE
  5
925B
330
1F
100
AcDbEntity
  8
Ruettler
370
    30
100
AcDbLine
 10
4569.936482664771
 20
5002.566994985269
 30
0.0
 11
4569.936482664771
 21
5004.266994985268
 31
0.0
  0
LINE
  5
925C
330
1F
100
AcDbEntity
  8
Ruettler
370
    30
100
AcDbLine
 10
4569.936482664771
 20
4980.766994985269
 30
0.0
 11
4569.936482664771
 21
4986.266994985268
 31
0.0
  0
LINE
  5
925D
330
1F
100
AcDbEntity
  8
Ruettler
370
    30
100
AcDbLine
 10
4569.936482664771
 20
4895.266994985269
 30
0.0
 11
4569.936482664771
 21
4900.766994985269
 31
0.0
  0
LINE
  5
925E
330
1F
100
AcDbEntity
  8
Ruettler
370
    30
100
AcDbLine
 10
4569.936482664771
 20
4878.966994985269
 30
0.0
 11
4569.936482664769
 21
4928.416994985267
 31
0.0
  0
LINE
  5
925F
330
1F
100
AcDbEntity
  8
Ruettler
370
    30
100
AcDbLine
 10
4569.936482664771
 20
4877.266994985269
 30
0.0
 11
4569.936482664771
 21
4878.966994985269
 31
0.0
  0
LINE
  5
9260
330
1F
100
AcDbEntity
  8
Ruettler
370
    30
100
AcDbLine
 10
4579.936482664771
 20
4877.266994985269
 30
0.0
 11
4569.936482664771
 21
4877.266994985269
 31
0.0
  0
LINE
  5
9261
330
1F
100
AcDbEntity
  8
Ruettler
370
    30
100
AcDbLine
 10
4579.936482664771
 20
5004.266994985268
 30
0.0
 11
4569.936482664771
 21
5004.266994985268
 31
0.0
  0
ARC
  5
9262
330
1F
100
AcDbEntity
  8
Ruettler
370
    30
100
AcDbCircle
 10
4734.93648266477
 20
4940.766994985269
 30
0.0
 40
230.0
100
AcDbArc
 50
166.4535121871743
 51
178.25594608955
  0
ARC
  5
9263
330
1F
100
AcDbEntity
  8
Ruettler
370
    30
100
AcDbCircle
 10
4519.112480292467
 20
4992.766994985269
 30
0.0
 40
8.0
100
AcDbArc
 50
90.0
 51
166.4535121871743
  0
ARC
  5
9264
330
1F
100
AcDbEntity
  8
Ruettler
370
    30
100
AcDbCircle
 10
4519.112480292467
 20
4888.766994985269
 30
0.0
 40
8.0
100
AcDbArc
 50
193.5464878128256
 51
270.0
  0
LINE
  5
9265
330
1F
100
AcDbEntity
  8
Ruettler
370
    30
100
AcDbLine
 10
4569.936482664771
 20
5004.266994985268
 30
0.0
 11
4568.436482664771
 21
5004.266994985268
 31
0.0
  0
LINE
  5
9266
330
1F
100
AcDbEntity
  8
Ruettler
370
    30
100
AcDbLine
 10
4569.936482664771
 20
4877.266994985269
 30
0.0
 11
4568.436482664771
 21
4877.266994985269
 31
0.0
  0
ARC
  5
9267
330
1F
100
AcDbEntity
  8
Ruettler
370
    30
100
AcDbCircle
 10
4567.436482664771
 20
4879.766994985269
 30
0.0
 40
1.0
100
AcDbArc
 50
0.0
 51
90.0
  0
ARC
  5
9268
330
1F
100
AcDbEntity
  8
Ruettler
370
    30
100
AcDbCircle
 10
4567.436482664771
 20
5001.766994985269
 30
0.0
 40
1.0
100
AcDbArc
 50
270.0
 51
0.0
  0
LINE
  5
9269
330
1F
100
AcDbEntity
  8
Ruettler
370
    30
100
AcDbLine
 10
4568.436482664771
 20
4877.266994985269
 30
0.0
 11
4568.436482664771
 21
4928.473244985268
 31
0.0
  0
LINE
  5
926A
330
1F
100
AcDbEntity
  8
Ruettler
370
    30
100
AcDbLine
 10
4567.436482664771
 20
5000.766994985269
 30
0.0
 11
4519.112480292467
 21
5000.766994985269
 31
0.0
  0
LINE
  5
926B
330
1F
100
AcDbEntity
  8
Ruettler
370
    30
100
AcDbLine
 10
4567.436482664771
 20
4880.766994985268
 30
0.0
 11
4519.112480292467
 21
4880.766994985268
 31
0.0
  0
LINE
  5
926C
330
1F
100
AcDbEntity
  8
Ruettler
370
    30
100
AcDbLine
 10
4581.936482664771
 20
4957.766994985269
 30
0.0
 11
4581.936482664771
 21
4950.266994985269
 31
0.0
  0
LINE
  5
926D
330
1F
100
AcDbEntity
  8
Ruettler
370
    30
100
AcDbLine
 10
4581.936482664771
 20
4950.266994985269
 30
0.0
 11
4581.936482664771
 21
4931.266994985269
 31
0.0
  0
LINE
  5
926E
330
1F
100
AcDbEntity
  8
Ruettler
370
    30
100
AcDbLine
 10
4575.936482664771
 20
4955.766994985268
 30
0.0
 11
4579.936482664772
 21
4955.766994985268
 31
0.0
  0
LINE
  5
926F
330
1F
100
AcDbEntity
  8
Ruettler
370
    30
100
AcDbLine
 10
4575.936482664771
 20
4925.766994985269
 30
0.0
 11
4579.936482664772
 21
4925.766994985269
 31
0.0
  0
LINE
  5
9270
330
1F
100
AcDbEntity
  8
Ruettler
370
    30
100
AcDbLine
 10
4573.936482664771
 20
4953.766994985269
 30
0.0
 11
4573.936482664771
 21
4927.766994985269
 31
0.0
  0
ARC
  5
9272
330
1F
100
AcDbEntity
  8
Ruettler
370
    30
100
AcDbCircle
 10
4575.936482664771
 20
4953.766994985269
 30
0.0
 40
2.0
100
AcDbArc
 50
90.0
 51
180.0
  0
ARC
  5
9273
330
1F
100
AcDbEntity
  8
Ruettler
370
    30
100
AcDbCircle
 10
4575.936482664771
 20
4927.766994985269
 30
0.0
 40
2.0
100
AcDbArc
 50
180.0
 51
270.0
  0
LINE
  5
9274
330
1F
100
AcDbEntity
  8
Ruettler
370
    30
100
AcDbLine
 10
4581.936482664771
 20
4953.766994985269
 30
0.0
 11
4581.936482664771
 21
4927.766994985269
 31
0.0
  0
ARC
  5
9275
330
1F
100
AcDbEntity
  8
Ruettler
370
    30
100
AcDbCircle
 10
4579.936482664772
 20
4953.766994985269
 30
0.0
 40
2.0
100
AcDbArc
 50
0.0
 51
90.0
  0
ARC
  5
9276
330
1F
100
AcDbEntity
  8
Ruettler
370
    30
100
AcDbCircle
 10
4579.936482664772
 20
4927.766994985269
 30
0.0
 40
2.0
100
AcDbArc
 50
270.0
 51
0.0
  0
LINE
  5
9277
330
1F
100
AcDbEntity
  8
Ruettler
370
    30
100
AcDbLine
 10
4573.936482664771
 20
4953.266994985269
 30
0.0
 11
4537.106519628649
 21
4951.885871371414
 31
0.0
  0
LINE
  5
9278
330
1F
100
AcDbEntity
  8
Ruettler
370
    30
100
AcDbLine
 10
4573.936482664771
 20
4928.266994985269
 30
0.0
 11
4536.102855409032
 21
4929.685756007359
 31
0.0
  0
LINE
  5
9279
330
1F
100
AcDbEntity
  8
Ruettler
370
    30
100
AcDbLine
 10
4483.794546447322
 20
4947.766994985268
 30
0.0
 11
4535.916896267248
 21
4947.766994985268
 31
0.0
  0
LINE
  5
927A
330
1F
100
AcDbEntity
  8
Ruettler
370
    30
100
AcDbLine
 10
4480.840768129888
 20
4933.766994985269
 30
0.0
 11
4535.377444106571
 21
4933.766994985269
 31
0.0
  0
LINE
  5
927B
330
1F
100
AcDbEntity
  8
Ruettler
370
    30
100
AcDbLine
 10
4537.106519628649
 20
4951.885871371414
 30
0.0
 11
4537.106519628649
 21
4951.382701661133
 31
0.0
  0
LINE
  5
927C
330
1F
100
AcDbEntity
  8
Ruettler
370
    30
100
AcDbLine
 10
4537.106519628649
 20
4951.382701661133
 30
0.0
 11
4536.821181856164
 21
4950.241805825491
 31
0.0
  0
LINE
  5
927D
330
1F
100
AcDbEntity
  8
Ruettler
370
    30
100
AcDbLine
 10
4536.821181856164
 20
4950.241805825491
 30
0.0
 11
4536.250508143569
 21
4949.100909989848
 31
0.0
  0
LINE
  5
927E
330
1F
100
AcDbEntity
  8
Ruettler
370
    30
100
AcDbLine
 10
4536.250508143569
 20
4949.100909989848
 30
0.0
 11
4535.965170371083
 21
4947.960014154205
 31
0.0
  0
LINE
  5
927F
330
1F
100
AcDbEntity
  8
Ruettler
370
    30
100
AcDbLine
 10
4535.965170371083
 20
4947.960014154205
 30
0.0
 11
4535.679832598596
 21
4946.819119651023
 31
0.0
  0
LINE
  5
9280
330
1F
100
AcDbEntity
  8
Ruettler
370
    30
100
AcDbLine
 10
4535.679832598596
 20
4946.819119651023
 30
0.0
 11
4535.965170371083
 21
4945.678223815381
 31
0.0
  0
LINE
  5
9281
330
1F
100
AcDbEntity
  8
Ruettler
370
    30
100
AcDbLine
 10
4535.965170371083
 20
4945.678223815381
 30
0.0
 11
4536.250508143569
 21
4944.252104020828
 31
0.0
  0
LINE
  5
9282
330
1F
100
AcDbEntity
  8
Ruettler
370
    30
100
AcDbLine
 10
4536.250508143569
 20
4944.252104020828
 30
0.0
 11
4536.535845916055
 21
4943.111208185184
 31
0.0
  0
LINE
  5
9283
330
1F
100
AcDbEntity
  8
Ruettler
370
    30
100
AcDbLine
 10
4536.535845916055
 20
4943.111208185184
 30
0.0
 11
4536.535845916055
 21
4941.970312349543
 31
0.0
  0
LINE
  5
9284
330
1F
100
AcDbEntity
  8
Ruettler
370
    30
100
AcDbLine
 10
4536.535845916055
 20
4941.970312349543
 30
0.0
 11
4536.250508143569
 21
4940.829416513899
 31
0.0
  0
LINE
  5
9285
330
1F
100
AcDbEntity
  8
Ruettler
370
    30
100
AcDbLine
 10
4536.250508143569
 20
4940.829416513899
 30
0.0
 11
4536.250508143569
 21
4939.688520678256
 31
0.0
  0
LINE
  5
9286
330
1F
100
AcDbEntity
  8
Ruettler
370
    30
100
AcDbLine
 10
4536.250508143569
 20
4939.688520678256
 30
0.0
 11
4535.679832598596
 21
4938.547624842613
 31
0.0
  0
LINE
  5
9287
330
1F
100
AcDbEntity
  8
Ruettler
370
    30
100
AcDbLine
 10
4535.679832598596
 20
4938.547624842613
 30
0.0
 11
4535.39449482611
 21
4937.406729006971
 31
0.0
  0
LINE
  5
9288
330
1F
100
AcDbEntity
  8
Ruettler
370
    30
100
AcDbLine
 10
4535.39449482611
 20
4937.406729006971
 30
0.0
 11
4535.109158886001
 21
4935.980610544879
 31
0.0
  0
LINE
  5
9289
330
1F
100
AcDbEntity
  8
Ruettler
370
    30
100
AcDbLine
 10
4535.109158886001
 20
4935.980610544879
 30
0.0
 11
4535.109158886001
 21
4934.839714709235
 31
0.0
  0
LINE
  5
928A
330
1F
100
AcDbEntity
  8
Ruettler
370
    30
100
AcDbLine
 10
4535.109158886001
 20
4934.839714709235
 30
0.0
 11
4535.39449482611
 21
4933.698818873593
 31
0.0
  0
LINE
  5
928B
330
1F
100
AcDbEntity
  8
Ruettler
370
    30
100
AcDbLine
 10
4535.39449482611
 20
4933.698818873593
 30
0.0
 11
4535.965170371083
 21
4932.557923037951
 31
0.0
  0
LINE
  5
928C
330
1F
100
AcDbEntity
  8
Ruettler
370
    30
100
AcDbLine
 10
4535.965170371083
 20
4932.557923037951
 30
0.0
 11
4536.250508143569
 21
4931.417027202307
 31
0.0
  0
LINE
  5
928D
330
1F
100
AcDbEntity
  8
Ruettler
370
    30
100
AcDbLine
 10
4536.250508143569
 20
4931.417027202307
 30
0.0
 11
4536.250508143569
 21
4930.276131366665
 31
0.0
  0
LINE
  5
928E
330
1F
100
AcDbEntity
  8
Ruettler
370
    30
100
AcDbLine
 10
4536.250508143569
 20
4930.276131366665
 30
0.0
 11
4536.102855409032
 21
4929.685756007359
 31
0.0
  0
LINE
  5
928F
330
1F
100
AcDbEntity
  8
Ruettler
370
    30
100
AcDbLine
 10
4483.794546447322
 20
4947.766994985268
 30
0.0
 11
4483.748425804079
 21
4947.674790195295
 31
0.0
  0
LINE
  5
9290
330
1F
100
AcDbEntity
  8
Ruettler
370
    30
100
AcDbLine
 10
4483.748425804079
 20
4947.674790195295
 30
0.0
 11
4483.177750259106
 21
4946.533895692112
 31
0.0
  0
LINE
  5
9291
330
1F
100
AcDbEntity
  8
Ruettler
370
    30
100
AcDbLine
 10
4483.177750259106
 20
4946.533895692112
 30
0.0
 11
4482.607076546512
 21
4945.39299985647
 31
0.0
  0
LINE
  5
9292
330
1F
100
AcDbEntity
  8
Ruettler
370
    30
100
AcDbLine
 10
4482.607076546512
 20
4945.39299985647
 30
0.0
 11
4482.321738774026
 21
4944.252104020828
 31
0.0
  0
LINE
  5
9293
330
1F
100
AcDbEntity
  8
Ruettler
370
    30
100
AcDbLine
 10
4482.321738774026
 20
4944.252104020828
 30
0.0
 11
4482.607076546512
 21
4943.111208185184
 31
0.0
  0
LINE
  5
9294
330
1F
100
AcDbEntity
  8
Ruettler
370
    30
100
AcDbLine
 10
4482.607076546512
 20
4943.111208185184
 30
0.0
 11
4482.89241248662
 21
4941.970312349543
 31
0.0
  0
LINE
  5
9295
330
1F
100
AcDbEntity
  8
Ruettler
370
    30
100
AcDbLine
 10
4482.89241248662
 20
4941.970312349543
 30
0.0
 11
4482.89241248662
 21
4938.547624842613
 31
0.0
  0
LINE
  5
9296
330
1F
100
AcDbEntity
  8
Ruettler
370
    30
100
AcDbLine
 10
4482.89241248662
 20
4938.547624842613
 30
0.0
 11
4482.321738774026
 21
4937.406729006971
 31
0.0
  0
LINE
  5
9297
330
1F
100
AcDbEntity
  8
Ruettler
370
    30
100
AcDbLine
 10
4482.321738774026
 20
4937.406729006971
 30
0.0
 11
4481.465725456567
 21
4936.265833171328
 31
0.0
  0
LINE
  5
9298
330
1F
100
AcDbEntity
  8
Ruettler
370
    30
100
AcDbLine
 10
4481.465725456567
 20
4936.265833171328
 30
0.0
 11
4481.180389516459
 21
4935.124938668146
 31
0.0
  0
LINE
  5
9299
330
1F
100
AcDbEntity
  8
Ruettler
370
    30
100
AcDbLine
 10
4481.180389516459
 20
4935.124938668146
 30
0.0
 11
4480.840768129888
 21
4933.766994985269
 31
0.0
  0
ARC
  5
92A0
330
1F
100
AcDbEntity
  8
Ruettler
370
    30
100
AcDbCircle
 10
4734.93648266477
 20
4940.766994985269
 30
0.0
 40
230.0
100
AcDbArc
 50
181.7440539104499
 51
193.5464878128256
  0
LINE
  5
92A1
330
1F
100
AcDbEntity
  8
Ruettler
370
    30
100
AcDbLine
 10
4569.936482664771
 20
4953.116994985269
 30
0.0
 11
4569.936482664771
 21
5002.566994985269
 31
0.0
  0
LINE
  5
92A2
330
1F
100
AcDbEntity
  8
Ruettler
370
    30
100
AcDbLine
 10
4568.436482664771
 20
4953.060744985268
 30
0.0
 11
4568.436482664771
 21
5004.266994985268
 31
0.0
  0
LINE
  5
92A3
330
1F
100
AcDbEntity
  8
Ruettler
370
    30
100
AcDbLine
 10
4579.936482664773
 20
4925.766994985269
 30
0.0
 11
4579.936482664773
 21
4877.266994985269
 31
0.0
  0
LINE
  5
92A4
330
1F
100
AcDbEntity
  8
Ruettler
  6
STRICHPUNKTA
 62
     7
 48
5.0
370
    15
100
AcDbLine
 10
4600.936482664772
 20
5038.142860741555
 30
0.0
 11
4600.936482664772
 21
4997.39112922898
 31
0.0
  0
LINE
  5
92A5
330
1F
100
AcDbEntity
  8
Ruettler
  6
STRICHPUNKTA
 62
     7
 48
5.0
370
    15
100
AcDbLine
 10
4580.560616908484
 20
5017.766994985268
 30
0.0
 11
4621.312348421059
 21
5017.766994985268
 31
0.0
  0
LINE
  5
92A8
330
1F
100
AcDbEntity
  8
Ruettler
  6
STRICHPUNKTA
 62
     7
 48
5.0
370
    15
100
AcDbLine
 10
4600.936482664776
 20
4884.142860741557
 30
0.0
 11
4600.936482664776
 21
4843.391129228982
 31
0.0
  0
LINE
  5
92A9
330
1F
100
AcDbEntity
  8
Ruettler
  6
STRICHPUNKTA
 62
     7
 48
5.0
370
    15
100
AcDbLine
 10
4580.560616908488
 20
4863.76699498527
 30
0.0
 11
4621.312348421064
 21
4863.76699498527
 31
0.0
  0
LINE
  5
92AC
330
1F
100
AcDbEntity
  8
Ruettler
  6
STRICHPUNKTA
 62
     7
 48
5.0
370
    15
100
AcDbLine
 10
4690.936482664769
 20
4884.142860741557
 30
0.0
 11
4690.936482664769
 21
4843.391129228982
 31
0.0
  0
LINE
  5
92AD
330
1F
100
AcDbEntity
  8
Ruettler
  6
STRICHPUNKTA
 62
     7
 48
5.0
370
    15
100
AcDbLine
 10
4670.560616908481
 20
4863.76699498527
 30
0.0
 11
4711.312348421056
 21
4863.76699498527
 31
0.0
  0
LINE
  5
93E5
330
1F
100
AcDbEntity
  8
0
370
    18
100
AcDbLine
 10
4630.872253152442
 20
5228.562533476541
 30
0.0
 11
4631.58184316719
 21
5226.810374245009
 31
0.0
  0
LINE
  5
93E6
330
1F
100
AcDbEntity
  8
0
370
    18
100
AcDbLine
 10
4631.100076990612
 20
5224.85816617495
 30
0.0
 11
4632.374121730918
 21
5224.85816617495
 31
0.0
  0
LINE
  5
93E7
330
1F
100
AcDbEntity
  8
0
370
    18
100
AcDbLine
 10
4631.550645283691
 20
5230.946429475705
 30
0.0
 11
4631.091106619337
 21
5229.231407832298
 31
0.0
  0
LINE
  5
93E8
330
1F
100
AcDbEntity
  8
0
370
    18
100
AcDbLine
 10
4632.083688846267
 20
5232.935775133888
 30
0.0
 11
4630.741423715478
 21
5232.935775133888
 31
0.0
  0
LWPOLYLINE
  5
93E9
330
1F
100
AcDbEntity
  8
0
  6
Continuous
100
AcDbPolyline
 90
        4
 70
     1
 43
0.0
 10
4621.457790458986
 20
5219.546894959631
 10
4670.41517487025
 20
5219.546894959631
 10
4670.41517487025
 20
5236.534119790085
 10
4621.457790458986
 20
5236.534119790085
  0
LINE
  5
93EA
330
1F
100
AcDbEntity
  8
0
370
    18
100
AcDbLine
 10
4629.611067305176
 20
5228.562533476541
 30
0.0
 11
4628.618485078245
 21
5224.85816617495
 31
0.0
  0
LINE
  5
93EB
330
1F
100
AcDbEntity
  8
0
370
    18
100
AcDbLine
 10
4625.284721493176
 20
5228.562533476541
 30
0.0
 11
4624.292139266246
 21
5224.85816617495
 31
0.0
  0
LINE
  5
93EC
330
1F
100
AcDbEntity
  8
0
370
    18
100
AcDbLine
 10
4626.31419616154
 20
5227.543358270708
 30
0.0
 11
4626.190149086789
 21
5227.080408285213
 31
0.0
  0
LINE
  5
93ED
330
1F
100
AcDbEntity
  8
0
370
    18
100
AcDbLine
 10
4624.292139266247
 20
5224.85816617495
 30
0.0
 11
4628.087479207995
 21
5224.85816617495
 31
0.0
  0
LINE
  5
93EE
330
1F
100
AcDbEntity
  8
0
370
    18
100
AcDbLine
 10
4628.682927186829
 20
5227.080408285213
 30
0.0
 11
4626.190149086789
 21
5227.080408285213
 31
0.0
  0
LINE
  5
93EF
330
1F
100
AcDbEntity
  8
0
370
    18
100
AcDbLine
 10
4625.86744340826
 20
5225.876054297047
 30
0.0
 11
4628.370497475663
 21
5225.876054297047
 31
0.0
  0
LINE
  5
93F0
330
1F
100
AcDbEntity
  8
0
370
    18
100
AcDbLine
 10
4625.991755031879
 20
5226.339991592368
 30
0.0
 11
4628.484533131917
 21
5226.339991592368
 31
0.0
  0
LINE
  5
93F1
330
1F
100
AcDbEntity
  8
0
370
    18
100
AcDbLine
 10
4625.991755031879
 20
5226.339991592368
 30
0.0
 11
4625.86744340826
 21
5225.876054297047
 31
0.0
  0
LINE
  5
93F2
330
1F
100
AcDbEntity
  8
0
370
    18
100
AcDbLine
 10
4625.991755031879
 20
5226.339991592368
 30
0.0
 11
4625.877719375625
 21
5225.914404729356
 31
0.0
  0
LINE
  5
93F3
330
1F
100
AcDbEntity
  8
0
370
    18
100
AcDbLine
 10
4628.087479207995
 20
5224.85816617495
 30
0.0
 11
4628.360221508298
 21
5225.876054297047
 31
0.0
  0
LINE
  5
93F4
330
1F
100
AcDbEntity
  8
0
370
    18
100
AcDbLine
 10
4630.392941684164
 20
5226.61930141079
 30
0.0
 11
4629.921046919958
 21
5224.85816617495
 31
0.0
  0
LINE
  5
93F5
330
1F
100
AcDbEntity
  8
0
370
    18
100
AcDbLine
 10
4628.618485078245
 20
5224.85816617495
 30
0.0
 11
4629.921046919958
 21
5224.85816617495
 31
0.0
  0
LINE
  5
93F6
330
1F
100
AcDbEntity
  8
0
370
    18
100
AcDbLine
 10
4628.484533131917
 20
5226.339991592368
 30
0.0
 11
4628.682927186829
 21
5227.080408285213
 31
0.0
  0
LINE
  5
93F7
330
1F
100
AcDbEntity
  8
0
370
    18
100
AcDbLine
 10
4631.100076990612
 20
5224.85816617495
 30
0.0
 11
4630.392941684164
 21
5226.61930141079
 31
0.0
  0
LINE
  5
93F8
330
1F
100
AcDbEntity
  8
0
370
    18
100
AcDbLine
 10
4629.080061434925
 20
5228.562533476541
 30
0.0
 11
4625.284721493176
 21
5228.562533476541
 31
0.0
  0
LINE
  5
93F9
330
1F
100
AcDbEntity
  8
0
370
    18
100
AcDbLine
 10
4628.806974261578
 20
5227.543358270708
 30
0.0
 11
4629.080061434925
 21
5228.562533476541
 31
0.0
  0
LINE
  5
93FA
330
1F
100
AcDbEntity
  8
0
370
    18
100
AcDbLine
 10
4628.806974261578
 20
5227.543358270708
 30
0.0
 11
4626.303920194174
 21
5227.543358270708
 31
0.0
  0
LINE
  5
93FB
330
1F
100
AcDbEntity
  8
0
370
    18
100
AcDbLine
 10
4630.741423715478
 20
5232.935775133888
 30
0.0
 11
4629.748841488548
 21
5229.231407832298
 31
0.0
  0
LWPOLYLINE
  5
93FC
330
1F
100
AcDbEntity
  8
0
370
    18
100
AcDbPolyline
 90
        4
 70
     1
 43
0.0
 10
4626.137378275603
 20
5231.513777514557
 10
4625.541828939445
 20
5229.291157133602
 10
4628.993367847189
 20
5229.291157133602
 10
4629.588917183347
 20
5231.513777514557
  0
LINE
  5
93FD
330
1F
100
AcDbEntity
  8
0
370
    18
100
AcDbLine
 10
4630.872253152442
 20
5228.562533476541
 30
0.0
 11
4629.611067305176
 21
5228.562533476541
 31
0.0
  0
LINE
  5
93FE
330
1F
100
AcDbEntity
  8
0
370
    18
100
AcDbLine
 10
4629.748841488548
 20
5229.231407832298
 30
0.0
 11
4631.091106619337
 21
5229.231407832298
 31
0.0
  0
ARC
  5
93FF
330
1F
100
AcDbEntity
  8
0
370
    18
100
AcDbCircle
 10
4654.423127367288
 20
5231.92331391677
 30
0.0
 40
0.7682193793950698
100
AcDbArc
 50
270.185218860838
 51
291.3103783431873
  0
LINE
  5
9400
330
1F
100
AcDbEntity
  8
0
370
    18
100
AcDbLine
 10
4654.308713122693
 20
5224.868091997219
 30
0.0
 11
4656.017717609598
 21
5224.868091997219
 31
0.0
  0
LINE
  5
9401
330
1F
100
AcDbEntity
  8
0
370
    18
100
AcDbLine
 10
4654.171610846911
 20
5229.231407832298
 30
0.0
 11
4655.880615333816
 21
5229.231407832298
 31
0.0
  0
LWPOLYLINE
  5
9402
330
1F
100
AcDbEntity
  8
0
370
    18
100
AcDbPolyline
 90
        4
 70
     1
 43
0.0
 10
4642.909535147252
 20
5224.269682247861
 10
4642.313985811093
 20
5222.047061866906
 10
4665.364991729195
 20
5222.047061866906
 10
4665.960541065354
 20
5224.269682247861
  0
LINE
  5
9403
330
1F
100
AcDbEntity
  8
0
370
    18
100
AcDbLine
 10
4654.562713042556
 20
5226.79178271632
 30
0.0
 11
4653.396345268387
 21
5226.79178271632
 31
0.0
  0
LINE
  5
9404
330
1F
100
AcDbEntity
  8
0
370
    18
100
AcDbLine
 10
4655.91075619477
 20
5228.57245929881
 30
0.0
 11
4652.570914278934
 21
5228.57245929881
 31
0.0
  0
LINE
  5
9405
330
1F
100
AcDbEntity
  8
0
370
    18
100
AcDbLine
 10
4655.773653918988
 20
5232.935775133888
 30
0.0
 11
4652.433812003152
 21
5232.935775133888
 31
0.0
  0
LINE
  5
9406
330
1F
100
AcDbEntity
  8
0
370
    18
100
AcDbLine
 10
4654.753339989188
 20
5227.695878945462
 30
0.0
 11
4653.638597122865
 21
5227.695878945462
 31
0.0
  0
LINE
  5
9407
330
1F
100
AcDbEntity
  8
0
370
    18
100
AcDbLine
 10
4654.616237713407
 20
5232.05919478054
 30
0.0
 11
4653.501494847084
 21
5232.05919478054
 31
0.0
  0
LINE
  5
9408
330
1F
100
AcDbEntity
  8
0
370
    18
100
AcDbLine
 10
4642.554579203101
 20
5224.85816617495
 30
0.0
 11
4643.547161430032
 21
5228.562533476541
 31
0.0
  0
ARC
  5
9409
330
1F
100
AcDbEntity
  8
0
370
    18
100
AcDbCircle
 10
4643.958537033532
 20
5230.251897816913
 30
0.0
 40
0.9587608077068694
100
AcDbArc
 50
165.0000000000055
 51
261.6882763531171
  0
LINE
  5
940A
330
1F
100
AcDbEntity
  8
0
370
    18
100
AcDbLine
 10
4643.547161430032
 20
5228.562533476541
 30
0.0
 11
4642.231790290474
 21
5228.562533476541
 31
0.0
  0
LINE
  5
940B
330
1F
100
AcDbEntity
  8
0
370
    18
100
AcDbLine
 10
4637.987383079472
 20
5228.562533476541
 30
0.0
 11
4636.994800852543
 21
5224.85816617495
 31
0.0
  0
LINE
  5
940C
330
1F
100
AcDbEntity
  8
0
370
    18
100
AcDbLine
 10
4639.329648210261
 20
5228.562533476541
 30
0.0
 11
4638.337065983332
 21
5224.85816617495
 31
0.0
  0
LINE
  5
940D
330
1F
100
AcDbEntity
  8
0
370
    18
100
AcDbLine
 10
4639.791524777359
 20
5228.562533476541
 30
0.0
 11
4638.798942550429
 21
5224.85816617495
 31
0.0
  0
LINE
  5
940E
330
1F
100
AcDbEntity
  8
0
370
    18
100
AcDbLine
 10
4641.052710624625
 20
5228.562533476541
 30
0.0
 11
4641.762300639373
 21
5226.810374245009
 31
0.0
  0
LINE
  5
940F
330
1F
100
AcDbEntity
  8
0
370
    18
100
AcDbLine
 10
4641.762300639373
 20
5226.810374245009
 30
0.0
 11
4642.231790290474
 21
5228.562533476541
 31
0.0
  0
LINE
  5
9410
330
1F
100
AcDbEntity
  8
0
370
    18
100
AcDbLine
 10
4632.374121730918
 20
5224.85816617495
 30
0.0
 11
4633.366703957848
 21
5228.562533476541
 31
0.0
  0
LINE
  5
9411
330
1F
100
AcDbEntity
  8
0
370
    18
100
AcDbLine
 10
4631.58184316719
 20
5226.810374245009
 30
0.0
 11
4632.051332818289
 21
5228.562533476541
 31
0.0
  0
ARC
  5
9412
330
1F
100
AcDbEntity
  8
0
370
    18
100
AcDbCircle
 10
4641.24139706575
 20
5224.738771505855
 30
0.0
 40
8.224997010073714
100
AcDbArc
 50
157.387404400784
 51
171.020015179947
  0
ARC
  5
9413
330
1F
100
AcDbEntity
  8
0
370
    18
100
AcDbCircle
 10
4640.665431268023
 20
5224.99051396464
 30
0.0
 40
6.22149298766157
100
AcDbArc
 50
158.0969939507821
 51
170.4856136403549
  0
LINE
  5
9414
330
1F
100
AcDbEntity
  8
0
370
    18
100
AcDbLine
 10
4636.994800852543
 20
5224.85816617495
 30
0.0
 11
4638.337065983332
 21
5224.85816617495
 31
0.0
  0
ARC
  5
9415
330
1F
100
AcDbEntity
  8
0
370
    18
100
AcDbCircle
 10
4634.914832149207
 20
5231.974440039634
 30
0.0
 40
7.119253077153191
100
AcDbArc
 50
262.0635437036924
 51
271.6576250419807
  0
LINE
  5
9416
330
1F
100
AcDbEntity
  8
0
370
    18
100
AcDbLine
 10
4636.535775462065
 20
5224.85816617495
 30
0.0
 11
4634.806731130925
 21
5224.85816617495
 31
0.0
  0
ARC
  5
9417
330
1F
100
AcDbEntity
  8
0
370
    18
100
AcDbCircle
 10
4635.710481459203
 20
5226.008679144197
 30
0.0
 40
1.150512969248243
100
AcDbArc
 50
270.0
 51
270.0
  0
ARC
  5
9418
330
1F
100
AcDbEntity
  8
0
370
    18
100
AcDbCircle
 10
4634.08339549772
 20
5226.456165744146
 30
0.0
 40
1.422878199650913
100
AcDbArc
 50
334.2263645027551
 51
11.71383119334301
  0
ARC
  5
9419
330
1F
100
AcDbEntity
  8
0
370
    18
100
AcDbCircle
 10
4634.950300784295
 20
5226.037579370683
 30
0.0
 40
0.4602051876992975
100
AcDbArc
 50
270.0
 51
334.2263645027551
  0
LINE
  5
941A
330
1F
100
AcDbEntity
  8
0
370
    18
100
AcDbLine
 10
4634.908610562459
 20
5225.577374182984
 30
0.0
 11
4634.950300784295
 21
5225.577374182984
 31
0.0
  0
ARC
  5
941B
330
1F
100
AcDbEntity
  8
0
370
    18
100
AcDbCircle
 10
4634.908610562459
 20
5225.960878506067
 30
0.0
 40
0.3835043230827479
100
AcDbArc
 50
171.2985646492441
 51
270.0
  0
ARC
  5
941C
330
1F
100
AcDbEntity
  8
0
370
    18
100
AcDbCircle
 10
4634.064223645832
 20
5225.872954140618
 30
0.0
 40
0.9587608077068694
100
AcDbArc
 50
171.020015179947
 51
262.0635437036924
  0
LINE
  5
941D
330
1F
100
AcDbEntity
  8
0
370
    18
100
AcDbLine
 10
4636.535775462065
 20
5224.85816617495
 30
0.0
 11
4637.041362772047
 21
5226.745043703463
 31
0.0
  0
LINE
  5
941E
330
1F
100
AcDbEntity
  8
0
370
    18
100
AcDbLine
 10
4635.47664059305
 20
5226.745043703463
 30
0.0
 11
4637.041362772047
 21
5226.745043703463
 31
0.0
  0
LINE
  5
941F
330
1F
100
AcDbEntity
  8
0
370
    18
100
AcDbLine
 10
4640.573399156347
 20
5226.61930141079
 30
0.0
 11
4640.101504392141
 21
5224.85816617495
 31
0.0
  0
LINE
  5
9420
330
1F
100
AcDbEntity
  8
0
370
    18
100
AcDbLine
 10
4641.280534462796
 20
5224.85816617495
 30
0.0
 11
4640.573399156347
 21
5226.61930141079
 31
0.0
  0
LINE
  5
9421
330
1F
100
AcDbEntity
  8
0
370
    18
100
AcDbLine
 10
4638.798942550429
 20
5224.85816617495
 30
0.0
 11
4640.101504392141
 21
5224.85816617495
 31
0.0
  0
LINE
  5
9422
330
1F
100
AcDbEntity
  8
0
370
    18
100
AcDbLine
 10
4641.280534462796
 20
5224.85816617495
 30
0.0
 11
4642.554579203101
 21
5224.85816617495
 31
0.0
  0
ARC
  5
9423
330
1F
100
AcDbEntity
  8
0
370
    18
100
AcDbCircle
 10
4635.763327016904
 20
5218.753952770773
 30
0.0
 40
8.85764661435673
100
AcDbArc
 50
80.02650671627424
 51
93.02614479233071
  0
LINE
  5
9424
330
1F
100
AcDbEntity
  8
0
370
    18
100
AcDbLine
 10
4636.933388635732
 20
5231.183615902357
 30
0.0
 11
4637.402878286833
 21
5232.935775133888
 31
0.0
  0
ARC
  5
9425
330
1F
100
AcDbEntity
  8
0
370
    18
100
AcDbCircle
 10
4635.927879531348
 20
5214.09543739174
 30
0.0
 40
14.46807838019826
100
AcDbArc
 50
83.51735091136767
 51
95.92334440423832
  0
LINE
  5
9426
330
1F
100
AcDbEntity
  8
0
370
    18
100
AcDbLine
 10
4636.451622459155
 20
5229.231407832298
 30
0.0
 11
4637.72566719946
 21
5229.231407832298
 31
0.0
  0
ARC
  5
9427
330
1F
100
AcDbEntity
  8
0
370
    18
100
AcDbCircle
 10
4635.320012327921
 20
5227.139684378729
 30
0.0
 40
0.4602051876992975
100
AcDbArc
 50
93.02614479233071
 51
158.0969939507821
  0
LINE
  5
9428
330
1F
100
AcDbEntity
  8
0
370
    18
100
AcDbLine
 10
4632.98198063646
 20
5232.935775133888
 30
0.0
 11
4631.685889445016
 21
5231.451167557199
 31
0.0
  0
LINE
  5
9429
330
1F
100
AcDbEntity
  8
0
370
    18
100
AcDbLine
 10
4632.083688846267
 20
5232.935775133888
 30
0.0
 11
4631.685889445016
 21
5231.451167557199
 31
0.0
  0
LINE
  5
942A
330
1F
100
AcDbEntity
  8
0
370
    18
100
AcDbLine
 10
4636.223798620984
 20
5232.935775133888
 30
0.0
 11
4634.962612773717
 21
5232.935775133888
 31
0.0
  0
LINE
  5
942B
330
1F
100
AcDbEntity
  8
0
370
    18
100
AcDbLine
 10
4634.576466946305
 20
5232.935775133888
 30
0.0
 11
4632.917468927425
 21
5231.035475953706
 31
0.0
  0
LINE
  5
942C
330
1F
100
AcDbEntity
  8
0
370
    18
100
AcDbLine
 10
4634.576466946305
 20
5232.935775133888
 30
0.0
 11
4632.98198063646
 21
5232.935775133888
 31
0.0
  0
LINE
  5
942D
330
1F
100
AcDbEntity
  8
0
370
    18
100
AcDbLine
 10
4636.223798620984
 20
5232.935775133888
 30
0.0
 11
4636.933388635732
 21
5231.183615902357
 31
0.0
  0
LINE
  5
942E
330
1F
100
AcDbEntity
  8
0
370
    18
100
AcDbLine
 10
4633.366703957848
 20
5228.562533476541
 30
0.0
 11
4632.051332818289
 21
5228.562533476541
 31
0.0
  0
LINE
  5
942F
330
1F
100
AcDbEntity
  8
0
370
    18
100
AcDbLine
 10
4633.970030546787
 20
5229.231407832298
 30
0.0
 11
4635.2725923885
 21
5229.231407832298
 31
0.0
  0
LINE
  5
9430
330
1F
100
AcDbEntity
  8
0
370
    18
100
AcDbLine
 10
4632.143284336081
 20
5229.231407832298
 30
0.0
 11
4633.583884719375
 21
5229.231407832298
 31
0.0
  0
ARC
  5
9431
330
1F
100
AcDbEntity
  8
0
370
    18
100
AcDbCircle
 10
4634.533747587946
 20
5227.532626733221
 30
0.0
 40
0.9587608077068694
100
AcDbArc
 50
95.92334440423832
 51
157.387404400784
  0
LINE
  5
9432
330
1F
100
AcDbEntity
  8
0
370
    18
100
AcDbLine
 10
4631.550645283691
 20
5230.946429475705
 30
0.0
 11
4632.179258808021
 21
5229.244696663203
 31
0.0
  0
LINE
  5
9433
330
1F
100
AcDbEntity
  8
0
370
    18
100
AcDbLine
 10
4634.962612773717
 20
5232.935775133888
 30
0.0
 11
4633.970030546787
 21
5229.231407832298
 31
0.0
  0
LINE
  5
9434
330
1F
100
AcDbEntity
  8
0
370
    18
100
AcDbLine
 10
4635.744487152705
 20
5230.992543068138
 30
0.0
 11
4635.2725923885
 21
5229.231407832298
 31
0.0
  0
LINE
  5
9435
330
1F
100
AcDbEntity
  8
0
370
    18
100
AcDbLine
 10
4636.451622459155
 20
5229.231407832298
 30
0.0
 11
4635.744487152705
 21
5230.992543068138
 31
0.0
  0
LINE
  5
9436
330
1F
100
AcDbEntity
  8
0
370
    18
100
AcDbLine
 10
4632.917468927425
 20
5231.035475953706
 30
0.0
 11
4633.583884719375
 21
5229.231407832298
 31
0.0
  0
LINE
  5
9437
330
1F
100
AcDbEntity
  8
0
370
    18
100
AcDbLine
 10
4637.297405491983
 20
5227.477742473484
 30
0.0
 11
4637.561359214246
 21
5228.471008202707
 31
0.0
  0
LINE
  5
9438
330
1F
100
AcDbEntity
  8
0
370
    18
100
AcDbLine
 10
4642.753009319657
 20
5229.229471964088
 30
0.0
 11
4642.565682276947
 21
5232.935775133888
 31
0.0
  0
LINE
  5
9439
330
1F
100
AcDbEntity
  8
0
370
    18
100
AcDbLine
 10
4638.718249426391
 20
5232.935775133888
 30
0.0
 11
4637.402878286833
 21
5232.935775133888
 31
0.0
  0
LINE
  5
943A
330
1F
100
AcDbEntity
  8
0
370
    18
100
AcDbLine
 10
4639.918951033441
 20
5229.759793175074
 30
0.0
 11
4641.422339640887
 21
5229.759793175074
 31
0.0
  0
LINE
  5
943B
330
1F
100
AcDbEntity
  8
0
370
    18
100
AcDbLine
 10
4640.35802043329
 20
5230.563855564586
 30
0.0
 11
4641.381700054031
 21
5230.563855564586
 31
0.0
  0
LINE
  5
943C
330
1F
100
AcDbEntity
  8
0
370
    18
100
AcDbLine
 10
4640.35802043329
 20
5230.563855564586
 30
0.0
 11
4641.294976815542
 21
5232.279692258827
 31
0.0
  0
LINE
  5
943D
330
1F
100
AcDbEntity
  8
0
370
    18
100
AcDbLine
 10
4641.381700054031
 20
5230.563855564586
 30
0.0
 11
4641.294976815542
 21
5232.279692258827
 31
0.0
  0
LINE
  5
943E
330
1F
100
AcDbEntity
  8
0
370
    18
100
AcDbLine
 10
4641.052710624625
 20
5228.562533476541
 30
0.0
 11
4639.791524777359
 21
5228.562533476541
 31
0.0
  0
LINE
  5
943F
330
1F
100
AcDbEntity
  8
0
370
    18
100
AcDbLine
 10
4639.329648210261
 20
5228.562533476541
 30
0.0
 11
4637.987383079472
 21
5228.562533476541
 31
0.0
  0
LINE
  5
9440
330
1F
100
AcDbEntity
  8
0
370
    18
100
AcDbLine
 10
4638.032422386203
 20
5229.231407832298
 30
0.0
 11
4639.630418901645
 21
5229.231407832298
 31
0.0
  0
LINE
  5
9441
330
1F
100
AcDbEntity
  8
0
370
    18
100
AcDbLine
 10
4637.72566719946
 20
5229.231407832298
 30
0.0
 11
4638.718249426391
 21
5232.935775133888
 31
0.0
  0
LINE
  5
9442
330
1F
100
AcDbEntity
  8
0
370
    18
100
AcDbLine
 10
4638.032422386203
 20
5229.231407832298
 30
0.0
 11
4640.055243437345
 21
5232.935775133888
 31
0.0
  0
LINE
  5
9443
330
1F
100
AcDbEntity
  8
0
370
    18
100
AcDbLine
 10
4639.630418901645
 20
5229.231407832298
 30
0.0
 11
4639.918951033441
 21
5229.759793175074
 31
0.0
  0
LINE
  5
9444
330
1F
100
AcDbEntity
  8
0
370
    18
100
AcDbLine
 10
4641.449045730253
 20
5229.231407832298
 30
0.0
 11
4641.422339640887
 21
5229.759793175074
 31
0.0
  0
LINE
  5
9445
330
1F
100
AcDbEntity
  8
0
370
    18
100
AcDbLine
 10
4642.565682276947
 20
5232.935775133888
 30
0.0
 11
4640.055243437345
 21
5232.935775133888
 31
0.0
  0
LINE
  5
9446
330
1F
100
AcDbEntity
  8
0
370
    18
100
AcDbLine
 10
4641.449045730253
 20
5229.231407832298
 30
0.0
 11
4642.752911475404
 21
5229.231407832298
 31
0.0
  0
LINE
  5
9447
330
1F
100
AcDbEntity
  8
0
370
    18
100
AcDbLine
 10
4652.570914278934
 20
5228.57245929881
 30
0.0
 11
4651.575672435943
 21
5224.85816617495
 31
0.0
  0
LINE
  5
9448
330
1F
100
AcDbEntity
  8
0
370
    18
100
AcDbLine
 10
4644.025522056791
 20
5228.562533476541
 30
0.0
 11
4643.032939829861
 21
5224.85816617495
 31
0.0
  0
LINE
  5
9449
330
1F
100
AcDbEntity
  8
0
370
    18
100
AcDbLine
 10
4648.261257430347
 20
5228.562533476541
 30
0.0
 11
4647.268675203416
 21
5224.85816617495
 31
0.0
  0
LINE
  5
944A
330
1F
100
AcDbEntity
  8
0
370
    18
100
AcDbLine
 10
4645.054996725155
 20
5227.543358270708
 30
0.0
 11
4644.930949650406
 21
5227.080408285213
 31
0.0
  0
LINE
  5
944B
330
1F
100
AcDbEntity
  8
0
370
    18
100
AcDbLine
 10
4653.396345268387
 20
5226.79178271632
 30
0.0
 11
4653.638597122865
 21
5227.695878945462
 31
0.0
  0
LINE
  5
944C
330
1F
100
AcDbEntity
  8
0
370
    18
100
AcDbLine
 10
4649.29073209871
 20
5227.543358270708
 30
0.0
 11
4649.166685023959
 21
5227.080408285213
 31
0.0
  0
LINE
  5
944D
330
1F
100
AcDbEntity
  8
0
370
    18
100
AcDbLine
 10
4647.268675203416
 20
5224.85816617495
 30
0.0
 11
4651.064015145167
 21
5224.85816617495
 31
0.0
  0
LINE
  5
944E
330
1F
100
AcDbEntity
  8
0
370
    18
100
AcDbLine
 10
4643.032939829861
 20
5224.85816617495
 30
0.0
 11
4646.828279771612
 21
5224.85816617495
 31
0.0
  0
LINE
  5
944F
330
1F
100
AcDbEntity
  8
0
370
    18
100
AcDbLine
 10
4646.828279771612
 20
5224.85816617495
 30
0.0
 11
4647.101022071914
 21
5225.876054297047
 31
0.0
  0
LINE
  5
9450
330
1F
100
AcDbEntity
  8
0
370
    18
100
AcDbLine
 10
4644.608243971876
 20
5225.876054297047
 30
0.0
 11
4647.11129803928
 21
5225.876054297047
 31
0.0
  0
LINE
  5
9451
330
1F
100
AcDbEntity
  8
0
370
    18
100
AcDbLine
 10
4644.732555595496
 20
5226.339991592368
 30
0.0
 11
4644.608243971876
 21
5225.876054297047
 31
0.0
  0
LINE
  5
9452
330
1F
100
AcDbEntity
  8
0
370
    18
100
AcDbLine
 10
4644.732555595496
 20
5226.339991592368
 30
0.0
 11
4647.225333695534
 21
5226.339991592368
 31
0.0
  0
LINE
  5
9453
330
1F
100
AcDbEntity
  8
0
370
    18
100
AcDbLine
 10
4647.225333695534
 20
5226.339991592368
 30
0.0
 11
4647.423727750444
 21
5227.080408285213
 31
0.0
  0
LINE
  5
9454
330
1F
100
AcDbEntity
  8
0
370
    18
100
AcDbLine
 10
4647.423727750444
 20
5227.080408285213
 30
0.0
 11
4644.930949650406
 21
5227.080408285213
 31
0.0
  0
LINE
  5
9455
330
1F
100
AcDbEntity
  8
0
370
    18
100
AcDbLine
 10
4644.732555595496
 20
5226.339991592368
 30
0.0
 11
4644.618519939242
 21
5225.914404729356
 31
0.0
  0
LINE
  5
9456
330
1F
100
AcDbEntity
  8
0
370
    18
100
AcDbLine
 10
4651.659463123999
 20
5227.080408285213
 30
0.0
 11
4649.166685023959
 21
5227.080408285213
 31
0.0
  0
LINE
  5
9457
330
1F
100
AcDbEntity
  8
0
370
    18
100
AcDbLine
 10
4648.843979345429
 20
5225.876054297047
 30
0.0
 11
4651.347033412834
 21
5225.876054297047
 31
0.0
  0
LINE
  5
9458
330
1F
100
AcDbEntity
  8
0
370
    18
100
AcDbLine
 10
4648.96829096905
 20
5226.339991592368
 30
0.0
 11
4651.461069069088
 21
5226.339991592368
 31
0.0
  0
LINE
  5
9459
330
1F
100
AcDbEntity
  8
0
370
    18
100
AcDbLine
 10
4648.96829096905
 20
5226.339991592368
 30
0.0
 11
4648.843979345429
 21
5225.876054297047
 31
0.0
  0
LINE
  5
945A
330
1F
100
AcDbEntity
  8
0
370
    18
100
AcDbLine
 10
4648.96829096905
 20
5226.339991592368
 30
0.0
 11
4648.854255312797
 21
5225.914404729356
 31
0.0
  0
LINE
  5
945B
330
1F
100
AcDbEntity
  8
0
370
    18
100
AcDbLine
 10
4651.064015145167
 20
5224.85816617495
 30
0.0
 11
4651.336757445467
 21
5225.876054297047
 31
0.0
  0
LINE
  5
945C
330
1F
100
AcDbEntity
  8
0
370
    18
100
AcDbLine
 10
4653.305184827421
 20
5226.451567318992
 30
0.0
 11
4652.880893893716
 21
5224.868091997219
 31
0.0
  0
LINE
  5
945D
330
1F
100
AcDbEntity
  8
0
370
    18
100
AcDbLine
 10
4651.578332052004
 20
5224.868091997219
 30
0.0
 11
4652.880893893716
 21
5224.868091997219
 31
0.0
  0
LINE
  5
945E
330
1F
100
AcDbEntity
  8
0
370
    18
100
AcDbLine
 10
4651.461069069088
 20
5226.339991592368
 30
0.0
 11
4651.659463123999
 21
5227.080408285213
 31
0.0
  0
LINE
  5
945F
330
1F
100
AcDbEntity
  8
0
370
    18
100
AcDbLine
 10
4653.305184827421
 20
5226.451567318992
 30
0.0
 11
4654.308713122693
 21
5224.868091997219
 31
0.0
  0
LINE
  5
9460
330
1F
100
AcDbEntity
  8
0
370
    18
100
AcDbLine
 10
4648.685581079998
 20
5230.249295954395
 30
0.0
 11
4651.188635147403
 21
5230.249295954395
 31
0.0
  0
LINE
  5
9461
330
1F
100
AcDbEntity
  8
0
370
    18
100
AcDbLine
 10
4648.809892703618
 20
5230.713233249715
 30
0.0
 11
4648.685581079998
 21
5230.249295954395
 31
0.0
  0
LINE
  5
9462
330
1F
100
AcDbEntity
  8
0
370
    18
100
AcDbLine
 10
4648.809892703618
 20
5230.713233249715
 30
0.0
 11
4648.695857047365
 21
5230.287646386703
 31
0.0
  0
LINE
  5
9463
330
1F
100
AcDbEntity
  8
0
370
    18
100
AcDbLine
 10
4651.898199106664
 20
5232.935775133888
 30
0.0
 11
4648.102859164914
 21
5232.935775133888
 31
0.0
  0
LINE
  5
9464
330
1F
100
AcDbEntity
  8
0
370
    18
100
AcDbLine
 10
4652.056597372096
 20
5228.562533476541
 30
0.0
 11
4648.261257430347
 21
5228.562533476541
 31
0.0
  0
LINE
  5
9465
330
1F
100
AcDbEntity
  8
0
370
    18
100
AcDbLine
 10
4647.110276937985
 20
5229.231407832298
 30
0.0
 11
4650.905616879735
 21
5229.231407832298
 31
0.0
  0
LINE
  5
9466
330
1F
100
AcDbEntity
  8
0
370
    18
100
AcDbLine
 10
4647.547774825193
 20
5227.543358270708
 30
0.0
 11
4647.820861998542
 21
5228.562533476541
 31
0.0
  0
LINE
  5
9467
330
1F
100
AcDbEntity
  8
0
370
    18
100
AcDbLine
 10
4647.547774825193
 20
5227.543358270708
 30
0.0
 11
4645.044720757788
 21
5227.543358270708
 31
0.0
  0
LINE
  5
9468
330
1F
100
AcDbEntity
  8
0
370
    18
100
AcDbLine
 10
4643.685097566271
 20
5232.935775133888
 30
0.0
 11
4643.032445208135
 21
5230.500043373645
 31
0.0
  0
LINE
  5
9469
330
1F
100
AcDbEntity
  8
0
370
    18
100
AcDbLine
 10
4645.119293300642
 20
5232.935775133888
 30
0.0
 11
4643.685097566271
 21
5232.935775133888
 31
0.0
  0
LINE
  5
946A
330
1F
100
AcDbEntity
  8
0
370
    18
100
AcDbLine
 10
4646.750382586975
 20
5230.062998384165
 30
0.0
 11
4647.520140797097
 21
5232.935775133888
 31
0.0
  0
LINE
  5
946B
330
1F
100
AcDbEntity
  8
0
370
    18
100
AcDbLine
 10
4647.520140797097
 20
5232.935775133888
 30
0.0
 11
4646.055124397942
 21
5232.935775133888
 31
0.0
  0
LINE
  5
946C
330
1F
100
AcDbEntity
  8
0
370
    18
100
AcDbLine
 10
4645.323800537702
 20
5230.206437330683
 30
0.0
 11
4646.055124397942
 21
5232.935775133888
 31
0.0
  0
ARC
  5
946D
330
1F
100
AcDbEntity
  8
0
370
    18
100
AcDbCircle
 10
4644.990407480558
 20
5230.295769731107
 30
0.0
 40
0.3451538907744731
100
AcDbArc
 50
270.0
 51
345.0000000000055
  0
LINE
  5
946E
330
1F
100
AcDbEntity
  8
0
370
    18
100
AcDbLine
 10
4644.990407480558
 20
5229.950615840332
 30
0.0
 11
4644.769235586647
 21
5229.950615840332
 31
0.0
  0
ARC
  5
946F
330
1F
100
AcDbEntity
  8
0
370
    18
100
AcDbCircle
 10
4644.769235586647
 20
5230.295769731107
 30
0.0
 40
0.3451538907744731
100
AcDbArc
 50
165.0000000000055
 51
270.0
  0
LINE
  5
9470
330
1F
100
AcDbEntity
  8
0
370
    18
100
AcDbLine
 10
4645.119293300642
 20
5232.935775133888
 30
0.0
 11
4644.435842529504
 21
5230.38510213153
 31
0.0
  0
LINE
  5
9471
330
1F
100
AcDbEntity
  8
0
370
    18
100
AcDbLine
 10
4647.820861998542
 20
5228.562533476541
 30
0.0
 11
4644.025522056791
 21
5228.562533476541
 31
0.0
  0
ARC
  5
9472
330
1F
100
AcDbEntity
  8
0
370
    18
100
AcDbCircle
 10
4644.849089608849
 20
5236.347681696981
 30
0.0
 40
7.119253077153191
100
AcDbArc
 50
261.6882763531171
 51
278.5178280220924
  0
ARC
  5
9473
330
1F
100
AcDbEntity
  8
0
370
    18
100
AcDbCircle
 10
4645.750203415545
 20
5230.330995585436
 30
0.0
 40
1.035461672323419
100
AcDbArc
 50
278.5178280220924
 51
345.0000000000055
  0
LINE
  5
9474
330
1F
100
AcDbEntity
  8
0
370
    18
100
AcDbLine
 10
4648.102859164914
 20
5232.935775133888
 30
0.0
 11
4647.110276937985
 21
5229.231407832298
 31
0.0
  0
LINE
  5
9475
330
1F
100
AcDbEntity
  8
0
370
    18
100
AcDbLine
 10
4651.783510198748
 20
5227.543358270708
 30
0.0
 11
4652.056597372096
 21
5228.562533476541
 31
0.0
  0
LINE
  5
9476
330
1F
100
AcDbEntity
  8
0
370
    18
100
AcDbLine
 10
4651.783510198748
 20
5227.543358270708
 30
0.0
 11
4649.280456131343
 21
5227.543358270708
 31
0.0
  0
LINE
  5
9477
330
1F
100
AcDbEntity
  8
0
370
    18
100
AcDbLine
 10
4651.501064858567
 20
5231.453649942561
 30
0.0
 11
4649.008286758529
 21
5231.453649942561
 31
0.0
  0
LINE
  5
9478
330
1F
100
AcDbEntity
  8
0
370
    18
100
AcDbLine
 10
4651.625111933316
 20
5231.916599928055
 30
0.0
 11
4649.122057865912
 21
5231.916599928055
 31
0.0
  0
LINE
  5
9479
330
1F
100
AcDbEntity
  8
0
370
    18
100
AcDbLine
 10
4648.809892703618
 20
5230.713233249715
 30
0.0
 11
4651.302670803656
 21
5230.713233249715
 31
0.0
  0
LINE
  5
947A
330
1F
100
AcDbEntity
  8
0
370
    18
100
AcDbLine
 10
4649.132333833278
 20
5231.916599928055
 30
0.0
 11
4649.008286758529
 21
5231.453649942561
 31
0.0
  0
LINE
  5
947B
330
1F
100
AcDbEntity
  8
0
370
    18
100
AcDbLine
 10
4651.625111933316
 20
5231.916599928055
 30
0.0
 11
4651.898199106664
 21
5232.935775133888
 31
0.0
  0
LINE
  5
947C
330
1F
100
AcDbEntity
  8
0
370
    18
100
AcDbLine
 10
4651.302670803656
 20
5230.713233249715
 30
0.0
 11
4651.501064858567
 21
5231.453649942561
 31
0.0
  0
LINE
  5
947D
330
1F
100
AcDbEntity
  8
0
370
    18
100
AcDbLine
 10
4653.259242992605
 20
5231.155098551399
 30
0.0
 11
4653.501494847084
 21
5232.05919478054
 31
0.0
  0
LINE
  5
947E
330
1F
100
AcDbEntity
  8
0
370
    18
100
AcDbLine
 10
4651.441229776223
 20
5229.231407832298
 30
0.0
 11
4652.743791617935
 21
5229.231407832298
 31
0.0
  0
LINE
  5
947F
330
1F
100
AcDbEntity
  8
0
370
    18
100
AcDbLine
 10
4650.905616879735
 20
5229.231407832298
 30
0.0
 11
4651.178359180036
 21
5230.249295954395
 31
0.0
  0
LINE
  5
9480
330
1F
100
AcDbEntity
  8
0
370
    18
100
AcDbLine
 10
4652.433812003152
 20
5232.935775133888
 30
0.0
 11
4651.441229776223
 21
5229.231407832298
 31
0.0
  0
LINE
  5
9481
330
1F
100
AcDbEntity
  8
0
370
    18
100
AcDbLine
 10
4653.168082551639
 20
5230.814883154071
 30
0.0
 11
4652.743791617935
 21
5229.231407832298
 31
0.0
  0
LINE
  5
9482
330
1F
100
AcDbEntity
  8
0
370
    18
100
AcDbLine
 10
4653.168082551639
 20
5230.814883154071
 30
0.0
 11
4654.171610846911
 21
5229.231407832298
 31
0.0
  0
LINE
  5
9483
330
1F
100
AcDbEntity
  8
0
370
    18
100
AcDbLine
 10
4654.425610766775
 20
5231.155098551399
 30
0.0
 11
4653.259242992605
 21
5231.155098551399
 31
0.0
  0
LINE
  5
9484
330
1F
100
AcDbEntity
  8
0
370
    18
100
AcDbLine
 10
4666.156375476883
 20
5224.85816617495
 30
0.0
 11
4664.329493679594
 21
5224.85816617495
 31
0.0
  0
LINE
  5
9485
330
1F
100
AcDbEntity
  8
0
370
    18
100
AcDbLine
 10
4665.097240607868
 20
5226.745043703463
 30
0.0
 11
4666.661962786864
 21
5226.745043703463
 31
0.0
  0
ARC
  5
9486
330
1F
100
AcDbEntity
  8
0
370
    18
100
AcDbCircle
 10
4665.383927031721
 20
5218.753952770773
 30
0.0
 40
8.85764661435673
100
AcDbArc
 50
80.02650671627424
 51
93.02614479233071
  0
ARC
  5
9487
330
1F
100
AcDbEntity
  8
0
370
    18
100
AcDbCircle
 10
4665.548479546167
 20
5214.09543739174
 30
0.0
 40
14.46807838019826
100
AcDbArc
 50
83.51735091136767
 51
95.92334440423832
  0
LINE
  5
9488
330
1F
100
AcDbEntity
  8
0
370
    18
100
AcDbLine
 10
4662.047304773234
 20
5224.85816617495
 30
0.0
 11
4663.039887000163
 21
5228.562533476541
 31
0.0
  0
LINE
  5
9489
330
1F
100
AcDbEntity
  8
0
370
    18
100
AcDbLine
 10
4661.255026209505
 20
5226.810374245009
 30
0.0
 11
4661.724515860606
 21
5228.562533476541
 31
0.0
  0
LINE
  5
948A
330
1F
100
AcDbEntity
  8
0
370
    18
100
AcDbLine
 10
4660.545436194757
 20
5228.562533476541
 30
0.0
 11
4661.255026209505
 21
5226.810374245009
 31
0.0
  0
ARC
  5
948B
330
1F
100
AcDbEntity
  8
0
370
    18
100
AcDbCircle
 10
4670.861997080569
 20
5224.738771505855
 30
0.0
 40
8.224997010073714
100
AcDbArc
 50
157.387404400784
 51
171.020015179947
  0
LINE
  5
948C
330
1F
100
AcDbEntity
  8
0
370
    18
100
AcDbLine
 10
4657.480108649604
 20
5228.562533476541
 30
0.0
 11
4656.487526422675
 21
5224.85816617495
 31
0.0
  0
LINE
  5
948D
330
1F
100
AcDbEntity
  8
0
370
    18
100
AcDbLine
 10
4658.822373780393
 20
5228.562533476541
 30
0.0
 11
4657.829791553464
 21
5224.85816617495
 31
0.0
  0
LINE
  5
948E
330
1F
100
AcDbEntity
  8
0
370
    18
100
AcDbLine
 10
4659.284250347491
 20
5228.562533476541
 30
0.0
 11
4658.29166812056
 21
5224.85816617495
 31
0.0
  0
LINE
  5
948F
330
1F
100
AcDbEntity
  8
0
370
    18
100
AcDbLine
 10
4656.609568272014
 20
5227.076908739848
 30
0.0
 11
4656.725717001119
 21
5227.510381698103
 31
0.0
  0
ARC
  5
9490
330
1F
100
AcDbEntity
  8
0
370
    18
100
AcDbCircle
 10
4654.594673269933
 20
5227.33498244696
 30
0.0
 40
0.5483274067590241
100
AcDbArc
 50
296.5093598874458
 51
350.9662004601295
  0
ARC
  5
9491
330
1F
100
AcDbEntity
  8
0
370
    18
100
AcDbCircle
 10
4670.286031282841
 20
5224.99051396464
 30
0.0
 40
6.22149298766157
100
AcDbArc
 50
158.0969939507821
 51
170.4856136403549
  0
LINE
  5
9492
330
1F
100
AcDbEntity
  8
0
370
    18
100
AcDbLine
 10
4660.773260032928
 20
5224.85816617495
 30
0.0
 11
4660.066124726479
 21
5226.61930141079
 31
0.0
  0
LINE
  5
9493
330
1F
100
AcDbEntity
  8
0
370
    18
100
AcDbLine
 10
4655.014189314325
 20
5226.451567318992
 30
0.0
 11
4656.017717609598
 21
5224.868091997219
 31
0.0
  0
LINE
  5
9494
330
1F
100
AcDbEntity
  8
0
370
    18
100
AcDbLine
 10
4655.794607465664
 20
5226.451567318992
 30
0.0
 11
4655.014189314325
 21
5226.451567318992
 31
0.0
  0
ARC
  5
9495
330
1F
100
AcDbEntity
  8
0
370
    18
100
AcDbCircle
 10
4654.56022964307
 20
5227.559998081691
 30
0.0
 40
0.7682193793950698
100
AcDbArc
 50
270.185218860838
 51
291.3103783431873
  0
LINE
  5
9496
330
1F
100
AcDbEntity
  8
0
370
    18
100
AcDbLine
 10
4656.487526422675
 20
5224.85816617495
 30
0.0
 11
4657.829791553464
 21
5224.85816617495
 31
0.0
  0
ARC
  5
9497
330
1F
100
AcDbEntity
  8
0
370
    18
100
AcDbCircle
 10
4655.794607465664
 20
5227.295276829774
 30
0.0
 40
0.8437095107820451
100
AcDbArc
 50
270.0
 51
345.0438139040654
  0
LINE
  5
9498
330
1F
100
AcDbEntity
  8
0
370
    18
100
AcDbLine
 10
4658.29166812056
 20
5224.85816617495
 30
0.0
 11
4659.594229962272
 21
5224.85816617495
 31
0.0
  0
LINE
  5
9499
330
1F
100
AcDbEntity
  8
0
370
    18
100
AcDbLine
 10
4660.066124726479
 20
5226.61930141079
 30
0.0
 11
4659.594229962272
 21
5224.85816617495
 31
0.0
  0
LINE
  5
949A
330
1F
100
AcDbEntity
  8
0
370
    18
100
AcDbLine
 10
4660.773260032928
 20
5224.85816617495
 30
0.0
 11
4662.047304773234
 21
5224.85816617495
 31
0.0
  0
ARC
  5
949B
330
1F
100
AcDbEntity
  8
0
370
    18
100
AcDbCircle
 10
4663.68482366065
 20
5225.872954140618
 30
0.0
 40
0.9587608077068694
100
AcDbArc
 50
171.020015179947
 51
262.0635437036924
  0
ARC
  5
949C
330
1F
100
AcDbEntity
  8
0
370
    18
100
AcDbCircle
 10
4664.535432164025
 20
5231.974440039634
 30
0.0
 40
7.119253077153191
100
AcDbArc
 50
262.0635437036924
 51
268.3423749580191
  0
ARC
  5
949D
330
1F
100
AcDbEntity
  8
0
370
    18
100
AcDbCircle
 10
4665.331081474021
 20
5226.008679144197
 30
0.0
 40
1.150512969248243
100
AcDbArc
 50
270.0
 51
270.0
  0
ARC
  5
949E
330
1F
100
AcDbEntity
  8
0
370
    18
100
AcDbCircle
 10
4663.703995512538
 20
5226.456165744146
 30
0.0
 40
1.422878199650913
100
AcDbArc
 50
334.2263645027551
 51
11.71383119334301
  0
ARC
  5
949F
330
1F
100
AcDbEntity
  8
0
370
    18
100
AcDbCircle
 10
4664.570900799113
 20
5226.037579370683
 30
0.0
 40
0.4602051876992975
100
AcDbArc
 50
270.0
 51
334.2263645027551
  0
LINE
  5
94A0
330
1F
100
AcDbEntity
  8
0
370
    18
100
AcDbLine
 10
4664.529210577278
 20
5225.577374182984
 30
0.0
 11
4664.570900799113
 21
5225.577374182984
 31
0.0
  0
ARC
  5
94A1
330
1F
100
AcDbEntity
  8
0
370
    18
100
AcDbCircle
 10
4664.529210577278
 20
5225.960878506067
 30
0.0
 40
0.3835043230827479
100
AcDbArc
 50
171.2985646492441
 51
270.0
  0
LINE
  5
94A2
330
1F
100
AcDbEntity
  8
0
370
    18
100
AcDbLine
 10
4660.545436194757
 20
5228.562533476541
 30
0.0
 11
4659.284250347491
 21
5228.562533476541
 31
0.0
  0
ARC
  5
94A3
330
1F
100
AcDbEntity
  8
0
370
    18
100
AcDbCircle
 10
4654.754656885704
 20
5227.309546778514
 30
0.0
 40
0.386334411403646
100
AcDbArc
 50
350.9662004601295
 51
90.19530426564614
  0
ARC
  5
94A4
330
1F
100
AcDbEntity
  8
0
370
    18
100
AcDbCircle
 10
4655.91075619477
 20
5227.728749788028
 30
0.0
 40
0.8437095107820451
100
AcDbArc
 50
344.999952987916
 51
90.0
  0
LINE
  5
94A5
330
1F
100
AcDbEntity
  8
0
370
    18
100
AcDbLine
 10
4655.657505189882
 20
5230.814883154071
 30
0.0
 11
4654.877087038545
 21
5230.814883154071
 31
0.0
  0
ARC
  5
94A6
330
1F
100
AcDbEntity
  8
0
370
    18
100
AcDbCircle
 10
4654.617554609922
 20
5231.672862613592
 30
0.0
 40
0.386334411403646
100
AcDbArc
 50
350.9662004601295
 51
90.19530426564614
  0
ARC
  5
94A7
330
1F
100
AcDbEntity
  8
0
370
    18
100
AcDbCircle
 10
4654.457570994152
 20
5231.698298282037
 30
0.0
 40
0.5483274067590241
100
AcDbArc
 50
296.5093598874458
 51
350.9662004601295
  0
ARC
  5
94A8
330
1F
100
AcDbEntity
  8
0
370
    18
100
AcDbCircle
 10
4655.657505189882
 20
5231.658592664851
 30
0.0
 40
0.8437095107820451
100
AcDbArc
 50
270.0
 51
345.0438139040654
  0
LINE
  5
94A9
330
1F
100
AcDbEntity
  8
0
370
    18
100
AcDbLine
 10
4656.472465996233
 20
5231.440224574927
 30
0.0
 11
4656.588614725338
 21
5231.873697533181
 31
0.0
  0
ARC
  5
94AA
330
1F
100
AcDbEntity
  8
0
370
    18
100
AcDbCircle
 10
4655.773653918988
 20
5232.092065623106
 30
0.0
 40
0.8437095107820451
100
AcDbArc
 50
344.999952987916
 51
90.0
  0
LINE
  5
94AB
330
1F
100
AcDbEntity
  8
0
370
    18
100
AcDbLine
 10
4658.822373780393
 20
5228.562533476541
 30
0.0
 11
4657.480108649604
 21
5228.562533476541
 31
0.0
  0
LINE
  5
94AC
330
1F
100
AcDbEntity
  8
0
370
    18
100
AcDbLine
 10
4654.877087038545
 20
5230.814883154071
 30
0.0
 11
4655.880615333816
 21
5229.231407832298
 31
0.0
  0
ARC
  5
94AD
330
1F
100
AcDbEntity
  8
0
370
    18
100
AcDbCircle
 10
4664.940612342738
 20
5227.139684378729
 30
0.0
 40
0.4602051876992975
100
AcDbArc
 50
93.02614479233071
 51
158.0969939507821
  0
LINE
  5
94AE
330
1F
100
AcDbEntity
  8
0
370
    18
100
AcDbLine
 10
4663.039887000163
 20
5228.562533476541
 30
0.0
 11
4661.724515860606
 21
5228.562533476541
 31
0.0
  0
ARC
  5
94AF
330
1F
100
AcDbEntity
  8
0
370
    18
100
AcDbCircle
 10
4664.154347602763
 20
5227.532626733221
 30
0.0
 40
0.9587608077068694
100
AcDbArc
 50
95.92334440423832
 51
157.387404400784
  0
LINE
  5
94B0
330
1F
100
AcDbEntity
  8
0
370
    18
100
AcDbLine
 10
4666.156375476883
 20
5224.85816617495
 30
0.0
 11
4666.661962786864
 21
5226.745043703463
 31
0.0
  0
LINE
  5
94B1
330
1F
100
AcDbEntity
  8
0
370
    18
100
AcDbLine
 10
4666.918005506801
 20
5227.477742473484
 30
0.0
 11
4667.181959229065
 21
5228.471008202707
 31
0.0
  0
LINE
  5
94B2
330
1F
100
AcDbEntity
  8
Ruettler
  6
STRICHPUNKTA
 62
     7
 48
5.0
370
    15
100
AcDbLine
 10
4645.936482664618
 20
5219.546894959631
 30
0.0
 11
4645.936482664618
 21
5073.298006255729
 31
0.0
  0
CIRCLE
  5
94B9
330
1F
100
AcDbEntity
  8
Ruettler
100
AcDbCircle
 10
4600.936482664772
 20
5017.766994985268
 30
0.0
 40
6.5
  0
CIRCLE
  5
94BA
330
1F
100
AcDbEntity
  8
Ruettler
100
AcDbCircle
 10
4690.936482664771
 20
5017.766994985268
 30
0.0
 40
6.5
  0
CIRCLE
  5
94BB
330
1F
100
AcDbEntity
  8
Ruettler
100
AcDbCircle
 10
4690.936482664769
 20
4863.76699498527
 30
0.0
 40
6.5
  0
CIRCLE
  5
94BC
330
1F
100
AcDbEntity
  8
Ruettler
100
AcDbCircle
 10
4600.936482664776
 20
4863.76699498527
 30
0.0
 40
6.5
  0
VIEWPORT
  5
9779
330
9775
100
AcDbEntity
 67
     1
  8
0
100
AcDbViewport
 10
202.5
 20
128.5
 30
0.0
 40
486.0
 41
308.4
 68
     1
 69
     1
 12
202.5
 22
128.5
 13
0.0
 23
0.0
 14
0.5
 24
0.5
 15
0.0
 25
0.0
 16
0.0
 26
0.0
 36
1.0
 17
0.0
 27
0.0
 37
0.0
 42
50.0
 43
0.0
 44
0.0
 45
308.4
 50
0.0
 51
0.0
 72
   100
 90
   557152
  1

281
     0
 71
     1
 74
     0
110
0.0
120
0.0
130
0.0
111
1.0
121
0.0
131
0.0
112
0.0
122
1.0
132
0.0
 79
     0
146
0.0
  0
VIEWPORT
  5
977A
330
9775
100
AcDbEntity
 67
     1
  8
0
100
AcDbViewport
 10
202.5
 20
128.5
 30
0.0
 40
324.0
 41
205.6
 68
     2
 69
     2
 12
4744.435423262081
 22
5053.734060066874
 13
0.0
 23
0.0
 14
0.5
 24
0.5
 15
0.0
 25
0.0
 16
0.0
 26
0.0
 36
1.0
 17
0.0
 27
0.0
 37
0.0
 42
50.0
 43
0.0
 44
0.0
 45
429.0995789093002
 50
0.0
 51
0.0
 72
   100
 90
   557152
  1

281
     0
 71
     1
 74
     0
110
0.0
120
0.0
130
0.0
111
1.0
121
0.0
131
0.0
112
0.0
122
1.0
132
0.0
 79
     0
146
0.0
  0
ENDSEC
  0
SECTION
  2
OBJECTS
  0
DICTIONARY
  5
C
330
0
100
AcDbDictionary
281
     1
  3
ACAD_GROUP
350
D
  3
ACAD_IMAGE_VARS
350
9773
  3
ACAD_LAYOUT
350
1A
  3
ACAD_MLINESTYLE
350
17
  3
ACAD_PLOTSETTINGS
350
19
  3
ACAD_PLOTSTYLENAME
350
E
  3
ACAD_SCALELIST
350
9731
  3
AcDbVariableDictionary
350
21B8
  3
APPDATA
350
9771
  3
DWGPROPS
350
97C4
  0
DICTIONARY
  5
2B
330
2
100
AcDbDictionary
280
     1
281
     1
  3
ACAD_LAYERFILTERS
360
2C
  3
ACAD_LAYERSTATES
360
4DB3
  0
DICTIONARY
  5
9125
330
1F
100
AcDbDictionary
280
     1
281
     1
  3
ACAD_SORTENTS
360
9126
  0
DICTIONARY
  5
D
102
{ACAD_REACTORS
330
C
102
}
330
C
100
AcDbDictionary
281
     1
  0
RASTERVARIABLES
  5
9773
102
{ACAD_REACTORS
330
C
102
}
330
C
100
AcDbRasterVariables
 90
        0
 70
     1
 71
     1
 72
     1
  0
DICTIONARY
  5
1A
102
{ACAD_REACTORS
330
C
102
}
330
C
100
AcDbDictionary
281
     1
  3
Layout1
350
9776
  3
Model
350
22
  0
DICTIONARY
  5
17
102
{ACAD_REACTORS
330
C
102
}
330
C
100
AcDbDictionary
281
     1
  3
Standard
350
18
  0
DICTIONARY
  5
19
102
{ACAD_REACTORS
330
C
102
}
330
C
100
AcDbDictionary
281
     1
  0
ACDBDICTIONARYWDFLT
  5
E
102
{ACAD_REACTORS
330
C
102
}
330
C
100
AcDbDictionary
281
     1
  3
Normal
350
F
100
AcDbDictionaryWithDefault
340
F
  0
DICTIONARY
  5
9731
102
{ACAD_REACTORS
330
C
102
}
330
C
100
AcDbDictionary
281
     1
  3
A0
350
9732
  3
A1
350
9733
  3
A2
350
9734
  3
A3
350
9735
  3
A4
350
9736
  3
A5
350
9737
  3
A6
350
9738
  3
A7
350
9739
  3
A8
350
973A
  3
A9
350
973B
  3
B0
350
973C
  3
B1
350
973D
  3
B2
350
973E
  3
B3
350
973F
  3
B4
350
9740
  3
B5
350
9741
  3
B6
350
9742
  3
B7
350
9743
  3
B8
350
9744
  3
B9
350
9745
  3
C0
350
9746
  3
C1
350
9747
  3
C2
350
9748
  3
C3
350
9749
  3
C4
350
974A
  3
C5
350
974B
  3
C6
350
974C
  3
C7
350
974D
  3
C8
350
974E
  3
C9
350
974F
  3
D0
350
9750
  3
D1
350
9751
  3
D2
350
9752
  0
DICTIONARY
  5
21B8
102
{ACAD_REACTORS
330
C
102
}
330
C
100
AcDbDictionary
281
     1
  3
DIMASSOC
350
21BA
  3
HIDETEXT
350
21B9
  3
PROJECTNAME
350
9230
  0
DICTIONARY
  5
9771
102
{ACAD_REACTORS
330
C
102
}
330
C
100
AcDbDictionary
281
     1
  0
XRECORD
  5
97C4
102
{ACAD_REACTORS
330
C
102
}
330
C
100
AcDbXrecord
280
     1
  1
DWGPROPS COOKIE
  2

  3

  4

  6

  7

  8
theodor.kuschma
  9

300
=
301
=
302
=
303
=
304
=
305
=
306
=
307
=
308
=
309
=
 40
0.0
 41
2453808.471610926
 42
2456967.453127257
  1

 90
        0
  0
DICTIONARY
  5
2C
102
{ACAD_REACTORS
330
2B
102
}
330
2B
100
AcDbDictionary
280
     1
281
     1
  3
025
360
9309
  3
035
360
930A
  3
050
360
930B
  3
070
360
930C
  3
mmMC
360
930D
  3
mmRS
360
930E
  3
mmTxt
360
930F
  3
XREF UIT
360
9310
  3
XREFOUT
360
9311
  0
DICTIONARY
  5
4DB3
102
{ACAD_REACTORS
330
2B
102
}
330
2B
100
AcDbDictionary
281
     1
  0
SORTENTSTABLE
  5
9126
102
{ACAD_REACTORS
330
9125
102
}
330
9125
100
AcDbSortentsTable
330
1F
331
5B09
  5
5B09
331
5B0B
  5
5B0B
331
5D7E
  5
5D7E
331
88B3
  5
88B3
331
88B4
  5
88B4
331
88B7
  5
88B7
331
88B8
  5
88B8
331
88B9
  5
88BE
331
88BE
  5
88C3
331
88C3
  5
88CE
331
88CE
  5
88CF
331
88CF
  5
88D0
331
88D0
  5
88D1
331
88D1
  5
88D2
331
88D2
  5
88D3
331
88D3
  5
88D8
331
88D8
  5
88D9
331
88D9
  5
88DA
331
88DA
  5
88E8
331
88E8
  5
88E9
331
88E9
  5
88EB
331
88EB
  5
88EE
331
88EE
  5
88F0
331
88F0
  5
88F1
331
88F1
  5
88F6
331
88F6
  5
88F7
331
88F7
  5
88F9
331
88F9
  5
88FA
331
88FA
  5
88FB
331
88FB
  5
88FC
331
88FC
  5
88FD
331
88FD
  5
88FE
331
88FE
  5
88FF
331
88FF
  5
8900
331
8900
  5
8901
331
8901
  5
8902
331
8902
  5
8903
331
8903
  5
8905
331
8905
  5
8906
331
8906
  5
8908
331
8908
  5
8909
331
8909
  5
890A
331
890A
  5
890B
331
890B
  5
890C
331
890C
  5
890D
331
890D
  5
890E
331
890E
  5
890F
331
890F
  5
8910
331
8910
  5
8911
331
8911
  5
8912
331
8912
  5
8913
331
8913
  5
8914
331
8914
  5
8915
331
8915
  5
8917
331
8917
  5
8918
331
8918
  5
8924
331
8924
  5
892C
331
892C
  5
892E
331
892E
  5
893B
331
893B
  5
893C
331
893C
  5
893D
331
893D
  5
8940
331
8940
  5
8941
331
8941
  5
8942
331
8942
  5
8943
331
8943
  5
8944
331
8944
  5
8945
331
8945
  5
8946
331
8946
  5
8947
331
8947
  5
8948
331
8948
  5
8949
331
8949
  5
894A
331
894A
  5
894B
331
894B
  5
894C
331
894C
  5
894D
331
894D
  5
894E
331
894E
  5
894F
331
894F
  5
8950
331
8950
  5
8951
331
8951
  5
8952
331
8952
  5
8953
331
8953
  5
8954
331
8954
  5
8955
331
8955
  5
8956
331
8956
  5
8957
331
8957
  5
8958
331
8958
  5
895D
331
895D
  5
895E
331
895E
  5
895F
331
895F
  5
8960
331
8960
  5
8961
331
8961
  5
8962
331
8962
  5
8963
331
8963
  5
8964
331
8964
  5
8965
331
8965
  5
8966
331
8966
  5
8967
331
8967
  5
8968
331
8968
  5
8969
331
8969
  5
896A
331
896A
  5
896B
331
896B
  5
896C
331
896C
  5
896D
331
896D
  5
896E
331
896E
  5
896F
331
896F
  5
8970
331
8970
  5
8971
331
8971
  5
8972
331
8972
  5
8973
331
8973
  5
8974
331
8974
  5
8975
331
8975
  5
8976
331
8976
  5
8977
331
8977
  5
8978
331
8978
  5
8979
331
8979
  5
897A
331
897A
  5
897B
331
897B
  5
897C
331
897C
  5
897D
331
897D
  5
897E
331
897E
  5
897F
331
897F
  5
8980
331
8980
  5
8981
331
8981
  5
8982
331
8982
  5
8983
331
8983
  5
8984
331
8984
  5
8985
331
8985
  5
8986
331
8986
  5
8987
331
8987
  5
8988
331
8988
  5
8989
331
8989
  5
898A
331
898A
  5
898B
331
898B
  5
898C
331
898C
  5
898D
331
898D
  5
898E
331
898E
  5
898F
331
898F
  5
8990
331
8990
  5
8991
331
8991
  5
8992
331
8992
  5
8993
331
8993
  5
8994
331
8994
  5
8995
331
8995
  5
8996
331
8996
  5
8997
331
8997
  5
8998
331
8998
  5
8999
331
8999
  5
899A
331
899A
  5
899B
331
899B
  5
899C
331
899C
  5
899D
331
899D
  5
899E
331
899E
  5
899F
331
899F
  5
89A0
331
89A0
  5
89A1
331
89A1
  5
89A2
331
89A2
  5
89A3
331
89A3
  5
89A4
331
89A4
  5
89A5
331
89A5
  5
89A6
331
89A6
  5
89A7
331
89A7
  5
89A8
331
89A8
  5
89A9
331
89A9
  5
89AA
331
89AA
  5
89AB
331
89AB
  5
89AC
331
89AC
  5
89AD
331
89AD
  5
89AE
331
89AE
  5
89AF
331
89AF
  5
89B0
331
89B0
  5
89B1
331
89B1
  5
89B2
331
89B2
  5
89B3
331
89B3
  5
89B4
331
89B4
  5
89B5
331
89B5
  5
89B6
331
89B6
  5
89B7
331
89B7
  5
89B8
331
89B8
  5
89B9
331
89B9
  5
89BA
331
89BA
  5
89BB
331
89BB
  5
89BC
331
89BC
  5
89BD
331
89BD
  5
89BE
331
89BE
  5
89BF
331
89BF
  5
89C0
331
89C0
  5
89C1
331
89C1
  5
89C2
331
89C2
  5
89C3
331
89C6
  5
89C8
331
89C8
  5
89C9
331
89C9
  5
89CA
331
89CA
  5
89CB
331
89CB
  5
89CC
331
89CC
  5
89CD
331
89CD
  5
89CE
331
89CE
  5
89CF
331
89CF
  5
89D0
331
89D0
  5
89D1
331
89D1
  5
89D2
331
89D2
  5
89D3
331
89D3
  5
89D4
331
89D4
  5
89D5
331
89D5
  5
89D6
331
89D6
  5
89D7
331
89D7
  5
89D8
331
89D8
  5
89DF
331
89DF
  5
89E9
331
89E9
  5
89EA
331
89EA
  5
89EB
331
89EB
  5
89EC
331
89EC
  5
89ED
331
89ED
  5
89EE
331
89EE
  5
89EF
331
89EF
  5
89F0
331
89F0
  5
89F1
331
89F1
  5
8A5D
331
8A5D
  5
8A5E
331
8A5E
  5
8A5F
331
8A5F
  5
8A60
331
8A60
  5
8A61
331
8A61
  5
8A62
331
8A62
  5
8A63
331
8A63
  5
8A64
331
8A64
  5
8A65
331
8A65
  5
8A66
331
8A66
  5
8A67
331
8A67
  5
8A68
331
8A68
  5
8A69
331
8A69
  5
8A6A
331
8A6A
  5
8A6B
331
8A6B
  5
8A6C
331
8A6C
  5
8A6D
331
8A6D
  5
8A6E
331
8A6E
  5
8A6F
331
8A6F
  5
8A70
331
8A70
  5
8A71
331
8A71
  5
8A72
331
8A72
  5
8A73
331
8A73
  5
8A74
331
8A74
  5
8A75
331
8A75
  5
8A76
331
8A76
  5
8A77
331
8A77
  5
8A78
331
8A78
  5
8A79
331
8A79
  5
8A7A
331
8A7A
  5
8A7B
331
8A7B
  5
8A7C
331
8A7C
  5
8A7D
331
8A7D
  5
8A7E
331
8A7E
  5
8A7F
331
8A7F
  5
8A80
331
8A80
  5
8A81
331
8A81
  5
8A82
331
8A82
  5
8A83
331
8A83
  5
8A84
331
8A84
  5
8A85
331
8A85
  5
8A86
331
8A86
  5
8A87
331
8A87
  5
8A88
331
8A88
  5
8A8D
331
8A8D
  5
8A8E
331
8A8E
  5
8A90
331
8A90
  5
8A96
331
8A96
  5
8A97
331
8A97
  5
8A99
331
8A99
  5
8BE1
331
8BE1
  5
8BF7
331
8BF7
  5
8C09
331
8C09
  5
8C0A
331
8C0A
  5
8C10
331
8C10
  5
8C13
331
8C13
  5
8C14
331
8C14
  5
8C1E
331
8C1E
  5
8C30
331
8C30
  5
8D07
331
8D07
  5
8D0A
331
8D0A
  5
8D0B
331
8D0B
  5
8D0F
331
8D0F
  5
8D10
331
8D10
  5
8D11
331
8D11
  5
8D12
331
8D12
  5
8D15
331
8D15
  5
8D16
331
8D16
  5
8D1E
331
8D1E
  5
8E4B
331
8E4C
  5
8E4D
331
8E4E
  5
8E4F
331
8E4F
  5
8E50
331
8E50
  5
8E51
331
8E51
  5
8E52
331
8E75
  5
8E76
331
8E77
  5
8E78
331
8E79
  5
8E7A
331
8E7A
  5
8E7B
331
8E7B
  5
8E7C
331
8E7C
  5
8E7D
331
8E7D
  5
8E7E
331
8E7E
  5
8E7F
331
8E7F
  5
8E80
331
8E80
  5
8E81
331
8E81
  5
8E82
331
8E83
  5
8E84
331
8E85
  5
8E86
331
8E87
  5
8E88
331
8E89
  5
8E8A
331
8E8A
  5
8E8B
331
8E8B
  5
8E8C
331
8E8C
  5
8E8D
331
8E8D
  5
8E8E
331
8EBE
  5
8EBF
331
8EE6
  5
8EE7
331
8EEB
  5
8EEC
331
8EED
  5
8EEE
331
8EEF
  5
8EF0
331
8EF1
  5
8EF2
331
8EF2
  5
8EF3
331
8EF3
  5
8EF4
331
8EF4
  5
8EF5
331
8EF5
  5
8EF6
331
8EF6
  5
8EF7
331
8EF7
  5
8EF8
331
8EF8
  5
8EF9
331
8EF9
  5
8EFA
331
8EFA
  5
8EFB
331
8EFB
  5
8EFC
331
8EFC
  5
8EFD
331
8EFD
  5
8EFE
331
8EFE
  5
8EFF
331
8EFF
  5
8F00
331
8F00
  5
8F01
331
8F01
  5
8F02
331
8F02
  5
8F03
331
8F04
  5
8F05
331
8F05
  5
8F06
331
8F06
  5
8F07
331
8F07
  5
8F08
331
8F08
  5
8F09
331
8F0A
  5
8F0B
331
8F0B
  5
8F0C
331
8F0C
  5
8F0D
331
8F0D
  5
8F0E
331
8F0E
  5
8F0F
331
8F0F
  5
8F10
331
8F10
  5
8F11
331
8F11
  5
8F12
331
8F12
  5
8F13
331
8F13
  5
8F14
331
8F14
  5
8F15
331
8F15
  5
8F16
331
8F16
  5
8F17
331
8F17
  5
8F18
331
8F18
  5
8F19
331
8F19
  5
8F1A
331
8F1A
  5
8F1B
331
8F1B
  5
8F1C
331
8F1C
  5
8F1D
331
8F1E
  5
8F1F
331
8F1F
  5
8F20
331
8F20
  5
8F21
331
8F21
  5
8F22
331
8F23
  5
8F24
331
8F24
  5
8F25
331
8F25
  5
8F26
331
8F26
  5
8F27
331
8F27
  5
8F28
331
8F28
  5
8F29
331
8F29
  5
8F2A
331
8F2A
  5
8F2B
331
8F2B
  5
8F2C
331
8F2C
  5
8F2D
331
8F2D
  5
8F2E
331
8F2E
  5
8F2F
331
8F2F
  5
8F30
331
8F30
  5
8F31
331
8F31
  5
8F32
331
8F32
  5
8F33
331
8F33
  5
8F34
331
8F34
  5
8F35
331
8F35
  5
8F36
331
8F37
  5
8F38
331
8F38
  5
8F39
331
8F39
  5
8F3A
331
8F3A
  5
8F3B
331
8F3B
  5
8F3C
331
8F3C
  5
8F3D
331
8F3D
  5
8F3F
331
8F3E
  5
8F40
331
8F3F
  5
8F41
331
8F40
  5
8F42
331
8F41
  5
8F43
331
8F42
  5
8F44
331
8F43
  5
8F45
331
8F44
  5
8F46
331
8F45
  5
8F47
331
8F46
  5
8F48
331
8F47
  5
8F49
331
8F48
  5
8F4A
331
8F49
  5
8F4B
331
8F4A
  5
8F4C
331
8F4B
  5
8F4D
331
8F4C
  5
8F4F
331
8F4E
  5
8F50
331
8F4F
  5
8F51
331
8F50
  5
8F52
331
8F51
  5
8F53
331
8F52
  5
8F54
331
8F53
  5
9056
331
913A
  5
913C
331
913B
  5
913D
331
913C
  5
913E
331
913D
  5
913F
331
913E
  5
9152
331
913F
  5
9154
331
9152
  5
9155
331
9155
  5
9157
331
9156
  5
9158
331
9157
  5
9159
331
9158
  5
915A
331
9159
  5
915B
331
915A
  5
915C
331
915B
  5
915D
331
915C
  5
915F
331
915D
  5
9160
331
915F
  5
9161
331
9160
  5
9162
331
9161
  5
9163
331
9162
  5
9164
331
9163
  5
9175
331
9164
  5
9176
331
9175
  5
9177
331
9176
  5
9178
331
9177
  5
9179
331
9178
  5
917A
331
9179
  5
917B
331
917A
  5
917C
331
917B
  5
917D
331
917C
  5
917E
331
917D
  5
917F
331
917E
  5
9180
331
917F
  5
9181
331
9180
  5
9182
331
9181
  5
9183
331
9182
  5
9184
331
9183
  5
9185
331
9184
  5
9186
331
9185
  5
9187
331
9186
  5
9188
331
9187
  5
9189
331
9188
  5
918A
331
9189
  5
918B
331
918A
  5
918C
331
918B
  5
918D
331
918C
  5
918E
331
918D
  5
918F
331
918E
  5
9190
331
918F
  5
9191
331
9190
  5
9192
331
9191
  5
9193
331
9192
  5
9194
331
9193
  5
9195
331
9194
  5
9196
331
9195
  5
9197
331
9196
  5
9198
331
9197
  5
9199
331
9198
  5
919A
331
9199
  5
919B
331
919A
  5
919C
331
919B
  5
919D
331
919C
  5
919E
331
919D
  5
919F
331
919E
  5
91A0
331
919F
  5
91A1
331
91A0
  5
91A2
331
91A1
  5
91A3
331
91A2
  5
91A4
331
91A3
  5
91A5
331
91A4
  5
91A8
331
91A5
  5
91BA
331
91A8
  5
91DC
331
9238
  5
9239
331
9239
  5
923A
331
923A
  5
923B
331
923B
  5
923C
331
923C
  5
923D
331
923D
  5
923E
331
923E
  5
923F
331
923F
  5
9240
331
9240
  5
9241
331
9241
  5
9242
331
9242
  5
9243
331
9243
  5
9244
331
9244
  5
9245
331
9245
  5
9246
331
9246
  5
9247
331
9247
  5
9248
331
9248
  5
9249
331
9249
  5
924A
331
924A
  5
924B
331
924B
  5
924C
331
924C
  5
924D
331
924D
  5
924E
331
924E
  5
924F
331
924F
  5
9250
331
9250
  5
9251
331
9251
  5
9252
331
9252
  5
9254
331
925B
  5
925C
331
925C
  5
925D
331
925D
  5
925E
331
925E
  5
925F
331
925F
  5
9261
331
9260
  5
9262
331
9261
  5
9263
331
9262
  5
9264
331
9263
  5
9266
331
9264
  5
9267
331
9265
  5
9268
331
9266
  5
9269
331
9267
  5
926A
331
9268
  5
926B
331
9269
  5
926C
331
926A
  5
926E
331
926B
  5
926F
331
926C
  5
9270
331
926D
  5
9271
331
926E
  5
9272
331
926F
  5
9273
331
9270
  5
9274
331
9272
  5
9276
331
9273
  5
9277
331
9274
  5
9278
331
9275
  5
9279
331
9276
  5
927A
331
9277
  5
927B
331
9278
  5
927C
331
9279
  5
927D
331
927A
  5
927E
331
927B
  5
927F
331
927C
  5
9280
331
927D
  5
9281
331
927E
  5
9282
331
927F
  5
9283
331
9280
  5
9284
331
9281
  5
9285
331
9282
  5
9286
331
9283
  5
9287
331
9284
  5
9288
331
9285
  5
9289
331
9286
  5
928A
331
9287
  5
928B
331
9288
  5
928C
331
9289
  5
928D
331
928A
  5
928E
331
928B
  5
928F
331
928C
  5
9290
331
928D
  5
9291
331
928E
  5
9292
331
928F
  5
9293
331
9290
  5
9294
331
9291
  5
9295
331
9292
  5
9296
331
9293
  5
9297
331
9294
  5
9298
331
9295
  5
9299
331
9296
  5
92A0
331
9297
  5
92A1
331
9298
  5
92A2
331
9299
  5
92A3
331
92A0
  5
9265
331
92A1
  5
9260
331
92A2
  5
926D
331
92A3
  5
8F3E
  0
LAYOUT
  5
9776
102
{ACAD_REACTORS
330
1A
102
}
330
1A
100
AcDbPlotSettings
  1

  2
none_device
  4
ISO_A3_(420.00_x_297.00_MM)
  6

 40
7.5
 41
20.0
 42
7.5
 43
20.0
 44
420.0
 45
297.0
 46
0.0
 47
0.0
 48
0.0
 49
0.0
140
0.0
141
0.0
142
1.0
143
1.0
 70
   688
 72
     1
 73
     0
 74
     5
  7

 75
    16
147
1.0
148
0.0
149
0.0
100
AcDbLayout
  1
Layout1
 70
     1
 71
     1
 10
-7.5
 20
-20.0
 11
412.5
 21
277.0
 12
0.0
 22
0.0
 32
0.0
 14
0.0
 24
0.0
 34
0.0
 15
0.0
 25
0.0
 35
0.0
146
0.0
 13
0.0
 23
0.0
 33
0.0
 16
1.0
 26
0.0
 36
0.0
 17
0.0
 27
1.0
 37
0.0
 76
     0
330
9775
331
9779
  0
LAYOUT
  5
22
102
{ACAD_REACTORS
330
1A
102
}
330
1A
100
AcDbPlotSettings
  1

  2
none_device
  4
ISO_A3_(420.00_x_297.00_MM)
  6

 40
7.5
 41
20.0
 42
7.5
 43
20.0
 44
420.0
 45
297.0
 46
0.0
 47
0.0
 48
0.0
 49
0.0
140
0.0
141
0.0
142
1.0
143
1.853904092046686
 70
  1712
 72
     1
 73
     0
 74
     0
  7

 75
     0
147
0.5394022292145724
148
-4369.221687239728
149
-4840.66189829934
100
AcDbLayout
  1
Model
 70
     1
 71
     0
 10
0.0
 20
0.0
 11
12.0
 21
9.0
 12
0.0
 22
0.0
 32
0.0
 14
0.0
 24
0.0
 34
0.0
 15
5016.894869135611
 25
5264.076990904767
 35
10.73625718604242
146
0.0
 13
0.0
 23
0.0
 33
0.0
 16
1.0
 26
0.0
 36
0.0
 17
0.0
 27
1.0
 37
0.0
 76
     0
330
1F
331
96EF
  0
MLINESTYLE
  5
18
102
{ACAD_REACTORS
330
17
102
}
330
17
100
AcDbMlineStyle
  2
STANDARD
 70
     0
  3

 62
   256
 51
90.0
 52
90.0
 71
     2
 49
0.5
 62
   256
  6
BYLAYER
 49
-0.5
 62
   256
  6
BYLAYER
  0
ACDBPLACEHOLDER
  5
F
102
{ACAD_REACTORS
330
E
102
}
330
E
  0
SCALE
  5
9732
102
{ACAD_REACTORS
330
9731
102
}
330
9731
100
AcDbScale
 70
     0
300
1:1
140
1.0
141
1.0
290
     1
  0
SCALE
  5
9733
102
{ACAD_REACTORS
330
9731
102
}
330
9731
100
AcDbScale
 70
     0
300
1:2
140
1.0
141
2.0
290
     0
  0
SCALE
  5
9734
102
{ACAD_REACTORS
330
9731
102
}
330
9731
100
AcDbScale
 70
     0
300
1:4
140
1.0
141
4.0
290
     0
  0
SCALE
  5
9735
102
{ACAD_REACTORS
330
9731
102
}
330
9731
100
AcDbScale
 70
     0
300
1:5
140
1.0
141
5.0
290
     0
  0
SCALE
  5
9736
102
{ACAD_REACTORS
330
9731
102
}
330
9731
100
AcDbScale
 70
     0
300
1:8
140
1.0
141
8.0
290
     0
  0
SCALE
  5
9737
102
{ACAD_REACTORS
330
9731
102
}
330
9731
100
AcDbScale
 70
     0
300
1:10
140
1.0
141
10.0
290
     0
  0
SCALE
  5
9738
102
{ACAD_REACTORS
330
9731
102
}
330
9731
100
AcDbScale
 70
     0
300
1:16
140
1.0
141
16.0
290
     0
  0
SCALE
  5
9739
102
{ACAD_REACTORS
330
9731
102
}
330
9731
100
AcDbScale
 70
     0
300
1:20
140
1.0
141
20.0
290
     0
  0
SCALE
  5
973A
102
{ACAD_REACTORS
330
9731
102
}
330
9731
100
AcDbScale
 70
     0
300
1:30
140
1.0
141
30.0
290
     0
  0
SCALE
  5
973B
102
{ACAD_REACTORS
330
9731
102
}
330
9731
100
AcDbScale
 70
     0
300
1:40
140
1.0
141
40.0
290
     0
  0
SCALE
  5
973C
102
{ACAD_REACTORS
330
9731
102
}
330
9731
100
AcDbScale
 70
     0
300
1:50
140
1.0
141
50.0
290
     0
  0
SCALE
  5
973D
102
{ACAD_REACTORS
330
9731
102
}
330
9731
100
AcDbScale
 70
     0
300
1:100
140
1.0
141
100.0
290
     0
  0
SCALE
  5
973E
102
{ACAD_REACTORS
330
9731
102
}
330
9731
100
AcDbScale
 70
     0
300
2:1
140
2.0
141
1.0
290
     0
  0
SCALE
  5
973F
102
{ACAD_REACTORS
330
9731
102
}
330
9731
100
AcDbScale
 70
     0
300
4:1
140
4.0
141
1.0
290
     0
  0
SCALE
  5
9740
102
{ACAD_REACTORS
330
9731
102
}
330
9731
100
AcDbScale
 70
     0
300
8:1
140
8.0
141
1.0
290
     0
  0
SCALE
  5
9741
102
{ACAD_REACTORS
330
9731
102
}
330
9731
100
AcDbScale
 70
     0
300
10:1
140
10.0
141
1.0
290
     0
  0
SCALE
  5
9742
102
{ACAD_REACTORS
330
9731
102
}
330
9731
100
AcDbScale
 70
     0
300
100:1
140
100.0
141
1.0
290
     0
  0
SCALE
  5
9743
102
{ACAD_REACTORS
330
9731
102
}
330
9731
100
AcDbScale
 70
     0
300
1/128" = 1'-0"
140
0.0078125
141
12.0
290
     0
  0
SCALE
  5
9744
102
{ACAD_REACTORS
330
9731
102
}
330
9731
100
AcDbScale
 70
     0
300
1/64" = 1'-0"
140
0.015625
141
12.0
290
     0
  0
SCALE
  5
9745
102
{ACAD_REACTORS
330
9731
102
}
330
9731
100
AcDbScale
 70
     0
300
1/32" = 1'-0"
140
0.03125
141
12.0
290
     0
  0
SCALE
  5
9746
102
{ACAD_REACTORS
330
9731
102
}
330
9731
100
AcDbScale
 70
     0
300
1/16" = 1'-0"
140
0.0625
141
12.0
290
     0
  0
SCALE
  5
9747
102
{ACAD_REACTORS
330
9731
102
}
330
9731
100
AcDbScale
 70
     0
300
3/32" = 1'-0"
140
0.09375
141
12.0
290
     0
  0
SCALE
  5
9748
102
{ACAD_REACTORS
330
9731
102
}
330
9731
100
AcDbScale
 70
     0
300
1/8" = 1'-0"
140
0.125
141
12.0
290
     0
  0
SCALE
  5
9749
102
{ACAD_REACTORS
330
9731
102
}
330
9731
100
AcDbScale
 70
     0
300
3/16" = 1'-0"
140
0.1875
141
12.0
290
     0
  0
SCALE
  5
974A
102
{ACAD_REACTORS
330
9731
102
}
330
9731
100
AcDbScale
 70
     0
300
1/4" = 1'-0"
140
0.25
141
12.0
290
     0
  0
SCALE
  5
974B
102
{ACAD_REACTORS
330
9731
102
}
330
9731
100
AcDbScale
 70
     0
300
3/8" = 1'-0"
140
0.375
141
12.0
290
     0
  0
SCALE
  5
974C
102
{ACAD_REACTORS
330
9731
102
}
330
9731
100
AcDbScale
 70
     0
300
1/2" = 1'-0"
140
0.5
141
12.0
290
     0
  0
SCALE
  5
974D
102
{ACAD_REACTORS
330
9731
102
}
330
9731
100
AcDbScale
 70
     0
300
3/4" = 1'-0"
140
0.75
141
12.0
290
     0
  0
SCALE
  5
974E
102
{ACAD_REACTORS
330
9731
102
}
330
9731
100
AcDbScale
 70
     0
300
1" = 1'-0"
140
1.0
141
12.0
290
     0
  0
SCALE
  5
974F
102
{ACAD_REACTORS
330
9731
102
}
330
9731
100
AcDbScale
 70
     0
300
1-1/2" = 1'-0"
140
1.5
141
12.0
290
     0
  0
SCALE
  5
9750
102
{ACAD_REACTORS
330
9731
102
}
330
9731
100
AcDbScale
 70
     0
300
3" = 1'-0"
140
3.0
141
12.0
290
     0
  0
SCALE
  5
9751
102
{ACAD_REACTORS
330
9731
102
}
330
9731
100
AcDbScale
 70
     0
300
6" = 1'-0"
140
6.0
141
12.0
290
     0
  0
SCALE
  5
9752
102
{ACAD_REACTORS
330
9731
102
}
330
9731
100
AcDbScale
 70
     0
300
1'-0" = 1'-0"
140
12.0
141
12.0
290
     0
  0
DICTIONARYVAR
  5
21BA
102
{ACAD_REACTORS
330
21B8
102
}
330
21B8
100
DictionaryVariables
280
     0
  1
2
  0
DICTIONARYVAR
  5
21B9
102
{ACAD_REACTORS
330
21B8
102
}
330
21B8
100
DictionaryVariables
280
     0
  1
1
  0
DICTIONARYVAR
  5
9230
102
{ACAD_REACTORS
330
21B8
102
}
330
21B8
100
DictionaryVariables
280
     0
  1

  0
XRECORD
  5
9309
102
{ACAD_REACTORS
330
2C
102
}
330
2C
100
AcDbXrecord
280
     1
  1
025
  1
*_025
  1
*
  1
*
 70
     0
  1
*
  1
*
  0
XRECORD
  5
930A
102
{ACAD_REACTORS
330
2C
102
}
330
2C
100
AcDbXrecord
280
     1
  1
035
  1
*_035
  1
*
  1
*
 70
     0
  1
*
  1
*
  0
XRECORD
  5
930B
102
{ACAD_REACTORS
330
2C
102
}
330
2C
100
AcDbXrecord
280
     1
  1
050
  1
*_050
  1
*
  1
*
 70
     0
  1
*
  1
*
  0
XRECORD
  5
930C
102
{ACAD_REACTORS
330
2C
102
}
330
2C
100
AcDbXrecord
280
     1
  1
070
  1
*_070
  1
*
  1
*
 70
     0
  1
*
  1
*
  0
XRECORD
  5
930D
102
{ACAD_REACTORS
330
2C
102
}
330
2C
100
AcDbXrecord
280
     1
  1
mmMC
  1
MC_*
  1
*
  1
*
 70
     0
  1
*
  1
*
  0
XRECORD
  5
930E
102
{ACAD_REACTORS
330
2C
102
}
330
2C
100
AcDbXrecord
280
     1
  1
mmRS
  1
MM_4*
  1
*
  1
*
 70
     0
  1
*
  1
*
  0
XRECORD
  5
930F
102
{ACAD_REACTORS
330
2C
102
}
330
2C
100
AcDbXrecord
280
     1
  1
mmTxt
  1
MM_8*
  1
*
  1
*
 70
     0
  1
*
  1
*
  0
XRECORD
  5
9310
102
{ACAD_REACTORS
330
2C
102
}
330
2C
100
AcDbXrecord
280
     1
  1
XREF UIT
  1
~*|*
  1
*
  1
*
 70
     0
  1
*
  1
*
  0
XRECORD
  5
9311
102
{ACAD_REACTORS
330
2C
102
}
330
2C
100
AcDbXrecord
280
     1
  1
XREFOUT
  1
~*|*
  1
*
  1
*
 70
     0
  1
*
  1
*
  0
ENDSEC
  0
EOF
